ISO-10303-21;
HEADER;
FILE_DESCRIPTION (( 'STEP AP203' ),
    '1' );
FILE_NAME ('TTN206023-E0W.STEP',
    '2020-01-17T20:16:30',
    ( '' ),
    ( '' ),
    'SwSTEP 2.0',
    'SolidWorks 2018',
    '' );
FILE_SCHEMA (( 'CONFIG_CONTROL_DESIGN' ));
ENDSEC;

DATA;
#1 = PERSON_AND_ORGANIZATION ( #70, #62 ) ;
#2 = EDGE_CURVE ( 'NONE', #30, #114, #272, .T. ) ;
#3 = ORIENTED_EDGE ( 'NONE', *, *, #122, .F. ) ;
#4 = CIRCLE ( 'NONE', #192, 35.62999999999999545 ) ;
#5 = AXIS2_PLACEMENT_3D ( 'NONE', #269, #31, #227 ) ;
#6 = ORIENTED_EDGE ( 'NONE', *, *, #2, .F. ) ;
#7 = ORIENTED_EDGE ( 'NONE', *, *, #236, .T. ) ;
#8 = AXIS2_PLACEMENT_3D ( 'NONE', #202, #32, #111 ) ;
#9 = DIRECTION ( 'NONE',  ( 0.0000000000000000000, 1.000000000000000000, 1.365923996832131609E-16 ) ) ;
#10 = PRODUCT_DEFINITION_SHAPE ( 'NONE', 'NONE',  #71 ) ;
#11 = DIRECTION ( 'NONE',  ( 0.0000000000000000000, 1.000000000000000000, 1.365923996832131609E-16 ) ) ;
#12 = FACE_OUTER_BOUND ( 'NONE', #63, .T. ) ;
#13 = DIRECTION ( 'NONE',  ( 8.659560562354969836E-17, -0.7071067811865504593, -0.7071067811865445751 ) ) ;
#14 = CARTESIAN_POINT ( 'NONE',  ( 0.0000000000000000000, -6.025262251804976862E-15, 33.46000000000000085 ) ) ;
#15 = CARTESIAN_POINT ( 'NONE',  ( 1.555301434917138433E-15, -12.69999999999999929, 1.969999999999998641 ) ) ;
#16 = SPHERICAL_SURFACE ( 'NONE', #266, 35.62999999999999545 ) ;
#17 = AXIS2_PLACEMENT_3D ( 'NONE', #234, #163, #208 ) ;
#18 = EDGE_CURVE ( 'NONE', #114, #153, #4, .T. ) ;
#19 = DIRECTION ( 'NONE',  ( -0.0000000000000000000, 1.224646799147353947E-16, -1.000000000000000000 ) ) ;
#20 = APPROVAL_PERSON_ORGANIZATION ( #279, #154, #125 ) ;
#21 = VECTOR ( 'NONE', #233, 1000.000000000000000 ) ;
#22 = COORDINATED_UNIVERSAL_TIME_OFFSET ( 5, 0, .BEHIND. ) ;
#23 = EDGE_LOOP ( 'NONE', ( #224, #6, #96, #75 ) ) ;
#24 = PRODUCT_DEFINITION_FORMATION_WITH_SPECIFIED_SOURCE ( 'ANY', '', #123, .NOT_KNOWN. ) ;
#25 = ORIENTED_EDGE ( 'NONE', *, *, #2, .T. ) ;
#26 = LINE ( 'NONE', #106, #74 ) ;
#27 = ADVANCED_FACE ( 'NONE', ( #259 ), #175, .T. ) ;
#28 = LOCAL_TIME ( 15, 16, 30.00000000000000000, #237 ) ;
#29 = EDGE_CURVE ( 'NONE', #180, #90, #26, .T. ) ;
#30 = VERTEX_POINT ( 'NONE', #54 ) ;
#31 = DIRECTION ( 'NONE',  ( 0.0000000000000000000, -1.224646799147353207E-16, 1.000000000000000000 ) ) ;
#32 = DIRECTION ( 'NONE',  ( -0.0000000000000000000, 1.224646799147353207E-16, -1.000000000000000000 ) ) ;
#33 = AXIS2_PLACEMENT_3D ( 'NONE', #258, #165, #38 ) ;
#34 = CARTESIAN_POINT ( 'NONE',  ( 0.0000000000000000000, -6.025262251804976862E-15, 33.46000000000000085 ) ) ;
#35 = VECTOR ( 'NONE', #84, 1000.000000000000000 ) ;
#36 = APPROVAL ( #186, 'UNSPECIFIED' ) ;
#37 = DIRECTION ( 'NONE',  ( -0.0000000000000000000, 1.224646799147353207E-16, -1.000000000000000000 ) ) ;
#38 = DIRECTION ( 'NONE',  ( 0.0000000000000000000, -1.000000000000000000, -1.365923996832131609E-16 ) ) ;
#39 = CARTESIAN_POINT ( 'NONE',  ( 0.0000000000000000000, -6.025262251804976862E-15, 33.46000000000000085 ) ) ;
#40 =( NAMED_UNIT ( * ) PLANE_ANGLE_UNIT ( ) SI_UNIT ( $, .RADIAN. ) );
#41 = APPROVAL ( #139, 'UNSPECIFIED' ) ;
#42 = DIRECTION ( 'NONE',  ( 0.0000000000000000000, 0.0000000000000000000, 1.000000000000000000 ) ) ;
#43 = FACE_OUTER_BOUND ( 'NONE', #190, .T. ) ;
#44 = AXIS2_PLACEMENT_3D ( 'NONE', #198, #201, #82 ) ;
#45 = COORDINATED_UNIVERSAL_TIME_OFFSET ( 5, 0, .BEHIND. ) ;
#46 = UNCERTAINTY_MEASURE_WITH_UNIT (LENGTH_MEASURE( 1.000000000000000082E-05 ), #231, 'distance_accuracy_value', 'NONE');
#47 = VERTEX_POINT ( 'NONE', #135 ) ;
#48 = ORIENTED_EDGE ( 'NONE', *, *, #144, .F. ) ;
#49 = FACE_OUTER_BOUND ( 'NONE', #142, .T. ) ;
#50 = AXIS2_PLACEMENT_3D ( 'NONE', #223, #176, #178 ) ;
#51 = DIRECTION ( 'NONE',  ( -0.0000000000000000000, 1.224646799147353947E-16, -1.000000000000000000 ) ) ;
#52 = ORIENTED_EDGE ( 'NONE', *, *, #130, .T. ) ;
#53 = DIRECTION ( 'NONE',  ( 0.0000000000000000000, 1.000000000000000000, 1.219433832503309397E-16 ) ) ;
#54 = CARTESIAN_POINT ( 'NONE',  ( 1.537982313792428463E-15, -12.55857864376269006, 0.1166498016706910140 ) ) ;
#55 = CALENDAR_DATE ( 2020, 17, 1 ) ;
#56 = CC_DESIGN_PERSON_AND_ORGANIZATION_ASSIGNMENT ( #230, #159, ( #200 ) ) ;
#57 = VERTEX_POINT ( 'NONE', #197 ) ;
#58 = CARTESIAN_POINT ( 'NONE',  ( 0.0000000000000000000, 12.69999999999999929, 1.970000000000002194 ) ) ;
#59 = EDGE_CURVE ( 'NONE', #180, #215, #232, .T. ) ;
#60 = DIRECTION ( 'NONE',  ( -1.224646799147353207E-16, 1.000000000000000000, 0.0000000000000000000 ) ) ;
#61 = ADVANCED_FACE ( 'NONE', ( #43 ), #100, .T. ) ;
#62 = ORGANIZATION ( 'UNSPECIFIED', 'UNSPECIFIED', '' ) ;
#63 = EDGE_LOOP ( 'NONE', ( #126, #52 ) ) ;
#64 = CIRCLE ( 'NONE', #150, 12.49999999999999822 ) ;
#65 = ADVANCED_FACE ( 'NONE', ( #12 ), #249, .T. ) ;
#66 = DIRECTION ( 'NONE',  ( 0.0000000000000000000, 1.000000000000000000, 1.365923996832131609E-16 ) ) ;
#67 = DIRECTION ( 'NONE',  ( -0.0000000000000000000, 1.224646799147353207E-16, -1.000000000000000000 ) ) ;
#68 = APPLICATION_CONTEXT ( 'configuration controlled 3d designs of mechanical parts and assemblies' ) ;
#69 = EDGE_LOOP ( 'NONE', ( #99, #102, #157, #120 ) ) ;
#70 = PERSON ( 'UNSPECIFIED', 'UNSPECIFIED', 'UNSPECIFIED', ('UNSPECIFIED'), ('UNSPECIFIED'), ('UNSPECIFIED') ) ;
#71 = PRODUCT_DEFINITION ( 'UNKNOWN', '', #24, #72 ) ;
#72 = DESIGN_CONTEXT ( 'detailed design', #121, 'design' ) ;
#73 = ORIENTED_EDGE ( 'NONE', *, *, #115, .T. ) ;
#74 = VECTOR ( 'NONE', #131, 1000.000000000000000 ) ;
#75 = ORIENTED_EDGE ( 'NONE', *, *, #174, .T. ) ;
#76 = SPHERICAL_SURFACE ( 'NONE', #265, 35.62999999999999545 ) ;
#77 = APPROVAL_DATE_TIME ( #149, #41 ) ;
#78 = LINE ( 'NONE', #246, #297 ) ;
#79 = CARTESIAN_POINT ( 'NONE',  ( 0.0000000000000000000, -2.528895640239283827E-16, 1.970000000000000417 ) ) ;
#80 = PERSON_AND_ORGANIZATION ( #70, #62 ) ;
#81 = DIRECTION ( 'NONE',  ( -1.000000000000000000, 0.0000000000000000000, 0.0000000000000000000 ) ) ;
#82 = DIRECTION ( 'NONE',  ( 0.0000000000000000000, -1.000000000000000000, -1.219433832503309397E-16 ) ) ;
#83 = DIRECTION ( 'NONE',  ( 0.0000000000000000000, -1.000000000000000000, -1.387778780781445922E-16 ) ) ;
#84 = DIRECTION ( 'NONE',  ( 8.659560562354947649E-17, 0.7071067811865485719, 0.7071067811865465735 ) ) ;
#85 = ADVANCED_FACE ( 'NONE', ( #244 ), #284, .T. ) ;
#86 = CONICAL_SURFACE ( 'NONE', #182, 12.69999999999999929, 0.7853981633974526089 ) ;
#87 = CC_DESIGN_PERSON_AND_ORGANIZATION_ASSIGNMENT ( #285, #292, ( #24 ) ) ;
#88 = DIRECTION ( 'NONE',  ( 0.0000000000000000000, -1.000000000000000000, -1.219433832503309397E-16 ) ) ;
#89 = EDGE_LOOP ( 'NONE', ( #243, #7, #119, #167 ) ) ;
#90 = VERTEX_POINT ( 'NONE', #58 ) ;
#91 = DIRECTION ( 'NONE',  ( -0.0000000000000000000, 1.224646799147353207E-16, -1.000000000000000000 ) ) ;
#92 = APPROVAL_ROLE ( '' ) ;
#93 = APPROVAL_ROLE ( '' ) ;
#94 = DATE_AND_TIME ( #173, #28 ) ;
#95 = PERSON_AND_ORGANIZATION_ROLE ( 'design_owner' ) ;
#96 = ORIENTED_EDGE ( 'NONE', *, *, #204, .T. ) ;
#97 = CARTESIAN_POINT ( 'NONE',  ( 0.0000000000000000000, -4.323874634032822086E-17, 0.2580711579080012807 ) ) ;
#98 = CC_DESIGN_APPROVAL ( #41, ( #24 ) ) ;
#99 = ORIENTED_EDGE ( 'NONE', *, *, #115, .F. ) ;
#100 = CYLINDRICAL_SURFACE ( 'NONE', #8, 12.69999999999999929 ) ;
#101 = LOCAL_TIME ( 15, 16, 30.00000000000000000, #22 ) ;
#102 = ORIENTED_EDGE ( 'NONE', *, *, #59, .F. ) ;
#103 = ORIENTED_EDGE ( 'NONE', *, *, #250, .T. ) ;
#104 = LINE ( 'NONE', #179, #35 ) ;
#105 = AXIS2_PLACEMENT_3D ( 'NONE', #273, #226, #88 ) ;
#106 = CARTESIAN_POINT ( 'NONE',  ( 0.0000000000000000000, 12.69999999999999929, 1.970000000000002194 ) ) ;
#107 = CC_DESIGN_DATE_AND_TIME_ASSIGNMENT ( #162, #140, ( #200 ) ) ;
#108 = LOCAL_TIME ( 15, 16, 30.00000000000000000, #169 ) ;
#109 = DIRECTION ( 'NONE',  ( 0.0000000000000000000, 0.0000000000000000000, 1.000000000000000000 ) ) ;
#110 = DIRECTION ( 'NONE',  ( 0.0000000000000000000, 1.000000000000000000, 1.237868622129119302E-16 ) ) ;
#111 = DIRECTION ( 'NONE',  ( 0.0000000000000000000, 1.000000000000000000, 1.365923996832131609E-16 ) ) ;
#112 = EDGE_LOOP ( 'NONE', ( #191, #132, #295 ) ) ;
#113 = DIRECTION ( 'NONE',  ( 1.000000000000000000, 0.0000000000000000000, -0.0000000000000000000 ) ) ;
#114 = VERTEX_POINT ( 'NONE', #271 ) ;
#115 = EDGE_CURVE ( 'NONE', #215, #47, #213, .T. ) ;
#116 = CARTESIAN_POINT ( 'NONE',  ( 0.0000000000000000000, 5.198625662380505935E-16, -2.169999999999991491 ) ) ;
#117 = APPROVAL_PERSON_ORGANIZATION ( #80, #41, #93 ) ;
#118 = CARTESIAN_POINT ( 'NONE',  ( 1.555301434917138433E-15, -12.69999999999999929, -2.170000000000001705 ) ) ;
#119 = ORIENTED_EDGE ( 'NONE', *, *, #144, .T. ) ;
#120 = ORIENTED_EDGE ( 'NONE', *, *, #236, .F. ) ;
#121 = APPLICATION_CONTEXT ( 'configuration controlled 3d designs of mechanical parts and assemblies' ) ;
#122 = EDGE_CURVE ( 'NONE', #30, #153, #264, .T. ) ;
#123 = PRODUCT ( 'TTN206023-E0W', 'TTN206023-E0W', '', ( #260 ) ) ;
#124 = CARTESIAN_POINT ( 'NONE',  ( 0.0000000000000000000, -2.591962521561839643E-17, 0.1166498016706919855 ) ) ;
#125 = APPROVAL_ROLE ( '' ) ;
#126 = ORIENTED_EDGE ( 'NONE', *, *, #59, .T. ) ;
#127 = AXIS2_PLACEMENT_3D ( 'NONE', #97, #278, #277 ) ;
#128 = ORIENTED_EDGE ( 'NONE', *, *, #29, .F. ) ;
#129 = EDGE_LOOP ( 'NONE', ( #170, #73, #238, #128 ) ) ;
#130 = EDGE_CURVE ( 'NONE', #215, #180, #64, .T. ) ;
#131 = DIRECTION ( 'NONE',  ( 0.0000000000000000000, 0.7071067811865506814, -0.7071067811865443531 ) ) ;
#132 = ORIENTED_EDGE ( 'NONE', *, *, #122, .T. ) ;
#133 = ORIENTED_EDGE ( 'NONE', *, *, #18, .T. ) ;
#134 = CARTESIAN_POINT ( 'NONE',  ( 0.0000000000000000000, -12.55857864376269006, 0.1166498016706904589 ) ) ;
#135 = CARTESIAN_POINT ( 'NONE',  ( 1.555301434917138433E-15, -12.69999999999999929, 1.969999999999998641 ) ) ;
#136 = CC_DESIGN_PERSON_AND_ORGANIZATION_ASSIGNMENT ( #1, #187, ( #71 ) ) ;
#137 = DIRECTION ( 'NONE',  ( 1.000000000000000000, 1.224646799147353207E-16, 1.499759782661857608E-32 ) ) ;
#138 = EDGE_LOOP ( 'NONE', ( #3, #25, #133 ) ) ;
#139 = APPROVAL_STATUS ( 'not_yet_approved' ) ;
#140 = DATE_TIME_ROLE ( 'classification_date' ) ;
#141 = CARTESIAN_POINT ( 'NONE',  ( 0.0000000000000000000, -2.528895640239283827E-16, 1.970000000000000417 ) ) ;
#142 = EDGE_LOOP ( 'NONE', ( #290, #212, #103, #148 ) ) ;
#143 = FACE_OUTER_BOUND ( 'NONE', #112, .T. ) ;
#144 = EDGE_CURVE ( 'NONE', #90, #184, #78, .T. ) ;
#145 = LOCAL_TIME ( 15, 16, 30.00000000000000000, #45 ) ;
#146 = ORIENTED_EDGE ( 'NONE', *, *, #286, .T. ) ;
#147 = CC_DESIGN_PERSON_AND_ORGANIZATION_ASSIGNMENT ( #293, #95, ( #123 ) ) ;
#148 = ORIENTED_EDGE ( 'NONE', *, *, #204, .F. ) ;
#149 = DATE_AND_TIME ( #211, #145 ) ;
#150 = AXIS2_PLACEMENT_3D ( 'NONE', #270, #222, #83 ) ;
#151 = FACE_OUTER_BOUND ( 'NONE', #138, .T. ) ;
#152 = APPROVAL_PERSON_ORGANIZATION ( #275, #36, #92 ) ;
#153 = VERTEX_POINT ( 'NONE', #116 ) ;
#154 = APPROVAL ( #300, 'UNSPECIFIED' ) ;
#155 = APPROVAL_DATE_TIME ( #203, #154 ) ;
#156 = EDGE_CURVE ( 'NONE', #114, #184, #104, .T. ) ;
#157 = ORIENTED_EDGE ( 'NONE', *, *, #29, .T. ) ;
#158 = ADVANCED_FACE ( 'NONE', ( #185 ), #199, .T. ) ;
#159 = PERSON_AND_ORGANIZATION_ROLE ( 'classification_officer' ) ;
#160 = PERSON_AND_ORGANIZATION_ROLE ( 'creator' ) ;
#161 = ADVANCED_FACE ( 'NONE', ( #151 ), #76, .T. ) ;
#162 = DATE_AND_TIME ( #219, #108 ) ;
#163 = DIRECTION ( 'NONE',  ( -0.0000000000000000000, 1.224646799147353947E-16, -1.000000000000000000 ) ) ;
#164 = ORIENTED_EDGE ( 'NONE', *, *, #274, .T. ) ;
#165 = DIRECTION ( 'NONE',  ( -0.0000000000000000000, 1.224646799147353947E-16, -1.000000000000000000 ) ) ;
#166 = DIRECTION ( 'NONE',  ( 1.000000000000000000, 0.0000000000000000000, -0.0000000000000000000 ) ) ;
#167 = ORIENTED_EDGE ( 'NONE', *, *, #174, .F. ) ;
#168 = FACE_OUTER_BOUND ( 'NONE', #69, .T. ) ;
#169 = COORDINATED_UNIVERSAL_TIME_OFFSET ( 5, 0, .BEHIND. ) ;
#170 = ORIENTED_EDGE ( 'NONE', *, *, #130, .F. ) ;
#171 = DIRECTION ( 'NONE',  ( -0.0000000000000000000, 1.224646799147353207E-16, -1.000000000000000000 ) ) ;
#172 = ADVANCED_FACE ( 'NONE', ( #49 ), #281, .T. ) ;
#173 = CALENDAR_DATE ( 2020, 17, 1 ) ;
#174 = EDGE_CURVE ( 'NONE', #57, #184, #206, .T. ) ;
#175 = CONICAL_SURFACE ( 'NONE', #239, 12.69999999999999929, 0.7853981633974526089 ) ;
#176 = DIRECTION ( 'NONE',  ( 0.0000000000000000000, -1.224646799147353207E-16, 1.000000000000000000 ) ) ;
#177 = COORDINATED_UNIVERSAL_TIME_OFFSET ( 5, 0, .BEHIND. ) ;
#178 = DIRECTION ( 'NONE',  ( 0.0000000000000000000, -1.000000000000000000, -1.387778780781445922E-16 ) ) ;
#179 = CARTESIAN_POINT ( 'NONE',  ( 1.537982313792428661E-15, 12.55857864376269006, 0.1166498016706935259 ) ) ;
#180 = VERTEX_POINT ( 'NONE', #289 ) ;
#181 = CARTESIAN_POINT ( 'NONE',  ( 0.0000000000000000000, -4.323874634032822086E-17, 0.2580711579080012807 ) ) ;
#182 = AXIS2_PLACEMENT_3D ( 'NONE', #141, #19, #66 ) ;
#183 = CARTESIAN_POINT ( 'NONE',  ( 0.0000000000000000000, 12.69999999999999929, 0.2580711579080028351 ) ) ;
#184 = VERTEX_POINT ( 'NONE', #183 ) ;
#185 = FACE_OUTER_BOUND ( 'NONE', #89, .T. ) ;
#186 = APPROVAL_STATUS ( 'not_yet_approved' ) ;
#187 = PERSON_AND_ORGANIZATION_ROLE ( 'creator' ) ;
#188 = CIRCLE ( 'NONE', #262, 12.55857864376269006 ) ;
#189 = CC_DESIGN_PERSON_AND_ORGANIZATION_ASSIGNMENT ( #261, #160, ( #24 ) ) ;
#190 = EDGE_LOOP ( 'NONE', ( #146, #164, #253, #48 ) ) ;
#191 = ORIENTED_EDGE ( 'NONE', *, *, #263, .T. ) ;
#192 = AXIS2_PLACEMENT_3D ( 'NONE', #221, #81, #109 ) ;
#193 = CC_DESIGN_SECURITY_CLASSIFICATION ( #200, ( #24 ) ) ;
#194 = CIRCLE ( 'NONE', #17, 12.69999999999999929 ) ;
#195 = CC_DESIGN_DATE_AND_TIME_ASSIGNMENT ( #94, #209, ( #71 ) ) ;
#196 = CIRCLE ( 'NONE', #33, 12.69999999999999929 ) ;
#197 = CARTESIAN_POINT ( 'NONE',  ( 1.555301434917138433E-15, -12.69999999999999929, 0.2580711579079996709 ) ) ;
#198 = CARTESIAN_POINT ( 'NONE',  ( 0.0000000000000000000, -2.591962521561839643E-17, 0.1166498016706919855 ) ) ;
#199 = CYLINDRICAL_SURFACE ( 'NONE', #216, 12.69999999999999929 ) ;
#200 = SECURITY_CLASSIFICATION ( '', '', #276 ) ;
#201 = DIRECTION ( 'NONE',  ( 0.0000000000000000000, -1.224646799147353207E-16, 1.000000000000000000 ) ) ;
#202 = CARTESIAN_POINT ( 'NONE',  ( 0.0000000000000000000, 2.541142108230759057E-16, -2.169999999999999929 ) ) ;
#203 = DATE_AND_TIME ( #217, #101 ) ;
#204 = EDGE_CURVE ( 'NONE', #30, #57, #247, .T. ) ;
#205 = CARTESIAN_POINT ( 'NONE',  ( 0.0000000000000000000, 2.541142108230759057E-16, -2.169999999999999929 ) ) ;
#206 = CIRCLE ( 'NONE', #298, 12.69999999999999929 ) ;
#207 = DIRECTION ( 'NONE',  ( 0.0000000000000000000, 1.000000000000000000, 1.219433832503309397E-16 ) ) ;
#208 = DIRECTION ( 'NONE',  ( 0.0000000000000000000, -1.000000000000000000, -1.365923996832131609E-16 ) ) ;
#209 = DATE_TIME_ROLE ( 'creation_date' ) ;
#210 = DIRECTION ( 'NONE',  ( 1.000000000000000000, 0.0000000000000000000, 0.0000000000000000000 ) ) ;
#211 = CALENDAR_DATE ( 2020, 17, 1 ) ;
#212 = ORIENTED_EDGE ( 'NONE', *, *, #156, .T. ) ;
#213 = LINE ( 'NONE', #15, #287 ) ;
#214 = CC_DESIGN_APPROVAL ( #154, ( #71 ) ) ;
#215 = VERTEX_POINT ( 'NONE', #299 ) ;
#216 = AXIS2_PLACEMENT_3D ( 'NONE', #205, #267, #11 ) ;
#217 = CALENDAR_DATE ( 2020, 17, 1 ) ;
#218 = CIRCLE ( 'NONE', #127, 12.69999999999999929 ) ;
#219 = CALENDAR_DATE ( 2020, 17, 1 ) ;
#220 = CLOSED_SHELL ( 'NONE', ( #27, #172, #61, #252, #161, #65, #158, #85, #294 ) ) ;
#221 = CARTESIAN_POINT ( 'NONE',  ( 0.0000000000000000000, -6.025262251804976862E-15, 33.46000000000000085 ) ) ;
#222 = DIRECTION ( 'NONE',  ( 0.0000000000000000000, -1.224646799147353207E-16, 1.000000000000000000 ) ) ;
#223 = CARTESIAN_POINT ( 'NONE',  ( 0.0000000000000000000, -2.773825000068753433E-16, 2.169999999999999041 ) ) ;
#224 = ORIENTED_EDGE ( 'NONE', *, *, #156, .F. ) ;
#225 = LINE ( 'NONE', #118, #235 ) ;
#226 = DIRECTION ( 'NONE',  ( 0.0000000000000000000, -1.224646799147353207E-16, 1.000000000000000000 ) ) ;
#227 = DIRECTION ( 'NONE',  ( 0.0000000000000000000, -1.000000000000000000, -1.224646799147353207E-16 ) ) ;
#228 = PRODUCT_RELATED_PRODUCT_CATEGORY ( 'detail', '', ( #123 ) ) ;
#229 = DIRECTION ( 'NONE',  ( 0.0000000000000000000, 1.000000000000000000, 1.947486360905761742E-16 ) ) ;
#230 = PERSON_AND_ORGANIZATION ( #70, #62 ) ;
#231 =( LENGTH_UNIT ( ) NAMED_UNIT ( * ) SI_UNIT ( .MILLI., .METRE. ) );
#232 = CIRCLE ( 'NONE', #50, 12.49999999999999822 ) ;
#233 = DIRECTION ( 'NONE',  ( 0.0000000000000000000, -0.7071067811865487940, 0.7071067811865463515 ) ) ;
#234 = CARTESIAN_POINT ( 'NONE',  ( 0.0000000000000000000, -2.528895640239283827E-16, 1.970000000000000417 ) ) ;
#235 = VECTOR ( 'NONE', #67, 1000.000000000000000 ) ;
#236 = EDGE_CURVE ( 'NONE', #47, #90, #194, .T. ) ;
#237 = COORDINATED_UNIVERSAL_TIME_OFFSET ( 5, 0, .BEHIND. ) ;
#238 = ORIENTED_EDGE ( 'NONE', *, *, #286, .F. ) ;
#239 = AXIS2_PLACEMENT_3D ( 'NONE', #79, #51, #9 ) ;
#240 = ADVANCED_BREP_SHAPE_REPRESENTATION ( 'TTN206023-E0W', ( #268, #280 ), #283 ) ;
#241 = CC_DESIGN_APPROVAL ( #36, ( #200 ) ) ;
#242 = DATE_AND_TIME ( #55, #257 ) ;
#243 = ORIENTED_EDGE ( 'NONE', *, *, #274, .F. ) ;
#244 = FACE_OUTER_BOUND ( 'NONE', #23, .T. ) ;
#245 = DIRECTION ( 'NONE',  ( -0.0000000000000000000, 1.224646799147353207E-16, -1.000000000000000000 ) ) ;
#246 = CARTESIAN_POINT ( 'NONE',  ( 0.0000000000000000000, 12.69999999999999929, -2.169999999999998153 ) ) ;
#247 = LINE ( 'NONE', #134, #21 ) ;
#248 = AXIS2_PLACEMENT_3D ( 'NONE', #14, #137, #60 ) ;
#249 = PLANE ( 'NONE',  #5 ) ;
#250 = EDGE_CURVE ( 'NONE', #184, #57, #218, .T. ) ;
#251 = SHAPE_DEFINITION_REPRESENTATION ( #10, #240 ) ;
#252 = ADVANCED_FACE ( 'NONE', ( #143 ), #16, .T. ) ;
#253 = ORIENTED_EDGE ( 'NONE', *, *, #250, .F. ) ;
#254 = APPLICATION_PROTOCOL_DEFINITION ( 'international standard', 'config_control_design', 1994, #68 ) ;
#255 = CARTESIAN_POINT ( 'NONE',  ( 0.0000000000000000000, 0.0000000000000000000, 0.0000000000000000000 ) ) ;
#256 = APPLICATION_PROTOCOL_DEFINITION ( 'international standard', 'config_control_design', 1994, #121 ) ;
#257 = LOCAL_TIME ( 15, 16, 30.00000000000000000, #177 ) ;
#258 = CARTESIAN_POINT ( 'NONE',  ( 0.0000000000000000000, -2.528895640239283827E-16, 1.970000000000000417 ) ) ;
#259 = FACE_OUTER_BOUND ( 'NONE', #129, .T. ) ;
#260 = MECHANICAL_CONTEXT ( 'NONE', #68, 'mechanical' ) ;
#261 = PERSON_AND_ORGANIZATION ( #70, #62 ) ;
#262 = AXIS2_PLACEMENT_3D ( 'NONE', #124, #37, #207 ) ;
#263 = EDGE_CURVE ( 'NONE', #114, #30, #188, .T. ) ;
#264 = CIRCLE ( 'NONE', #248, 35.62999999999999545 ) ;
#265 = AXIS2_PLACEMENT_3D ( 'NONE', #34, #113, #291 ) ;
#266 = AXIS2_PLACEMENT_3D ( 'NONE', #39, #166, #229 ) ;
#267 = DIRECTION ( 'NONE',  ( -0.0000000000000000000, 1.224646799147353207E-16, -1.000000000000000000 ) ) ;
#268 = MANIFOLD_SOLID_BREP ( 'TTN206039-1-solid1', #220 ) ;
#269 = CARTESIAN_POINT ( 'NONE',  ( 0.0000000000000000000, -2.773825000068753433E-16, 2.169999999999999041 ) ) ;
#270 = CARTESIAN_POINT ( 'NONE',  ( 0.0000000000000000000, -2.773825000068753433E-16, 2.169999999999999041 ) ) ;
#271 = CARTESIAN_POINT ( 'NONE',  ( 0.0000000000000000000, 12.55857864376269006, 0.1166498016706925267 ) ) ;
#272 = CIRCLE ( 'NONE', #282, 12.55857864376269006 ) ;
#273 = CARTESIAN_POINT ( 'NONE',  ( 0.0000000000000000000, -2.591962521561839643E-17, 0.1166498016706919855 ) ) ;
#274 = EDGE_CURVE ( 'NONE', #47, #57, #225, .T. ) ;
#275 = PERSON_AND_ORGANIZATION ( #70, #62 ) ;
#276 = SECURITY_CLASSIFICATION_LEVEL ( 'unclassified' ) ;
#277 = DIRECTION ( 'NONE',  ( 0.0000000000000000000, 1.000000000000000000, 1.237868622129119302E-16 ) ) ;
#278 = DIRECTION ( 'NONE',  ( -0.0000000000000000000, 1.224646799147353207E-16, -1.000000000000000000 ) ) ;
#279 = PERSON_AND_ORGANIZATION ( #70, #62 ) ;
#280 = AXIS2_PLACEMENT_3D ( 'NONE', #255, #42, #210 ) ;
#281 = CONICAL_SURFACE ( 'NONE', #105, 12.55857864376269006, 0.7853981633974498333 ) ;
#282 = AXIS2_PLACEMENT_3D ( 'NONE', #288, #171, #53 ) ;
#283 =( GEOMETRIC_REPRESENTATION_CONTEXT ( 3 ) GLOBAL_UNCERTAINTY_ASSIGNED_CONTEXT ( ( #46 ) ) GLOBAL_UNIT_ASSIGNED_CONTEXT ( ( #231, #40, #296 ) ) REPRESENTATION_CONTEXT ( 'NONE', 'WORKASPACE' ) );
#284 = CONICAL_SURFACE ( 'NONE', #44, 12.55857864376269006, 0.7853981633974498333 ) ;
#285 = PERSON_AND_ORGANIZATION ( #70, #62 ) ;
#286 = EDGE_CURVE ( 'NONE', #90, #47, #196, .T. ) ;
#287 = VECTOR ( 'NONE', #13, 1000.000000000000000 ) ;
#288 = CARTESIAN_POINT ( 'NONE',  ( 0.0000000000000000000, -2.591962521561839643E-17, 0.1166498016706919855 ) ) ;
#289 = CARTESIAN_POINT ( 'NONE',  ( 0.0000000000000000000, 12.49999999999999822, 2.170000000000000817 ) ) ;
#290 = ORIENTED_EDGE ( 'NONE', *, *, #263, .F. ) ;
#291 = DIRECTION ( 'NONE',  ( 0.0000000000000000000, 1.000000000000000000, 1.947486360905761742E-16 ) ) ;
#292 = PERSON_AND_ORGANIZATION_ROLE ( 'design_supplier' ) ;
#293 = PERSON_AND_ORGANIZATION ( #70, #62 ) ;
#294 = ADVANCED_FACE ( 'NONE', ( #168 ), #86, .T. ) ;
#295 = ORIENTED_EDGE ( 'NONE', *, *, #18, .F. ) ;
#296 =( NAMED_UNIT ( * ) SI_UNIT ( $, .STERADIAN. ) SOLID_ANGLE_UNIT ( ) );
#297 = VECTOR ( 'NONE', #91, 1000.000000000000000 ) ;
#298 = AXIS2_PLACEMENT_3D ( 'NONE', #181, #245, #110 ) ;
#299 = CARTESIAN_POINT ( 'NONE',  ( 1.543054966925664878E-15, -12.49999999999999822, 2.169999999999997264 ) ) ;
#300 = APPROVAL_STATUS ( 'not_yet_approved' ) ;
#301 = APPROVAL_DATE_TIME ( #242, #36 ) ;
ENDSEC;
END-ISO-10303-21;
