ISO-10303-21;
HEADER;
FILE_DESCRIPTION (( 'STEP AP203' ),
    '1' );
FILE_NAME ('43366C_36201.step',
    '2017-07-20T12:39:53',
    ( '' ),
    ( '' ),
    'SwSTEP 2.0',
    'SolidWorks 2016',
    '' );
FILE_SCHEMA (( 'CONFIG_CONTROL_DESIGN' ));
ENDSEC;

DATA;
#1 = AXIS2_PLACEMENT_3D ( 'NONE', #120, #76, #134 ) ;
#2 = PERSON_AND_ORGANIZATION_ROLE ( 'creator' ) ;
#3 = CALENDAR_DATE ( 2017, 20, 7 ) ;
#4 = PERSON_AND_ORGANIZATION_ROLE ( 'design_supplier' ) ;
#5 = COORDINATED_UNIVERSAL_TIME_OFFSET ( 5, 0, .BEHIND. ) ;
#6 = AXIS2_PLACEMENT_3D ( 'NONE', #11, #38, #125 ) ;
#7 = ORIENTED_EDGE ( 'NONE', *, *, #75, .T. ) ;
#8 = CC_DESIGN_SECURITY_CLASSIFICATION ( #45, ( #82 ) ) ;
#9 = AXIS2_PLACEMENT_3D ( 'NONE', #166, #14, #175 ) ;
#10 = PERSON_AND_ORGANIZATION ( #85, #133 ) ;
#11 = CARTESIAN_POINT ( 'NONE',  ( 0.0000000000000000000, 0.0000000000000000000, 0.5000000000000000000 ) ) ;
#12 = PLANE ( 'NONE',  #21 ) ;
#13 = APPROVAL_ROLE ( '' ) ;
#14 = DIRECTION ( 'NONE',  ( -0.0000000000000000000, -0.0000000000000000000, -1.000000000000000000 ) ) ;
#15 = CIRCLE ( 'NONE', #167, 5.000000000000004400 ) ;
#16 = VECTOR ( 'NONE', #58, 1000.000000000000000 ) ;
#17 = LOCAL_TIME ( 8, 39, 53.00000000000000000, #81 ) ;
#18 = DIRECTION ( 'NONE',  ( 0.0000000000000000000, 0.0000000000000000000, 1.000000000000000000 ) ) ;
#19 = ADVANCED_BREP_SHAPE_REPRESENTATION ( '43366C_36201', ( #48, #144 ), #169 ) ;
#20 = DATE_TIME_ROLE ( 'classification_date' ) ;
#21 = AXIS2_PLACEMENT_3D ( 'NONE', #109, #66, #33 ) ;
#22 = APPROVAL_PERSON_ORGANIZATION ( #123, #155, #107 ) ;
#23 = DIRECTION ( 'NONE',  ( 0.0000000000000000000, 0.0000000000000000000, 1.000000000000000000 ) ) ;
#24 = PERSON_AND_ORGANIZATION_ROLE ( 'classification_officer' ) ;
#25 = EDGE_LOOP ( 'NONE', ( #7, #40 ) ) ;
#26 = CC_DESIGN_DATE_AND_TIME_ASSIGNMENT ( #50, #20, ( #45 ) ) ;
#27 =( NAMED_UNIT ( * ) PLANE_ANGLE_UNIT ( ) SI_UNIT ( $, .RADIAN. ) );
#28 = PERSON_AND_ORGANIZATION ( #85, #133 ) ;
#29 = DATE_TIME_ROLE ( 'creation_date' ) ;
#30 = APPLICATION_CONTEXT ( 'configuration controlled 3d designs of mechanical parts and assemblies' ) ;
#31 = ORIENTED_EDGE ( 'NONE', *, *, #57, .T. ) ;
#32 = APPROVAL_DATE_TIME ( #71, #117 ) ;
#33 = DIRECTION ( 'NONE',  ( 1.000000000000000000, 0.0000000000000000000, -0.0000000000000000000 ) ) ;
#34 = CC_DESIGN_PERSON_AND_ORGANIZATION_ASSIGNMENT ( #46, #4, ( #82 ) ) ;
#35 = MECHANICAL_CONTEXT ( 'NONE', #131, 'mechanical' ) ;
#36 = LOCAL_TIME ( 8, 39, 53.00000000000000000, #141 ) ;
#37 = AXIS2_PLACEMENT_3D ( 'NONE', #119, #18, #165 ) ;
#38 = DIRECTION ( 'NONE',  ( -0.0000000000000000000, -0.0000000000000000000, -1.000000000000000000 ) ) ;
#39 = CARTESIAN_POINT ( 'NONE',  ( 5.000000000000004400, 6.123233995736772200E-016, 0.5000000000000000000 ) ) ;
#40 = ORIENTED_EDGE ( 'NONE', *, *, #91, .T. ) ;
#41 = CALENDAR_DATE ( 2017, 20, 7 ) ;
#42 = CARTESIAN_POINT ( 'NONE',  ( -5.000000000000004400, 0.0000000000000000000, 0.5000000000000000000 ) ) ;
#43 = CARTESIAN_POINT ( 'NONE',  ( -5.000000000000004400, 0.0000000000000000000, 0.5000000000000000000 ) ) ;
#44 = ORIENTED_EDGE ( 'NONE', *, *, #84, .F. ) ;
#45 = SECURITY_CLASSIFICATION ( '', '', #94 ) ;
#46 = PERSON_AND_ORGANIZATION ( #85, #133 ) ;
#47 = EDGE_CURVE ( 'NONE', #139, #168, #130, .T. ) ;
#48 = MANIFOLD_SOLID_BREP ( 'Boss-Extrude1', #87 ) ;
#49 = FACE_OUTER_BOUND ( 'NONE', #147, .T. ) ;
#50 = DATE_AND_TIME ( #154, #17 ) ;
#51 =( NAMED_UNIT ( * ) SI_UNIT ( $, .STERADIAN. ) SOLID_ANGLE_UNIT ( ) );
#52 = CARTESIAN_POINT ( 'NONE',  ( 0.0000000000000000000, 0.0000000000000000000, 0.5000000000000000000 ) ) ;
#53 = FACE_OUTER_BOUND ( 'NONE', #93, .T. ) ;
#54 = EDGE_LOOP ( 'NONE', ( #112, #62 ) ) ;
#55 = CALENDAR_DATE ( 2017, 20, 7 ) ;
#56 = CC_DESIGN_PERSON_AND_ORGANIZATION_ASSIGNMENT ( #10, #83, ( #82 ) ) ;
#57 = EDGE_CURVE ( 'NONE', #106, #168, #70, .T. ) ;
#58 = DIRECTION ( 'NONE',  ( -0.0000000000000000000, -0.0000000000000000000, -1.000000000000000000 ) ) ;
#59 = UNCERTAINTY_MEASURE_WITH_UNIT (LENGTH_MEASURE( 1.000000000000000100E-005 ), #102, 'distance_accuracy_value', 'NONE');
#60 = SHAPE_DEFINITION_REPRESENTATION ( #61, #19 ) ;
#61 = PRODUCT_DEFINITION_SHAPE ( 'NONE', 'NONE',  #129 ) ;
#62 = ORIENTED_EDGE ( 'NONE', *, *, #47, .F. ) ;
#63 = CC_DESIGN_APPROVAL ( #72, ( #82 ) ) ;
#64 = CARTESIAN_POINT ( 'NONE',  ( 5.000000000000004400, 6.123233995736772200E-016, 0.5000000000000000000 ) ) ;
#65 = EDGE_CURVE ( 'NONE', #168, #139, #15, .T. ) ;
#66 = DIRECTION ( 'NONE',  ( 0.0000000000000000000, 0.0000000000000000000, 1.000000000000000000 ) ) ;
#67 = FACE_OUTER_BOUND ( 'NONE', #54, .T. ) ;
#68 = APPROVAL_PERSON_ORGANIZATION ( #28, #117, #126 ) ;
#69 = PLANE ( 'NONE',  #103 ) ;
#70 = LINE ( 'NONE', #43, #16 ) ;
#71 = DATE_AND_TIME ( #137, #173 ) ;
#72 = APPROVAL ( #171, 'UNSPECIFIED' ) ;
#73 = PERSON_AND_ORGANIZATION ( #85, #133 ) ;
#74 = CC_DESIGN_APPROVAL ( #155, ( #45 ) ) ;
#75 = EDGE_CURVE ( 'NONE', #106, #150, #170, .T. ) ;
#76 = DIRECTION ( 'NONE',  ( 0.0000000000000000000, 0.0000000000000000000, 1.000000000000000000 ) ) ;
#77 = PRODUCT ( '43366C_36201', '43366C_36201', '', ( #35 ) ) ;
#78 = ORIENTED_EDGE ( 'NONE', *, *, #75, .F. ) ;
#79 = LOCAL_TIME ( 8, 39, 53.00000000000000000, #5 ) ;
#80 = DIRECTION ( 'NONE',  ( 1.000000000000000000, 0.0000000000000000000, 0.0000000000000000000 ) ) ;
#81 = COORDINATED_UNIVERSAL_TIME_OFFSET ( 5, 0, .BEHIND. ) ;
#82 = PRODUCT_DEFINITION_FORMATION_WITH_SPECIFIED_SOURCE ( 'ANY', '', #77, .NOT_KNOWN. ) ;
#83 = PERSON_AND_ORGANIZATION_ROLE ( 'creator' ) ;
#84 = EDGE_CURVE ( 'NONE', #150, #139, #132, .T. ) ;
#85 = PERSON ( 'UNSPECIFIED', 'UNSPECIFIED', 'UNSPECIFIED', ('UNSPECIFIED'), ('UNSPECIFIED'), ('UNSPECIFIED') ) ;
#86 = APPROVAL_STATUS ( 'not_yet_approved' ) ;
#87 = CLOSED_SHELL ( 'NONE', ( #153, #151, #113, #96 ) ) ;
#88 = LOCAL_TIME ( 8, 39, 53.00000000000000000, #159 ) ;
#89 = CC_DESIGN_PERSON_AND_ORGANIZATION_ASSIGNMENT ( #105, #2, ( #129 ) ) ;
#90 = PRODUCT_RELATED_PRODUCT_CATEGORY ( 'detail', '', ( #77 ) ) ;
#91 = EDGE_CURVE ( 'NONE', #150, #106, #140, .T. ) ;
#92 = CARTESIAN_POINT ( 'NONE',  ( 0.0000000000000000000, 0.0000000000000000000, 0.5000000000000000000 ) ) ;
#93 = EDGE_LOOP ( 'NONE', ( #44, #78, #31, #163 ) ) ;
#94 = SECURITY_CLASSIFICATION_LEVEL ( 'unclassified' ) ;
#95 = PERSON_AND_ORGANIZATION ( #85, #133 ) ;
#96 = ADVANCED_FACE ( 'NONE', ( #67 ), #12, .F. ) ;
#97 = ORIENTED_EDGE ( 'NONE', *, *, #57, .F. ) ;
#98 = PERSON_AND_ORGANIZATION_ROLE ( 'design_owner' ) ;
#99 = CC_DESIGN_DATE_AND_TIME_ASSIGNMENT ( #110, #29, ( #129 ) ) ;
#100 = COORDINATED_UNIVERSAL_TIME_OFFSET ( 5, 0, .BEHIND. ) ;
#101 = ORIENTED_EDGE ( 'NONE', *, *, #47, .T. ) ;
#102 =( LENGTH_UNIT ( ) NAMED_UNIT ( * ) SI_UNIT ( .MILLI., .METRE. ) );
#103 = AXIS2_PLACEMENT_3D ( 'NONE', #52, #23, #104 ) ;
#104 = DIRECTION ( 'NONE',  ( 1.000000000000000000, 0.0000000000000000000, -0.0000000000000000000 ) ) ;
#105 = PERSON_AND_ORGANIZATION ( #85, #133 ) ;
#106 = VERTEX_POINT ( 'NONE', #42 ) ;
#107 = APPROVAL_ROLE ( '' ) ;
#108 = CC_DESIGN_APPROVAL ( #117, ( #129 ) ) ;
#109 = CARTESIAN_POINT ( 'NONE',  ( 0.0000000000000000000, 0.0000000000000000000, -0.5000000000000000000 ) ) ;
#110 = DATE_AND_TIME ( #3, #36 ) ;
#111 = APPLICATION_PROTOCOL_DEFINITION ( 'international standard', 'config_control_design', 1994, #30 ) ;
#112 = ORIENTED_EDGE ( 'NONE', *, *, #65, .F. ) ;
#113 = ADVANCED_FACE ( 'NONE', ( #122 ), #69, .T. ) ;
#114 = APPROVAL_DATE_TIME ( #149, #72 ) ;
#115 = PERSON_AND_ORGANIZATION ( #85, #133 ) ;
#116 = CARTESIAN_POINT ( 'NONE',  ( -5.000000000000004400, 0.0000000000000000000, -0.5000000000000000000 ) ) ;
#117 = APPROVAL ( #86, 'UNSPECIFIED' ) ;
#118 = DIRECTION ( 'NONE',  ( -0.0000000000000000000, -0.0000000000000000000, -1.000000000000000000 ) ) ;
#119 = CARTESIAN_POINT ( 'NONE',  ( 0.0000000000000000000, 0.0000000000000000000, -0.5000000000000000000 ) ) ;
#120 = CARTESIAN_POINT ( 'NONE',  ( 0.0000000000000000000, 0.0000000000000000000, 0.5000000000000000000 ) ) ;
#121 = APPROVAL_STATUS ( 'not_yet_approved' ) ;
#122 = FACE_OUTER_BOUND ( 'NONE', #25, .T. ) ;
#123 = PERSON_AND_ORGANIZATION ( #85, #133 ) ;
#124 = DIRECTION ( 'NONE',  ( 1.000000000000000000, 0.0000000000000000000, 0.0000000000000000000 ) ) ;
#125 = DIRECTION ( 'NONE',  ( -1.000000000000000000, 0.0000000000000000000, 0.0000000000000000000 ) ) ;
#126 = APPROVAL_ROLE ( '' ) ;
#127 = CYLINDRICAL_SURFACE ( 'NONE', #9, 5.000000000000004400 ) ;
#128 = DATE_AND_TIME ( #55, #88 ) ;
#129 = PRODUCT_DEFINITION ( 'UNKNOWN', '', #82, #162 ) ;
#130 = CIRCLE ( 'NONE', #37, 5.000000000000004400 ) ;
#131 = APPLICATION_CONTEXT ( 'configuration controlled 3d designs of mechanical parts and assemblies' ) ;
#132 = LINE ( 'NONE', #39, #172 ) ;
#133 = ORGANIZATION ( 'UNSPECIFIED', 'UNSPECIFIED', '' ) ;
#134 = DIRECTION ( 'NONE',  ( 1.000000000000000000, 0.0000000000000000000, 0.0000000000000000000 ) ) ;
#135 = ORIENTED_EDGE ( 'NONE', *, *, #84, .T. ) ;
#136 = CC_DESIGN_PERSON_AND_ORGANIZATION_ASSIGNMENT ( #95, #98, ( #77 ) ) ;
#137 = CALENDAR_DATE ( 2017, 20, 7 ) ;
#138 = DIRECTION ( 'NONE',  ( 0.0000000000000000000, 0.0000000000000000000, 1.000000000000000000 ) ) ;
#139 = VERTEX_POINT ( 'NONE', #158 ) ;
#140 = CIRCLE ( 'NONE', #146, 5.000000000000004400 ) ;
#141 = COORDINATED_UNIVERSAL_TIME_OFFSET ( 5, 0, .BEHIND. ) ;
#142 = ORIENTED_EDGE ( 'NONE', *, *, #91, .F. ) ;
#143 = APPROVAL_PERSON_ORGANIZATION ( #73, #72, #13 ) ;
#144 = AXIS2_PLACEMENT_3D ( 'NONE', #160, #138, #124 ) ;
#145 = DIRECTION ( 'NONE',  ( 1.000000000000000000, 0.0000000000000000000, 0.0000000000000000000 ) ) ;
#146 = AXIS2_PLACEMENT_3D ( 'NONE', #92, #174, #80 ) ;
#147 = EDGE_LOOP ( 'NONE', ( #142, #135, #101, #97 ) ) ;
#148 = CC_DESIGN_PERSON_AND_ORGANIZATION_ASSIGNMENT ( #115, #24, ( #45 ) ) ;
#149 = DATE_AND_TIME ( #41, #79 ) ;
#150 = VERTEX_POINT ( 'NONE', #64 ) ;
#151 = ADVANCED_FACE ( 'NONE', ( #53 ), #156, .T. ) ;
#152 = APPLICATION_PROTOCOL_DEFINITION ( 'international standard', 'config_control_design', 1994, #131 ) ;
#153 = ADVANCED_FACE ( 'NONE', ( #49 ), #127, .T. ) ;
#154 = CALENDAR_DATE ( 2017, 20, 7 ) ;
#155 = APPROVAL ( #121, 'UNSPECIFIED' ) ;
#156 = CYLINDRICAL_SURFACE ( 'NONE', #6, 5.000000000000004400 ) ;
#157 = DIRECTION ( 'NONE',  ( 0.0000000000000000000, 0.0000000000000000000, 1.000000000000000000 ) ) ;
#158 = CARTESIAN_POINT ( 'NONE',  ( 5.000000000000004400, 6.123233995736772200E-016, -0.5000000000000000000 ) ) ;
#159 = COORDINATED_UNIVERSAL_TIME_OFFSET ( 5, 0, .BEHIND. ) ;
#160 = CARTESIAN_POINT ( 'NONE',  ( 0.0000000000000000000, 0.0000000000000000000, 0.0000000000000000000 ) ) ;
#161 = CARTESIAN_POINT ( 'NONE',  ( 0.0000000000000000000, 0.0000000000000000000, -0.5000000000000000000 ) ) ;
#162 = DESIGN_CONTEXT ( 'detailed design', #30, 'design' ) ;
#163 = ORIENTED_EDGE ( 'NONE', *, *, #65, .T. ) ;
#164 = APPROVAL_DATE_TIME ( #128, #155 ) ;
#165 = DIRECTION ( 'NONE',  ( 1.000000000000000000, 0.0000000000000000000, 0.0000000000000000000 ) ) ;
#166 = CARTESIAN_POINT ( 'NONE',  ( 0.0000000000000000000, 0.0000000000000000000, 0.5000000000000000000 ) ) ;
#167 = AXIS2_PLACEMENT_3D ( 'NONE', #161, #157, #145 ) ;
#168 = VERTEX_POINT ( 'NONE', #116 ) ;
#169 =( GEOMETRIC_REPRESENTATION_CONTEXT ( 3 ) GLOBAL_UNCERTAINTY_ASSIGNED_CONTEXT ( ( #59 ) ) GLOBAL_UNIT_ASSIGNED_CONTEXT ( ( #102, #27, #51 ) ) REPRESENTATION_CONTEXT ( 'NONE', 'WORKASPACE' ) );
#170 = CIRCLE ( 'NONE', #1, 5.000000000000004400 ) ;
#171 = APPROVAL_STATUS ( 'not_yet_approved' ) ;
#172 = VECTOR ( 'NONE', #118, 1000.000000000000000 ) ;
#173 = LOCAL_TIME ( 8, 39, 53.00000000000000000, #100 ) ;
#174 = DIRECTION ( 'NONE',  ( 0.0000000000000000000, 0.0000000000000000000, 1.000000000000000000 ) ) ;
#175 = DIRECTION ( 'NONE',  ( -1.000000000000000000, 0.0000000000000000000, 0.0000000000000000000 ) ) ;
ENDSEC;
END-ISO-10303-21;
