ISO-10303-21;
HEADER;
FILE_DESCRIPTION (( 'STEP AP203' ),
    '1' );
FILE_NAME ('Web Model 19837_19866.step',
    '2022-04-06T15:05:59',
    ( 'WC' ),
    ( 'Windows Central' ),
    'SwSTEP 2.0',
    'SolidWorks 2021',
    '' );
FILE_SCHEMA (( 'CONFIG_CONTROL_DESIGN' ));
ENDSEC;

DATA;
#1 = EDGE_LOOP ( 'NONE', ( #166, #147 ) ) ;
#2 = CARTESIAN_POINT ( 'NONE',  ( 0.000000000000000000, 0.000000000000000000, 5.000000000000000000 ) ) ;
#3 = EDGE_CURVE ( 'NONE', #13, #146, #39, .T. ) ;
#4 = CIRCLE ( 'NONE', #149, 12.50000000000000000 ) ;
#5 = DIRECTION ( 'NONE',  ( 0.000000000000000000, 0.000000000000000000, 1.000000000000000000 ) ) ;
#6 = CARTESIAN_POINT ( 'NONE',  ( 12.50000000000000000, 1.530808498934191521E-15, 5.000000000000000000 ) ) ;
#7 = PERSON_AND_ORGANIZATION_ROLE ( 'design_owner' ) ;
#8 = PLANE ( 'NONE',  #85 ) ;
#9 = COORDINATED_UNIVERSAL_TIME_OFFSET ( 5, 0, .BEHIND. ) ;
#10 = APPROVAL_ROLE ( '' ) ;
#11 = PRODUCT_DEFINITION ( 'UNKNOWN', '', #17, #26 ) ;
#12 = DIRECTION ( 'NONE',  ( 0.000000000000000000, 0.000000000000000000, 1.000000000000000000 ) ) ;
#13 = VERTEX_POINT ( 'NONE', #29 ) ;
#14 = ORIENTED_EDGE ( 'NONE', *, *, #15, .T. ) ;
#15 = EDGE_CURVE ( 'NONE', #89, #44, #4, .T. ) ;
#16 = DIRECTION ( 'NONE',  ( 0.000000000000000000, 0.000000000000000000, 1.000000000000000000 ) ) ;
#17 = PRODUCT_DEFINITION_FORMATION_WITH_SPECIFIED_SOURCE ( 'ANY', '', #105, .NOT_KNOWN. ) ;
#18 = LINE ( 'NONE', #136, #82 ) ;
#19 = CYLINDRICAL_SURFACE ( 'NONE', #153, 12.50000000000000000 ) ;
#20 = APPROVAL_STATUS ( 'not_yet_approved' ) ;
#21 = AXIS2_PLACEMENT_3D ( 'NONE', #32, #16, #111 ) ;
#22 = CC_DESIGN_PERSON_AND_ORGANIZATION_ASSIGNMENT ( #142, #69, ( #11 ) ) ;
#23 = COORDINATED_UNIVERSAL_TIME_OFFSET ( 5, 0, .BEHIND. ) ;
#24 = AXIS2_PLACEMENT_3D ( 'NONE', #171, #12, #57 ) ;
#25 = PRODUCT_RELATED_PRODUCT_CATEGORY ( 'detail', '', ( #105 ) ) ;
#26 = DESIGN_CONTEXT ( 'detailed design', #101, 'design' ) ;
#27 = CIRCLE ( 'NONE', #87, 12.50000000000000000 ) ;
#28 = APPROVAL_DATE_TIME ( #164, #62 ) ;
#29 = CARTESIAN_POINT ( 'NONE',  ( 12.50000000000000000, 1.530808498934191521E-15, 5.000000000000000000 ) ) ;
#30 = ORIENTED_EDGE ( 'NONE', *, *, #53, .T. ) ;
#31 = CC_DESIGN_SECURITY_CLASSIFICATION ( #165, ( #17 ) ) ;
#32 = CARTESIAN_POINT ( 'NONE',  ( 0.000000000000000000, 0.000000000000000000, 5.000000000000000000 ) ) ;
#33 = CARTESIAN_POINT ( 'NONE',  ( 12.50000000000000000, 1.530808498934191521E-15, 0.000000000000000000 ) ) ;
#34 = LOCAL_TIME ( 11, 5, 59.00000000000000000, #23 ) ;
#35 = MANIFOLD_SOLID_BREP ( 'Boss-Extrude1', #109 ) ;
#36 =( NAMED_UNIT ( * ) SI_UNIT ( $, .STERADIAN. ) SOLID_ANGLE_UNIT ( ) );
#37 = PERSON_AND_ORGANIZATION_ROLE ( 'creator' ) ;
#38 = APPLICATION_PROTOCOL_DEFINITION ( 'international standard', 'config_control_design', 1994, #101 ) ;
#39 = CIRCLE ( 'NONE', #158, 12.50000000000000000 ) ;
#40 = PERSON_AND_ORGANIZATION_ROLE ( 'classification_officer' ) ;
#41 = DATE_TIME_ROLE ( 'classification_date' ) ;
#42 = ORIENTED_EDGE ( 'NONE', *, *, #97, .F. ) ;
#43 = CC_DESIGN_PERSON_AND_ORGANIZATION_ASSIGNMENT ( #159, #37, ( #17 ) ) ;
#44 = VERTEX_POINT ( 'NONE', #155 ) ;
#45 = UNCERTAINTY_MEASURE_WITH_UNIT (LENGTH_MEASURE( 1.000000000000000082E-05 ), #110, 'distance_accuracy_value', 'NONE');
#46 = LOCAL_TIME ( 11, 5, 59.00000000000000000, #52 ) ;
#47 = ORIENTED_EDGE ( 'NONE', *, *, #60, .T. ) ;
#48 = DIRECTION ( 'NONE',  ( -0.000000000000000000, -0.000000000000000000, -1.000000000000000000 ) ) ;
#49 = CARTESIAN_POINT ( 'NONE',  ( 0.000000000000000000, 0.000000000000000000, 0.000000000000000000 ) ) ;
#50 = ORGANIZATION ( 'UNSPECIFIED', 'UNSPECIFIED', '' ) ;
#51 = CARTESIAN_POINT ( 'NONE',  ( 0.000000000000000000, 0.000000000000000000, 0.000000000000000000 ) ) ;
#52 = COORDINATED_UNIVERSAL_TIME_OFFSET ( 5, 0, .BEHIND. ) ;
#53 = EDGE_CURVE ( 'NONE', #44, #89, #27, .T. ) ;
#54 = DATE_AND_TIME ( #67, #76 ) ;
#55 = COORDINATED_UNIVERSAL_TIME_OFFSET ( 5, 0, .BEHIND. ) ;
#56 = CIRCLE ( 'NONE', #59, 12.50000000000000000 ) ;
#57 = DIRECTION ( 'NONE',  ( 1.000000000000000000, 0.000000000000000000, 0.000000000000000000 ) ) ;
#58 = PRODUCT_DEFINITION_SHAPE ( 'NONE', 'NONE',  #11 ) ;
#59 = AXIS2_PLACEMENT_3D ( 'NONE', #124, #77, #63 ) ;
#60 = EDGE_CURVE ( 'NONE', #13, #89, #169, .T. ) ;
#61 = DIRECTION ( 'NONE',  ( 1.000000000000000000, 0.000000000000000000, 0.000000000000000000 ) ) ;
#62 = APPROVAL ( #20, 'UNSPECIFIED' ) ;
#63 = DIRECTION ( 'NONE',  ( 1.000000000000000000, 0.000000000000000000, 0.000000000000000000 ) ) ;
#64 = DIRECTION ( 'NONE',  ( -0.000000000000000000, -0.000000000000000000, -1.000000000000000000 ) ) ;
#65 = DIRECTION ( 'NONE',  ( 1.000000000000000000, 0.000000000000000000, -0.000000000000000000 ) ) ;
#66 = DIRECTION ( 'NONE',  ( -0.000000000000000000, -0.000000000000000000, -1.000000000000000000 ) ) ;
#67 = CALENDAR_DATE ( 2022, 6, 4 ) ;
#68 = PERSON_AND_ORGANIZATION ( #74, #50 ) ;
#69 = PERSON_AND_ORGANIZATION_ROLE ( 'creator' ) ;
#70 = EDGE_CURVE ( 'NONE', #146, #44, #18, .T. ) ;
#71 = CC_DESIGN_APPROVAL ( #103, ( #11 ) ) ;
#72 = ORIENTED_EDGE ( 'NONE', *, *, #3, .F. ) ;
#73 = CC_DESIGN_DATE_AND_TIME_ASSIGNMENT ( #54, #112, ( #11 ) ) ;
#74 = PERSON ( 'UNSPECIFIED', 'UNSPECIFIED', 'UNSPECIFIED', ('UNSPECIFIED'), ('UNSPECIFIED'), ('UNSPECIFIED') ) ;
#75 = FACE_OUTER_BOUND ( 'NONE', #107, .T. ) ;
#76 = LOCAL_TIME ( 11, 5, 59.00000000000000000, #116 ) ;
#77 = DIRECTION ( 'NONE',  ( 0.000000000000000000, 0.000000000000000000, 1.000000000000000000 ) ) ;
#78 = APPLICATION_CONTEXT ( 'configuration controlled 3d designs of mechanical parts and assemblies' ) ;
#79 = FACE_OUTER_BOUND ( 'NONE', #1, .T. ) ;
#80 = CARTESIAN_POINT ( 'NONE',  ( 0.000000000000000000, 0.000000000000000000, 5.000000000000000000 ) ) ;
#81 = PERSON_AND_ORGANIZATION ( #74, #50 ) ;
#82 = VECTOR ( 'NONE', #48, 1000.000000000000000 ) ;
#83 = PERSON_AND_ORGANIZATION ( #74, #50 ) ;
#84 = CALENDAR_DATE ( 2022, 6, 4 ) ;
#85 = AXIS2_PLACEMENT_3D ( 'NONE', #51, #123, #65 ) ;
#86 = CC_DESIGN_DATE_AND_TIME_ASSIGNMENT ( #175, #41, ( #165 ) ) ;
#87 = AXIS2_PLACEMENT_3D ( 'NONE', #49, #5, #139 ) ;
#88 = ORIENTED_EDGE ( 'NONE', *, *, #70, .F. ) ;
#89 = VERTEX_POINT ( 'NONE', #33 ) ;
#90 = ADVANCED_FACE ( 'NONE', ( #126 ), #168, .T. ) ;
#91 = DIRECTION ( 'NONE',  ( 0.000000000000000000, 0.000000000000000000, 1.000000000000000000 ) ) ;
#92 = CARTESIAN_POINT ( 'NONE',  ( -12.50000000000000000, 0.000000000000000000, 5.000000000000000000 ) ) ;
#93 = APPROVAL_PERSON_ORGANIZATION ( #113, #62, #128 ) ;
#94 = PERSON_AND_ORGANIZATION_ROLE ( 'design_supplier' ) ;
#95 = APPROVAL_DATE_TIME ( #157, #103 ) ;
#96 = LOCAL_TIME ( 11, 5, 59.00000000000000000, #55 ) ;
#97 = EDGE_CURVE ( 'NONE', #146, #13, #56, .T. ) ;
#98 = DIRECTION ( 'NONE',  ( -1.000000000000000000, 0.000000000000000000, 0.000000000000000000 ) ) ;
#99 = CARTESIAN_POINT ( 'NONE',  ( 0.000000000000000000, 0.000000000000000000, 5.000000000000000000 ) ) ;
#100 =( GEOMETRIC_REPRESENTATION_CONTEXT ( 3 ) GLOBAL_UNCERTAINTY_ASSIGNED_CONTEXT ( ( #45 ) ) GLOBAL_UNIT_ASSIGNED_CONTEXT ( ( #110, #154, #36 ) ) REPRESENTATION_CONTEXT ( 'NONE', 'WORKASPACE' ) );
#101 = APPLICATION_CONTEXT ( 'configuration controlled 3d designs of mechanical parts and assemblies' ) ;
#102 = CALENDAR_DATE ( 2022, 6, 4 ) ;
#103 = APPROVAL ( #161, 'UNSPECIFIED' ) ;
#104 = DATE_AND_TIME ( #102, #46 ) ;
#105 = PRODUCT ( 'Web Model 19837_19866', 'Web Model 19837_19866', '', ( #130 ) ) ;
#106 = CC_DESIGN_APPROVAL ( #62, ( #165 ) ) ;
#107 = EDGE_LOOP ( 'NONE', ( #119, #118 ) ) ;
#108 = EDGE_LOOP ( 'NONE', ( #72, #47, #14, #88 ) ) ;
#109 = CLOSED_SHELL ( 'NONE', ( #162, #90, #145, #167 ) ) ;
#110 =( LENGTH_UNIT ( ) NAMED_UNIT ( * ) SI_UNIT ( .MILLI., .METRE. ) );
#111 = DIRECTION ( 'NONE',  ( 1.000000000000000000, 0.000000000000000000, -0.000000000000000000 ) ) ;
#112 = DATE_TIME_ROLE ( 'creation_date' ) ;
#113 = PERSON_AND_ORGANIZATION ( #74, #50 ) ;
#114 = CC_DESIGN_PERSON_AND_ORGANIZATION_ASSIGNMENT ( #68, #40, ( #165 ) ) ;
#115 = PERSON_AND_ORGANIZATION ( #74, #50 ) ;
#116 = COORDINATED_UNIVERSAL_TIME_OFFSET ( 5, 0, .BEHIND. ) ;
#117 = APPROVAL_PERSON_ORGANIZATION ( #115, #125, #143 ) ;
#118 = ORIENTED_EDGE ( 'NONE', *, *, #15, .F. ) ;
#119 = ORIENTED_EDGE ( 'NONE', *, *, #53, .F. ) ;
#120 = EDGE_LOOP ( 'NONE', ( #148, #42, #135, #30 ) ) ;
#121 = DIRECTION ( 'NONE',  ( 0.000000000000000000, 0.000000000000000000, 1.000000000000000000 ) ) ;
#122 = VECTOR ( 'NONE', #151, 1000.000000000000000 ) ;
#123 = DIRECTION ( 'NONE',  ( 0.000000000000000000, 0.000000000000000000, 1.000000000000000000 ) ) ;
#124 = CARTESIAN_POINT ( 'NONE',  ( 0.000000000000000000, 0.000000000000000000, 5.000000000000000000 ) ) ;
#125 = APPROVAL ( #174, 'UNSPECIFIED' ) ;
#126 = FACE_OUTER_BOUND ( 'NONE', #120, .T. ) ;
#127 = AXIS2_PLACEMENT_3D ( 'NONE', #99, #66, #98 ) ;
#128 = APPROVAL_ROLE ( '' ) ;
#129 = APPLICATION_PROTOCOL_DEFINITION ( 'international standard', 'config_control_design', 1994, #78 ) ;
#130 = MECHANICAL_CONTEXT ( 'NONE', #78, 'mechanical' ) ;
#131 = CALENDAR_DATE ( 2022, 6, 4 ) ;
#132 = CC_DESIGN_PERSON_AND_ORGANIZATION_ASSIGNMENT ( #141, #7, ( #105 ) ) ;
#133 = SHAPE_DEFINITION_REPRESENTATION ( #58, #160 ) ;
#134 = CARTESIAN_POINT ( 'NONE',  ( 0.000000000000000000, 0.000000000000000000, 0.000000000000000000 ) ) ;
#135 = ORIENTED_EDGE ( 'NONE', *, *, #70, .T. ) ;
#136 = CARTESIAN_POINT ( 'NONE',  ( -12.50000000000000000, 0.000000000000000000, 5.000000000000000000 ) ) ;
#137 = CC_DESIGN_APPROVAL ( #125, ( #17 ) ) ;
#138 = DIRECTION ( 'NONE',  ( -1.000000000000000000, 0.000000000000000000, 0.000000000000000000 ) ) ;
#139 = DIRECTION ( 'NONE',  ( 1.000000000000000000, 0.000000000000000000, 0.000000000000000000 ) ) ;
#140 = SECURITY_CLASSIFICATION_LEVEL ( 'unclassified' ) ;
#141 = PERSON_AND_ORGANIZATION ( #74, #50 ) ;
#142 = PERSON_AND_ORGANIZATION ( #74, #50 ) ;
#143 = APPROVAL_ROLE ( '' ) ;
#144 = APPROVAL_PERSON_ORGANIZATION ( #83, #103, #10 ) ;
#145 = ADVANCED_FACE ( 'NONE', ( #79 ), #152, .T. ) ;
#146 = VERTEX_POINT ( 'NONE', #92 ) ;
#147 = ORIENTED_EDGE ( 'NONE', *, *, #3, .T. ) ;
#148 = ORIENTED_EDGE ( 'NONE', *, *, #60, .F. ) ;
#149 = AXIS2_PLACEMENT_3D ( 'NONE', #134, #91, #172 ) ;
#150 = CC_DESIGN_PERSON_AND_ORGANIZATION_ASSIGNMENT ( #81, #94, ( #17 ) ) ;
#151 = DIRECTION ( 'NONE',  ( -0.000000000000000000, -0.000000000000000000, -1.000000000000000000 ) ) ;
#152 = PLANE ( 'NONE',  #21 ) ;
#153 = AXIS2_PLACEMENT_3D ( 'NONE', #80, #64, #138 ) ;
#154 =( NAMED_UNIT ( * ) PLANE_ANGLE_UNIT ( ) SI_UNIT ( $, .RADIAN. ) );
#155 = CARTESIAN_POINT ( 'NONE',  ( -12.50000000000000000, 0.000000000000000000, 0.000000000000000000 ) ) ;
#156 = APPROVAL_DATE_TIME ( #104, #125 ) ;
#157 = DATE_AND_TIME ( #131, #96 ) ;
#158 = AXIS2_PLACEMENT_3D ( 'NONE', #2, #121, #61 ) ;
#159 = PERSON_AND_ORGANIZATION ( #74, #50 ) ;
#160 = ADVANCED_BREP_SHAPE_REPRESENTATION ( 'Web Model 19837_19866', ( #35, #24 ), #100 ) ;
#161 = APPROVAL_STATUS ( 'not_yet_approved' ) ;
#162 = ADVANCED_FACE ( 'NONE', ( #170 ), #19, .T. ) ;
#163 = LOCAL_TIME ( 11, 5, 59.00000000000000000, #9 ) ;
#164 = DATE_AND_TIME ( #173, #163 ) ;
#165 = SECURITY_CLASSIFICATION ( '', '', #140 ) ;
#166 = ORIENTED_EDGE ( 'NONE', *, *, #97, .T. ) ;
#167 = ADVANCED_FACE ( 'NONE', ( #75 ), #8, .F. ) ;
#168 = CYLINDRICAL_SURFACE ( 'NONE', #127, 12.50000000000000000 ) ;
#169 = LINE ( 'NONE', #6, #122 ) ;
#170 = FACE_OUTER_BOUND ( 'NONE', #108, .T. ) ;
#171 = CARTESIAN_POINT ( 'NONE',  ( 0.000000000000000000, 0.000000000000000000, 0.000000000000000000 ) ) ;
#172 = DIRECTION ( 'NONE',  ( 1.000000000000000000, 0.000000000000000000, 0.000000000000000000 ) ) ;
#173 = CALENDAR_DATE ( 2022, 6, 4 ) ;
#174 = APPROVAL_STATUS ( 'not_yet_approved' ) ;
#175 = DATE_AND_TIME ( #84, #34 ) ;
ENDSEC;
END-ISO-10303-21;
