ISO-10303-21;
HEADER;
FILE_DESCRIPTION (( 'STEP AP203' ),
    '1' );
FILE_NAME ('Web Model 12317_12317.step',
    '2019-01-23T21:03:45',
    ( '' ),
    ( '' ),
    'SwSTEP 2.0',
    'SolidWorks 2016',
    '' );
FILE_SCHEMA (( 'CONFIG_CONTROL_DESIGN' ));
ENDSEC;

DATA;
#1 = APPROVAL_DATE_TIME ( #45, #21 ) ;
#2 = ORIENTED_EDGE ( 'NONE', *, *, #137, .F. ) ;
#3 = PRODUCT_RELATED_PRODUCT_CATEGORY ( 'detail', '', ( #129 ) ) ;
#4 = VERTEX_POINT ( 'NONE', #227 ) ;
#5 = VERTEX_POINT ( 'NONE', #22 ) ;
#6 = CARTESIAN_POINT ( 'NONE',  ( -127.0000000000000000, -12.69999999999999900, 0.05000000000000000300 ) ) ;
#7 = PERSON_AND_ORGANIZATION ( #60, #208 ) ;
#8 = DIRECTION ( 'NONE',  ( -1.000000000000000000, 0.0000000000000000000, -0.0000000000000000000 ) ) ;
#9 = PERSON_AND_ORGANIZATION ( #60, #208 ) ;
#10 = CARTESIAN_POINT ( 'NONE',  ( 127.0000000000000000, -12.69999999999999900, 0.05000000000000000300 ) ) ;
#11 = DIRECTION ( 'NONE',  ( 0.0000000000000000000, 0.0000000000000000000, -1.000000000000000000 ) ) ;
#12 = AXIS2_PLACEMENT_3D ( 'NONE', #176, #180, #78 ) ;
#13 = EDGE_LOOP ( 'NONE', ( #16, #26, #100, #149 ) ) ;
#14 = CARTESIAN_POINT ( 'NONE',  ( -127.0000000000000000, 12.69999999999999900, -0.05000000000000000300 ) ) ;
#15 = PERSON_AND_ORGANIZATION_ROLE ( 'design_supplier' ) ;
#16 = ORIENTED_EDGE ( 'NONE', *, *, #23, .T. ) ;
#17 = ADVANCED_BREP_SHAPE_REPRESENTATION ( 'Web Model 12317_12317', ( #234, #185 ), #104 ) ;
#18 = PERSON_AND_ORGANIZATION ( #60, #208 ) ;
#19 = LINE ( 'NONE', #49, #151 ) ;
#20 = ORIENTED_EDGE ( 'NONE', *, *, #154, .T. ) ;
#21 = APPROVAL ( #144, 'UNSPECIFIED' ) ;
#22 = CARTESIAN_POINT ( 'NONE',  ( 127.0000000000000000, -12.69999999999999900, -0.05000000000000000300 ) ) ;
#23 = EDGE_CURVE ( 'NONE', #5, #4, #190, .T. ) ;
#24 = PERSON_AND_ORGANIZATION ( #60, #208 ) ;
#25 = VECTOR ( 'NONE', #97, 1000.000000000000000 ) ;
#26 = ORIENTED_EDGE ( 'NONE', *, *, #35, .F. ) ;
#27 = DIRECTION ( 'NONE',  ( -0.0000000000000000000, -0.0000000000000000000, -1.000000000000000000 ) ) ;
#28 = CARTESIAN_POINT ( 'NONE',  ( -127.0000000000000000, -12.69999999999999900, 0.05000000000000000300 ) ) ;
#29 = DIRECTION ( 'NONE',  ( 0.0000000000000000000, -1.000000000000000000, 0.0000000000000000000 ) ) ;
#30 = APPROVAL_DATE_TIME ( #75, #72 ) ;
#31 =( NAMED_UNIT ( * ) PLANE_ANGLE_UNIT ( ) SI_UNIT ( $, .RADIAN. ) );
#32 = DIRECTION ( 'NONE',  ( 0.0000000000000000000, 0.0000000000000000000, -1.000000000000000000 ) ) ;
#33 = EDGE_CURVE ( 'NONE', #131, #5, #237, .T. ) ;
#34 = EDGE_LOOP ( 'NONE', ( #157, #2, #220, #225 ) ) ;
#35 = EDGE_CURVE ( 'NONE', #166, #4, #89, .T. ) ;
#36 = CALENDAR_DATE ( 2019, 23, 1 ) ;
#37 = FACE_OUTER_BOUND ( 'NONE', #13, .T. ) ;
#38 = AXIS2_PLACEMENT_3D ( 'NONE', #44, #11, #8 ) ;
#39 = FACE_OUTER_BOUND ( 'NONE', #136, .T. ) ;
#40 = VECTOR ( 'NONE', #27, 1000.000000000000000 ) ;
#41 = CARTESIAN_POINT ( 'NONE',  ( 127.0000000000000000, 12.69999999999999900, 0.05000000000000000300 ) ) ;
#42 = CARTESIAN_POINT ( 'NONE',  ( -127.0000000000000000, -12.69999999999999900, -0.05000000000000000300 ) ) ;
#43 = ADVANCED_FACE ( 'NONE', ( #39 ), #133, .F. ) ;
#44 = CARTESIAN_POINT ( 'NONE',  ( 0.0000000000000000000, 0.0000000000000000000, 0.05000000000000000300 ) ) ;
#45 = DATE_AND_TIME ( #93, #145 ) ;
#46 = LOCAL_TIME ( 16, 3, 45.00000000000000000, #94 ) ;
#47 = CARTESIAN_POINT ( 'NONE',  ( 127.0000000000000000, -12.69999999999999900, 0.05000000000000000300 ) ) ;
#48 = CARTESIAN_POINT ( 'NONE',  ( -127.0000000000000000, -12.69999999999999900, -0.05000000000000000300 ) ) ;
#49 = CARTESIAN_POINT ( 'NONE',  ( 127.0000000000000000, -12.69999999999999900, 0.05000000000000000300 ) ) ;
#50 = APPLICATION_PROTOCOL_DEFINITION ( 'international standard', 'config_control_design', 1994, #221 ) ;
#51 = DATE_TIME_ROLE ( 'classification_date' ) ;
#52 = LINE ( 'NONE', #28, #211 ) ;
#53 = PERSON_AND_ORGANIZATION_ROLE ( 'creator' ) ;
#54 = ORIENTED_EDGE ( 'NONE', *, *, #23, .F. ) ;
#55 = DATE_AND_TIME ( #36, #148 ) ;
#56 = PERSON_AND_ORGANIZATION ( #60, #208 ) ;
#57 = DIRECTION ( 'NONE',  ( 1.000000000000000000, 0.0000000000000000000, 0.0000000000000000000 ) ) ;
#58 = COORDINATED_UNIVERSAL_TIME_OFFSET ( 5, 0, .BEHIND. ) ;
#59 = EDGE_LOOP ( 'NONE', ( #54, #202, #109, #123 ) ) ;
#60 = PERSON ( 'UNSPECIFIED', 'UNSPECIFIED', 'UNSPECIFIED', ('UNSPECIFIED'), ('UNSPECIFIED'), ('UNSPECIFIED') ) ;
#61 = COORDINATED_UNIVERSAL_TIME_OFFSET ( 5, 0, .BEHIND. ) ;
#62 = VERTEX_POINT ( 'NONE', #6 ) ;
#63 = CARTESIAN_POINT ( 'NONE',  ( 127.0000000000000000, 12.69999999999999900, 0.05000000000000000300 ) ) ;
#64 = PLANE ( 'NONE',  #192 ) ;
#65 = CARTESIAN_POINT ( 'NONE',  ( -127.0000000000000000, 12.69999999999999900, 0.05000000000000000300 ) ) ;
#66 = EDGE_CURVE ( 'NONE', #4, #83, #197, .T. ) ;
#67 = ORIENTED_EDGE ( 'NONE', *, *, #196, .F. ) ;
#68 = APPLICATION_CONTEXT ( 'configuration controlled 3d designs of mechanical parts and assemblies' ) ;
#69 = CARTESIAN_POINT ( 'NONE',  ( -127.0000000000000000, -12.69999999999999900, 0.05000000000000000300 ) ) ;
#70 = PERSON_AND_ORGANIZATION ( #60, #208 ) ;
#71 = ORIENTED_EDGE ( 'NONE', *, *, #179, .F. ) ;
#72 = APPROVAL ( #218, 'UNSPECIFIED' ) ;
#73 = VECTOR ( 'NONE', #81, 1000.000000000000000 ) ;
#74 = PERSON_AND_ORGANIZATION ( #60, #208 ) ;
#75 = DATE_AND_TIME ( #126, #46 ) ;
#76 = EDGE_LOOP ( 'NONE', ( #193, #206, #67, #147 ) ) ;
#77 = EDGE_CURVE ( 'NONE', #83, #131, #229, .T. ) ;
#78 = DIRECTION ( 'NONE',  ( 0.0000000000000000000, 0.0000000000000000000, -1.000000000000000000 ) ) ;
#79 = CC_DESIGN_APPROVAL ( #72, ( #168 ) ) ;
#80 = CC_DESIGN_APPROVAL ( #21, ( #167 ) ) ;
#81 = DIRECTION ( 'NONE',  ( -1.000000000000000000, -0.0000000000000000000, -0.0000000000000000000 ) ) ;
#82 = DIRECTION ( 'NONE',  ( 0.0000000000000000000, 1.000000000000000000, 0.0000000000000000000 ) ) ;
#83 = VERTEX_POINT ( 'NONE', #14 ) ;
#84 = DIRECTION ( 'NONE',  ( 0.0000000000000000000, 0.0000000000000000000, 1.000000000000000000 ) ) ;
#85 = APPLICATION_PROTOCOL_DEFINITION ( 'international standard', 'config_control_design', 1994, #68 ) ;
#86 = CARTESIAN_POINT ( 'NONE',  ( -127.0000000000000000, 12.69999999999999900, 0.05000000000000000300 ) ) ;
#87 = LINE ( 'NONE', #65, #165 ) ;
#88 = APPROVAL_ROLE ( '' ) ;
#89 = LINE ( 'NONE', #41, #25 ) ;
#90 = FACE_OUTER_BOUND ( 'NONE', #34, .T. ) ;
#91 = CC_DESIGN_DATE_AND_TIME_ASSIGNMENT ( #106, #110, ( #168 ) ) ;
#92 = CC_DESIGN_APPROVAL ( #115, ( #228 ) ) ;
#93 = CALENDAR_DATE ( 2019, 23, 1 ) ;
#94 = COORDINATED_UNIVERSAL_TIME_OFFSET ( 5, 0, .BEHIND. ) ;
#95 = CARTESIAN_POINT ( 'NONE',  ( 127.0000000000000000, -12.69999999999999900, -0.05000000000000000300 ) ) ;
#96 = CALENDAR_DATE ( 2019, 23, 1 ) ;
#97 = DIRECTION ( 'NONE',  ( -0.0000000000000000000, -0.0000000000000000000, -1.000000000000000000 ) ) ;
#98 = CARTESIAN_POINT ( 'NONE',  ( -127.0000000000000000, 12.69999999999999900, -0.05000000000000000300 ) ) ;
#99 = ADVANCED_FACE ( 'NONE', ( #90 ), #203, .F. ) ;
#100 = ORIENTED_EDGE ( 'NONE', *, *, #128, .F. ) ;
#101 = AXIS2_PLACEMENT_3D ( 'NONE', #47, #159, #84 ) ;
#102 = ORIENTED_EDGE ( 'NONE', *, *, #77, .T. ) ;
#103 = MECHANICAL_CONTEXT ( 'NONE', #68, 'mechanical' ) ;
#104 =( GEOMETRIC_REPRESENTATION_CONTEXT ( 3 ) GLOBAL_UNCERTAINTY_ASSIGNED_CONTEXT ( ( #177 ) ) GLOBAL_UNIT_ASSIGNED_CONTEXT ( ( #201, #31, #186 ) ) REPRESENTATION_CONTEXT ( 'NONE', 'WORKASPACE' ) );
#105 = SECURITY_CLASSIFICATION_LEVEL ( 'unclassified' ) ;
#106 = DATE_AND_TIME ( #150, #236 ) ;
#107 = CC_DESIGN_PERSON_AND_ORGANIZATION_ASSIGNMENT ( #70, #53, ( #168 ) ) ;
#108 = FACE_OUTER_BOUND ( 'NONE', #76, .T. ) ;
#109 = ORIENTED_EDGE ( 'NONE', *, *, #77, .F. ) ;
#110 = DATE_TIME_ROLE ( 'creation_date' ) ;
#111 = ORIENTED_EDGE ( 'NONE', *, *, #182, .T. ) ;
#112 = CARTESIAN_POINT ( 'NONE',  ( -127.0000000000000000, -12.69999999999999900, -0.05000000000000000300 ) ) ;
#113 = ADVANCED_FACE ( 'NONE', ( #37 ), #200, .F. ) ;
#114 = AXIS2_PLACEMENT_3D ( 'NONE', #231, #29, #235 ) ;
#115 = APPROVAL ( #161, 'UNSPECIFIED' ) ;
#116 = CC_DESIGN_DATE_AND_TIME_ASSIGNMENT ( #198, #51, ( #167 ) ) ;
#117 = DIRECTION ( 'NONE',  ( -0.0000000000000000000, -0.0000000000000000000, -1.000000000000000000 ) ) ;
#118 = CARTESIAN_POINT ( 'NONE',  ( 0.0000000000000000000, 0.0000000000000000000, 0.0000000000000000000 ) ) ;
#119 = VECTOR ( 'NONE', #134, 1000.000000000000000 ) ;
#120 = CARTESIAN_POINT ( 'NONE',  ( -127.0000000000000000, -12.69999999999999900, 0.05000000000000000300 ) ) ;
#121 = DIRECTION ( 'NONE',  ( 1.000000000000000000, 0.0000000000000000000, 0.0000000000000000000 ) ) ;
#122 = PRODUCT_DEFINITION_SHAPE ( 'NONE', 'NONE',  #168 ) ;
#123 = ORIENTED_EDGE ( 'NONE', *, *, #66, .F. ) ;
#124 = APPROVAL_ROLE ( '' ) ;
#125 = AXIS2_PLACEMENT_3D ( 'NONE', #215, #232, #213 ) ;
#126 = CALENDAR_DATE ( 2019, 23, 1 ) ;
#127 = EDGE_LOOP ( 'NONE', ( #230, #212, #111, #20 ) ) ;
#128 = EDGE_CURVE ( 'NONE', #173, #166, #130, .T. ) ;
#129 = PRODUCT ( 'Web Model 12317_12317', 'Web Model 12317_12317', '', ( #103 ) ) ;
#130 = LINE ( 'NONE', #216, #172 ) ;
#131 = VERTEX_POINT ( 'NONE', #48 ) ;
#132 = ADVANCED_FACE ( 'NONE', ( #194 ), #64, .T. ) ;
#133 = PLANE ( 'NONE',  #12 ) ;
#134 = DIRECTION ( 'NONE',  ( -1.000000000000000000, -0.0000000000000000000, -0.0000000000000000000 ) ) ;
#135 = CARTESIAN_POINT ( 'NONE',  ( 0.0000000000000000000, 0.0000000000000000000, -0.05000000000000000300 ) ) ;
#136 = EDGE_LOOP ( 'NONE', ( #102, #71, #155, #170 ) ) ;
#137 = EDGE_CURVE ( 'NONE', #173, #5, #19, .T. ) ;
#138 = DIRECTION ( 'NONE',  ( -0.0000000000000000000, -1.000000000000000000, -0.0000000000000000000 ) ) ;
#139 = PLANE ( 'NONE',  #38 ) ;
#140 = APPROVAL_PERSON_ORGANIZATION ( #178, #115, #191 ) ;
#141 = FACE_OUTER_BOUND ( 'NONE', #127, .T. ) ;
#142 = PERSON_AND_ORGANIZATION_ROLE ( 'design_owner' ) ;
#143 = CC_DESIGN_PERSON_AND_ORGANIZATION_ASSIGNMENT ( #7, #204, ( #228 ) ) ;
#144 = APPROVAL_STATUS ( 'not_yet_approved' ) ;
#145 = LOCAL_TIME ( 16, 3, 45.00000000000000000, #61 ) ;
#146 = CC_DESIGN_SECURITY_CLASSIFICATION ( #167, ( #228 ) ) ;
#147 = ORIENTED_EDGE ( 'NONE', *, *, #35, .T. ) ;
#148 = LOCAL_TIME ( 16, 3, 45.00000000000000000, #58 ) ;
#149 = ORIENTED_EDGE ( 'NONE', *, *, #137, .T. ) ;
#150 = CALENDAR_DATE ( 2019, 23, 1 ) ;
#151 = VECTOR ( 'NONE', #158, 1000.000000000000000 ) ;
#152 = CLOSED_SHELL ( 'NONE', ( #113, #195, #43, #99, #175, #132 ) ) ;
#153 = DIRECTION ( 'NONE',  ( -0.0000000000000000000, -1.000000000000000000, -0.0000000000000000000 ) ) ;
#154 = EDGE_CURVE ( 'NONE', #62, #173, #52, .T. ) ;
#155 = ORIENTED_EDGE ( 'NONE', *, *, #182, .F. ) ;
#156 = SHAPE_DEFINITION_REPRESENTATION ( #122, #17 ) ;
#157 = ORIENTED_EDGE ( 'NONE', *, *, #33, .T. ) ;
#158 = DIRECTION ( 'NONE',  ( -0.0000000000000000000, -0.0000000000000000000, -1.000000000000000000 ) ) ;
#159 = DIRECTION ( 'NONE',  ( -1.000000000000000000, 0.0000000000000000000, 0.0000000000000000000 ) ) ;
#160 = DIRECTION ( 'NONE',  ( -1.000000000000000000, 0.0000000000000000000, -0.0000000000000000000 ) ) ;
#161 = APPROVAL_STATUS ( 'not_yet_approved' ) ;
#162 = EDGE_CURVE ( 'NONE', #209, #83, #87, .T. ) ;
#163 = APPROVAL_PERSON_ORGANIZATION ( #18, #21, #88 ) ;
#164 = DESIGN_CONTEXT ( 'detailed design', #221, 'design' ) ;
#165 = VECTOR ( 'NONE', #117, 1000.000000000000000 ) ;
#166 = VERTEX_POINT ( 'NONE', #63 ) ;
#167 = SECURITY_CLASSIFICATION ( '', '', #105 ) ;
#168 = PRODUCT_DEFINITION ( 'UNKNOWN', '', #228, #164 ) ;
#169 = COORDINATED_UNIVERSAL_TIME_OFFSET ( 5, 0, .BEHIND. ) ;
#170 = ORIENTED_EDGE ( 'NONE', *, *, #162, .T. ) ;
#171 = LOCAL_TIME ( 16, 3, 45.00000000000000000, #169 ) ;
#172 = VECTOR ( 'NONE', #82, 1000.000000000000000 ) ;
#173 = VERTEX_POINT ( 'NONE', #10 ) ;
#174 = VECTOR ( 'NONE', #138, 1000.000000000000000 ) ;
#175 = ADVANCED_FACE ( 'NONE', ( #141 ), #139, .F. ) ;
#176 = CARTESIAN_POINT ( 'NONE',  ( -127.0000000000000000, -12.69999999999999900, 0.05000000000000000300 ) ) ;
#177 = UNCERTAINTY_MEASURE_WITH_UNIT (LENGTH_MEASURE( 1.000000000000000100E-005 ), #201, 'distance_accuracy_value', 'NONE');
#178 = PERSON_AND_ORGANIZATION ( #60, #208 ) ;
#179 = EDGE_CURVE ( 'NONE', #62, #131, #224, .T. ) ;
#180 = DIRECTION ( 'NONE',  ( 1.000000000000000000, 0.0000000000000000000, 0.0000000000000000000 ) ) ;
#181 = VECTOR ( 'NONE', #57, 1000.000000000000000 ) ;
#182 = EDGE_CURVE ( 'NONE', #209, #62, #199, .T. ) ;
#183 = DIRECTION ( 'NONE',  ( 1.000000000000000000, 0.0000000000000000000, 0.0000000000000000000 ) ) ;
#184 = LINE ( 'NONE', #217, #73 ) ;
#185 = AXIS2_PLACEMENT_3D ( 'NONE', #118, #233, #121 ) ;
#186 =( NAMED_UNIT ( * ) SI_UNIT ( $, .STERADIAN. ) SOLID_ANGLE_UNIT ( ) );
#187 = PLANE ( 'NONE',  #114 ) ;
#188 = PERSON_AND_ORGANIZATION_ROLE ( 'classification_officer' ) ;
#189 = COORDINATED_UNIVERSAL_TIME_OFFSET ( 5, 0, .BEHIND. ) ;
#190 = LINE ( 'NONE', #95, #223 ) ;
#191 = APPROVAL_ROLE ( '' ) ;
#192 = AXIS2_PLACEMENT_3D ( 'NONE', #135, #32, #160 ) ;
#193 = ORIENTED_EDGE ( 'NONE', *, *, #66, .T. ) ;
#194 = FACE_OUTER_BOUND ( 'NONE', #59, .T. ) ;
#195 = ADVANCED_FACE ( 'NONE', ( #108 ), #187, .F. ) ;
#196 = EDGE_CURVE ( 'NONE', #166, #209, #184, .T. ) ;
#197 = LINE ( 'NONE', #98, #119 ) ;
#198 = DATE_AND_TIME ( #96, #171 ) ;
#199 = LINE ( 'NONE', #69, #174 ) ;
#200 = PLANE ( 'NONE',  #101 ) ;
#201 =( LENGTH_UNIT ( ) NAMED_UNIT ( * ) SI_UNIT ( .MILLI., .METRE. ) );
#202 = ORIENTED_EDGE ( 'NONE', *, *, #33, .F. ) ;
#203 = PLANE ( 'NONE',  #125 ) ;
#204 = PERSON_AND_ORGANIZATION_ROLE ( 'creator' ) ;
#205 = APPROVAL_PERSON_ORGANIZATION ( #9, #72, #124 ) ;
#206 = ORIENTED_EDGE ( 'NONE', *, *, #162, .F. ) ;
#207 = APPROVAL_DATE_TIME ( #55, #115 ) ;
#208 = ORGANIZATION ( 'UNSPECIFIED', 'UNSPECIFIED', '' ) ;
#209 = VERTEX_POINT ( 'NONE', #86 ) ;
#210 = CC_DESIGN_PERSON_AND_ORGANIZATION_ASSIGNMENT ( #24, #188, ( #167 ) ) ;
#211 = VECTOR ( 'NONE', #183, 1000.000000000000000 ) ;
#212 = ORIENTED_EDGE ( 'NONE', *, *, #196, .T. ) ;
#213 = DIRECTION ( 'NONE',  ( 0.0000000000000000000, -0.0000000000000000000, 1.000000000000000000 ) ) ;
#214 = CC_DESIGN_PERSON_AND_ORGANIZATION_ASSIGNMENT ( #74, #15, ( #228 ) ) ;
#215 = CARTESIAN_POINT ( 'NONE',  ( -127.0000000000000000, -12.69999999999999900, 0.05000000000000000300 ) ) ;
#216 = CARTESIAN_POINT ( 'NONE',  ( 127.0000000000000000, -12.69999999999999900, 0.05000000000000000300 ) ) ;
#217 = CARTESIAN_POINT ( 'NONE',  ( -127.0000000000000000, 12.69999999999999900, 0.05000000000000000300 ) ) ;
#218 = APPROVAL_STATUS ( 'not_yet_approved' ) ;
#219 = VECTOR ( 'NONE', #153, 1000.000000000000000 ) ;
#220 = ORIENTED_EDGE ( 'NONE', *, *, #154, .F. ) ;
#221 = APPLICATION_CONTEXT ( 'configuration controlled 3d designs of mechanical parts and assemblies' ) ;
#222 = CC_DESIGN_PERSON_AND_ORGANIZATION_ASSIGNMENT ( #56, #142, ( #129 ) ) ;
#223 = VECTOR ( 'NONE', #226, 1000.000000000000000 ) ;
#224 = LINE ( 'NONE', #120, #40 ) ;
#225 = ORIENTED_EDGE ( 'NONE', *, *, #179, .T. ) ;
#226 = DIRECTION ( 'NONE',  ( 0.0000000000000000000, 1.000000000000000000, 0.0000000000000000000 ) ) ;
#227 = CARTESIAN_POINT ( 'NONE',  ( 127.0000000000000000, 12.69999999999999900, -0.05000000000000000300 ) ) ;
#228 = PRODUCT_DEFINITION_FORMATION_WITH_SPECIFIED_SOURCE ( 'ANY', '', #129, .NOT_KNOWN. ) ;
#229 = LINE ( 'NONE', #112, #219 ) ;
#230 = ORIENTED_EDGE ( 'NONE', *, *, #128, .T. ) ;
#231 = CARTESIAN_POINT ( 'NONE',  ( -127.0000000000000000, 12.69999999999999900, 0.05000000000000000300 ) ) ;
#232 = DIRECTION ( 'NONE',  ( 0.0000000000000000000, 1.000000000000000000, 0.0000000000000000000 ) ) ;
#233 = DIRECTION ( 'NONE',  ( 0.0000000000000000000, 0.0000000000000000000, 1.000000000000000000 ) ) ;
#234 = MANIFOLD_SOLID_BREP ( 'Boss-Extrude1', #152 ) ;
#235 = DIRECTION ( 'NONE',  ( 0.0000000000000000000, -0.0000000000000000000, -1.000000000000000000 ) ) ;
#236 = LOCAL_TIME ( 16, 3, 45.00000000000000000, #189 ) ;
#237 = LINE ( 'NONE', #42, #181 ) ;
ENDSEC;
END-ISO-10303-21;
