ISO-10303-21;
HEADER;
FILE_DESCRIPTION (( 'STEP AP203' ),
    '1' );
FILE_NAME ('TTN162740-E0W.STEP',
    '2019-10-24T14:04:14',
    ( '' ),
    ( '' ),
    'SwSTEP 2.0',
    'SolidWorks 2018',
    '' );
FILE_SCHEMA (( 'CONFIG_CONTROL_DESIGN' ));
ENDSEC;

DATA;
#1 = EDGE_CURVE ( 'NONE', #318, #313, #46, .T. ) ;
#2 =( NAMED_UNIT ( * ) SI_UNIT ( $, .STERADIAN. ) SOLID_ANGLE_UNIT ( ) );
#3 = ADVANCED_FACE ( 'NONE', ( #241 ), #226, .F. ) ;
#4 = APPROVAL_ROLE ( '' ) ;
#5 = DIRECTION ( 'NONE',  ( -0.0000000000000000000, -0.0000000000000000000, 1.000000000000000000 ) ) ;
#6 = VERTEX_POINT ( 'NONE', #269 ) ;
#7 = ORIENTED_EDGE ( 'NONE', *, *, #27, .T. ) ;
#8 = DIRECTION ( 'NONE',  ( 0.7071067811865489050, 0.0000000000000000000, 0.7071067811865460184 ) ) ;
#9 = CC_DESIGN_APPROVAL ( #223, ( #259 ) ) ;
#10 = DIRECTION ( 'NONE',  ( 1.000000000000000000, 0.0000000000000000000, 0.0000000000000000000 ) ) ;
#11 = PERSON_AND_ORGANIZATION_ROLE ( 'design_owner' ) ;
#12 = VERTEX_POINT ( 'NONE', #28 ) ;
#13 = CARTESIAN_POINT ( 'NONE',  ( 0.5246215015484545496, 1.138757139730729451, -2.620296172188826045 ) ) ;
#14 = PERSON_AND_ORGANIZATION_ROLE ( 'classification_officer' ) ;
#15 = DIRECTION ( 'NONE',  ( -1.151446657270076840E-16, -1.000000000000000000, 0.0000000000000000000 ) ) ;
#16 = CARTESIAN_POINT ( 'NONE',  ( 1.524621501548454550, 1.138757139730729451, 1.940860298806276196 ) ) ;
#17 = CONICAL_SURFACE ( 'NONE', #217, 1.000000000000000000, 0.7853981633974503884 ) ;
#18 = VERTEX_POINT ( 'NONE', #228 ) ;
#19 = DIRECTION ( 'NONE',  ( 0.0000000000000000000, 0.0000000000000000000, -1.000000000000000000 ) ) ;
#20 = LINE ( 'NONE', #194, #101 ) ;
#21 = PRODUCT_DEFINITION ( 'UNKNOWN', '', #135, #291 ) ;
#22 = CIRCLE ( 'NONE', #287, 1.000000000000000000 ) ;
#23 = PERSON_AND_ORGANIZATION ( #293, #42 ) ;
#24 = EDGE_CURVE ( 'NONE', #318, #12, #103, .T. ) ;
#25 = LINE ( 'NONE', #219, #186 ) ;
#26 = COORDINATED_UNIVERSAL_TIME_OFFSET ( 5, 0, .BEHIND. ) ;
#27 = EDGE_CURVE ( 'NONE', #250, #224, #260, .T. ) ;
#28 = CARTESIAN_POINT ( 'NONE',  ( -0.4253784984515445178, 1.138757139730729451, 1.990860298806276241 ) ) ;
#29 = AXIS2_PLACEMENT_3D ( 'NONE', #132, #151, #192 ) ;
#30 = FACE_OUTER_BOUND ( 'NONE', #263, .T. ) ;
#31 = AXIS2_PLACEMENT_3D ( 'NONE', #85, #188, #57 ) ;
#32 = APPROVAL_STATUS ( 'not_yet_approved' ) ;
#33 = CC_DESIGN_SECURITY_CLASSIFICATION ( #259, ( #135 ) ) ;
#34 = ADVANCED_FACE ( 'NONE', ( #183 ), #307, .T. ) ;
#35 = FACE_OUTER_BOUND ( 'NONE', #78, .T. ) ;
#36 = CARTESIAN_POINT ( 'NONE',  ( 0.5246215015484545496, 2.088757139730728962, 1.990860298806276241 ) ) ;
#37 = DIRECTION ( 'NONE',  ( -0.0000000000000000000, -0.0000000000000000000, 1.000000000000000000 ) ) ;
#38 = CARTESIAN_POINT ( 'NONE',  ( 0.5246215015484545496, 1.138757139730729451, 1.137703827811174406 ) ) ;
#39 = CARTESIAN_POINT ( 'NONE',  ( -0.4753784984515455059, 1.138757139730729451, 1.940860298806276196 ) ) ;
#40 = CIRCLE ( 'NONE', #133, 1.000000000000000000 ) ;
#41 = EDGE_CURVE ( 'NONE', #178, #70, #40, .T. ) ;
#42 = ORGANIZATION ( 'UNSPECIFIED', 'UNSPECIFIED', '' ) ;
#43 = EDGE_CURVE ( 'NONE', #224, #250, #232, .T. ) ;
#44 = ORIENTED_EDGE ( 'NONE', *, *, #54, .T. ) ;
#45 = CARTESIAN_POINT ( 'NONE',  ( 0.5246215015484545496, 1.138757139730729451, 1.137703827811174406 ) ) ;
#46 = CIRCLE ( 'NONE', #31, 4.708000000000000185 ) ;
#47 = CALENDAR_DATE ( 2019, 24, 10 ) ;
#48 = LINE ( 'NONE', #220, #277 ) ;
#49 = PERSON_AND_ORGANIZATION ( #293, #42 ) ;
#50 = AXIS2_PLACEMENT_3D ( 'NONE', #254, #165, #100 ) ;
#51 = CARTESIAN_POINT ( 'NONE',  ( 0.5246215015484545496, 1.138757139730729451, 1.990860298806276241 ) ) ;
#52 = DIRECTION ( 'NONE',  ( 1.000000000000000000, 0.0000000000000000000, 0.0000000000000000000 ) ) ;
#53 = ORIENTED_EDGE ( 'NONE', *, *, #96, .T. ) ;
#54 = EDGE_CURVE ( 'NONE', #250, #178, #20, .T. ) ;
#55 = ORIENTED_EDGE ( 'NONE', *, *, #54, .F. ) ;
#56 = CALENDAR_DATE ( 2019, 24, 10 ) ;
#57 = DIRECTION ( 'NONE',  ( 0.0000000000000000000, 0.0000000000000000000, -1.000000000000000000 ) ) ;
#58 = ORIENTED_EDGE ( 'NONE', *, *, #317, .F. ) ;
#59 = DIRECTION ( 'NONE',  ( -1.000000000000000000, 0.0000000000000000000, 0.0000000000000000000 ) ) ;
#60 = ORIENTED_EDGE ( 'NONE', *, *, #43, .T. ) ;
#61 = DIRECTION ( 'NONE',  ( 1.000000000000000000, 0.0000000000000000000, 0.0000000000000000000 ) ) ;
#62 = APPROVAL_STATUS ( 'not_yet_approved' ) ;
#63 = AXIS2_PLACEMENT_3D ( 'NONE', #252, #139, #59 ) ;
#64 = EDGE_LOOP ( 'NONE', ( #80, #281 ) ) ;
#65 = ORIENTED_EDGE ( 'NONE', *, *, #1, .T. ) ;
#66 = DIRECTION ( 'NONE',  ( -0.7071067811865544561, 0.0000000000000000000, -0.7071067811865406894 ) ) ;
#67 = APPROVAL_DATE_TIME ( #159, #167 ) ;
#68 = DIRECTION ( 'NONE',  ( 1.000000000000000000, 0.0000000000000000000, 0.0000000000000000000 ) ) ;
#69 = CARTESIAN_POINT ( 'NONE',  ( 0.5246215015484545496, 1.138757139730729451, 2.087703827811174584 ) ) ;
#70 = VERTEX_POINT ( 'NONE', #16 ) ;
#71 = DIRECTION ( 'NONE',  ( -0.0000000000000000000, -0.0000000000000000000, 1.000000000000000000 ) ) ;
#72 = CARTESIAN_POINT ( 'NONE',  ( 0.5246215015484545496, 1.138757139730729451, 1.940860298806276196 ) ) ;
#73 = DIRECTION ( 'NONE',  ( -1.000000000000000000, 0.0000000000000000000, 0.0000000000000000000 ) ) ;
#74 = EDGE_CURVE ( 'NONE', #6, #318, #245, .T. ) ;
#75 = PRODUCT_DEFINITION_SHAPE ( 'NONE', 'NONE',  #21 ) ;
#76 = FACE_OUTER_BOUND ( 'NONE', #286, .T. ) ;
#77 = PERSON_AND_ORGANIZATION ( #293, #42 ) ;
#78 = EDGE_LOOP ( 'NONE', ( #116, #256, #295, #310 ) ) ;
#79 = CARTESIAN_POINT ( 'NONE',  ( 0.5246215015484545496, 1.138757139730729451, 1.990860298806276241 ) ) ;
#80 = ORIENTED_EDGE ( 'NONE', *, *, #317, .T. ) ;
#81 = EDGE_CURVE ( 'NONE', #12, #18, #301, .T. ) ;
#82 = ORIENTED_EDGE ( 'NONE', *, *, #41, .F. ) ;
#83 = APPROVAL ( #305, 'UNSPECIFIED' ) ;
#84 = ORIENTED_EDGE ( 'NONE', *, *, #96, .F. ) ;
#85 = CARTESIAN_POINT ( 'NONE',  ( 0.5246215015484545496, 1.138757139730729451, -2.620296172188826045 ) ) ;
#86 = VECTOR ( 'NONE', #8, 1000.000000000000114 ) ;
#87 =( LENGTH_UNIT ( ) NAMED_UNIT ( * ) SI_UNIT ( .MILLI., .METRE. ) );
#88 = APPROVAL_ROLE ( '' ) ;
#89 = PRODUCT_RELATED_PRODUCT_CATEGORY ( 'detail', '', ( #290 ) ) ;
#90 = CARTESIAN_POINT ( 'NONE',  ( 0.5246215015484545496, 1.138757139730729451, 1.087703827811174140 ) ) ;
#91 = DIRECTION ( 'NONE',  ( 1.000000000000000000, 0.0000000000000000000, 0.0000000000000000000 ) ) ;
#92 = VERTEX_POINT ( 'NONE', #143 ) ;
#93 = APPROVAL_PERSON_ORGANIZATION ( #77, #83, #88 ) ;
#94 = DIRECTION ( 'NONE',  ( 1.000000000000000000, 0.0000000000000000000, 0.0000000000000000000 ) ) ;
#95 = CARTESIAN_POINT ( 'NONE',  ( 0.5246215015484545496, 1.138757139730729451, -2.620296172188826045 ) ) ;
#96 = EDGE_CURVE ( 'NONE', #18, #6, #106, .T. ) ;
#97 = ORIENTED_EDGE ( 'NONE', *, *, #182, .T. ) ;
#98 = PERSON_AND_ORGANIZATION ( #293, #42 ) ;
#99 = ORIENTED_EDGE ( 'NONE', *, *, #309, .F. ) ;
#100 = DIRECTION ( 'NONE',  ( 1.000000000000000000, 0.0000000000000000000, 0.0000000000000000000 ) ) ;
#101 = VECTOR ( 'NONE', #218, 1000.000000000000000 ) ;
#102 = AXIS2_PLACEMENT_3D ( 'NONE', #273, #275, #142 ) ;
#103 = CIRCLE ( 'NONE', #197, 0.9499999999999990674 ) ;
#104 = DIRECTION ( 'NONE',  ( 0.0000000000000000000, 1.000000000000000000, 0.0000000000000000000 ) ) ;
#105 = PERSON_AND_ORGANIZATION ( #293, #42 ) ;
#106 = CIRCLE ( 'NONE', #240, 0.9499999999999990674 ) ;
#107 = CC_DESIGN_APPROVAL ( #83, ( #135 ) ) ;
#108 = AXIS2_PLACEMENT_3D ( 'NONE', #205, #251, #156 ) ;
#109 = ORIENTED_EDGE ( 'NONE', *, *, #43, .F. ) ;
#110 = APPROVAL_DATE_TIME ( #265, #223 ) ;
#111 = EDGE_LOOP ( 'NONE', ( #267, #292, #109, #320 ) ) ;
#112 = DIRECTION ( 'NONE',  ( -0.0000000000000000000, -0.0000000000000000000, 1.000000000000000000 ) ) ;
#113 = ADVANCED_FACE ( 'NONE', ( #35 ), #124, .T. ) ;
#114 = CARTESIAN_POINT ( 'NONE',  ( 0.5246215015484545496, 1.138757139730729451, 1.990860298806276241 ) ) ;
#115 = ADVANCED_BREP_SHAPE_REPRESENTATION ( 'TTN162740-E0W', ( #268, #102 ), #146 ) ;
#116 = ORIENTED_EDGE ( 'NONE', *, *, #81, .T. ) ;
#117 = SECURITY_CLASSIFICATION_LEVEL ( 'unclassified' ) ;
#118 = LOCAL_TIME ( 10, 4, 14.00000000000000000, #26 ) ;
#119 = CARTESIAN_POINT ( 'NONE',  ( -0.4253784984515451284, 1.138757139730729673, 1.087703827811174140 ) ) ;
#120 = ADVANCED_FACE ( 'NONE', ( #136 ), #227, .T. ) ;
#121 = CARTESIAN_POINT ( 'NONE',  ( -0.4753784984515455059, 1.138757139730729673, 1.137703827811174406 ) ) ;
#122 = AXIS2_PLACEMENT_3D ( 'NONE', #79, #71, #198 ) ;
#123 = APPROVAL_ROLE ( '' ) ;
#124 = SPHERICAL_SURFACE ( 'NONE', #266, 4.708000000000000185 ) ;
#125 = DATE_AND_TIME ( #204, #316 ) ;
#126 = CARTESIAN_POINT ( 'NONE',  ( 0.5246215015484545496, 1.138757139730729451, 1.940860298806276196 ) ) ;
#127 = VERTEX_POINT ( 'NONE', #119 ) ;
#128 = ORIENTED_EDGE ( 'NONE', *, *, #222, .F. ) ;
#129 = ORIENTED_EDGE ( 'NONE', *, *, #81, .F. ) ;
#130 = LOCAL_TIME ( 10, 4, 14.00000000000000000, #154 ) ;
#131 = AXIS2_PLACEMENT_3D ( 'NONE', #90, #300, #94 ) ;
#132 = CARTESIAN_POINT ( 'NONE',  ( 0.5246215015484545496, 1.138757139730729451, 1.087703827811174140 ) ) ;
#133 = AXIS2_PLACEMENT_3D ( 'NONE', #72, #312, #176 ) ;
#134 = AXIS2_PLACEMENT_3D ( 'NONE', #95, #280, #15 ) ;
#135 = PRODUCT_DEFINITION_FORMATION_WITH_SPECIFIED_SOURCE ( 'ANY', '', #290, .NOT_KNOWN. ) ;
#136 = FACE_OUTER_BOUND ( 'NONE', #168, .T. ) ;
#137 = CALENDAR_DATE ( 2019, 24, 10 ) ;
#138 = ORIENTED_EDGE ( 'NONE', *, *, #182, .F. ) ;
#139 = DIRECTION ( 'NONE',  ( 0.0000000000000000000, 0.0000000000000000000, -1.000000000000000000 ) ) ;
#140 = ADVANCED_FACE ( 'NONE', ( #76 ), #163, .T. ) ;
#141 = CARTESIAN_POINT ( 'NONE',  ( 0.5246215015484545496, 1.138757139730729673, 2.087703827811174584 ) ) ;
#142 = DIRECTION ( 'NONE',  ( 1.000000000000000000, 0.0000000000000000000, 0.0000000000000000000 ) ) ;
#143 = CARTESIAN_POINT ( 'NONE',  ( 1.474621501548454283, 1.138757139730729451, 1.087703827811174140 ) ) ;
#144 = UNCERTAINTY_MEASURE_WITH_UNIT (LENGTH_MEASURE( 1.000000000000000082E-05 ), #87, 'distance_accuracy_value', 'NONE');
#145 = DIRECTION ( 'NONE',  ( 1.000000000000000000, 0.0000000000000000000, 0.0000000000000000000 ) ) ;
#146 =( GEOMETRIC_REPRESENTATION_CONTEXT ( 3 ) GLOBAL_UNCERTAINTY_ASSIGNED_CONTEXT ( ( #144 ) ) GLOBAL_UNIT_ASSIGNED_CONTEXT ( ( #87, #210, #2 ) ) REPRESENTATION_CONTEXT ( 'NONE', 'WORKASPACE' ) );
#147 = AXIS2_PLACEMENT_3D ( 'NONE', #288, #244, #104 ) ;
#148 = ORIENTED_EDGE ( 'NONE', *, *, #41, .T. ) ;
#149 = ORIENTED_EDGE ( 'NONE', *, *, #309, .T. ) ;
#150 = CONICAL_SURFACE ( 'NONE', #174, 1.000000000000000000, 0.7853981633974503884 ) ;
#151 = DIRECTION ( 'NONE',  ( 0.0000000000000000000, 0.0000000000000000000, -1.000000000000000000 ) ) ;
#152 = DIRECTION ( 'NONE',  ( -0.0000000000000000000, -0.0000000000000000000, 1.000000000000000000 ) ) ;
#153 = CIRCLE ( 'NONE', #134, 4.708000000000000185 ) ;
#154 = COORDINATED_UNIVERSAL_TIME_OFFSET ( 5, 0, .BEHIND. ) ;
#155 = CC_DESIGN_APPROVAL ( #167, ( #21 ) ) ;
#156 = DIRECTION ( 'NONE',  ( 1.000000000000000000, 0.0000000000000000000, 0.0000000000000000000 ) ) ;
#157 = AXIS2_PLACEMENT_3D ( 'NONE', #45, #221, #68 ) ;
#158 = CYLINDRICAL_SURFACE ( 'NONE', #294, 1.000000000000000000 ) ;
#159 = DATE_AND_TIME ( #137, #130 ) ;
#160 = DIRECTION ( 'NONE',  ( 1.000000000000000000, 0.0000000000000000000, 0.0000000000000000000 ) ) ;
#161 = ORIENTED_EDGE ( 'NONE', *, *, #222, .T. ) ;
#162 = APPLICATION_CONTEXT ( 'configuration controlled 3d designs of mechanical parts and assemblies' ) ;
#163 = CYLINDRICAL_SURFACE ( 'NONE', #50, 1.000000000000000000 ) ;
#164 = DIRECTION ( 'NONE',  ( -0.0000000000000000000, -0.0000000000000000000, 1.000000000000000000 ) ) ;
#165 = DIRECTION ( 'NONE',  ( -0.0000000000000000000, -0.0000000000000000000, 1.000000000000000000 ) ) ;
#166 = APPLICATION_PROTOCOL_DEFINITION ( 'international standard', 'config_control_design', 1994, #162 ) ;
#167 = APPROVAL ( #62, 'UNSPECIFIED' ) ;
#168 = EDGE_LOOP ( 'NONE', ( #282, #161, #149, #246, #314 ) ) ;
#169 = PERSON_AND_ORGANIZATION_ROLE ( 'creator' ) ;
#170 = EDGE_CURVE ( 'NONE', #127, #92, #284, .T. ) ;
#171 = DIRECTION ( 'NONE',  ( -0.7071067811865489050, 8.659560562354951347E-17, 0.7071067811865460184 ) ) ;
#172 = LINE ( 'NONE', #255, #214 ) ;
#173 = SHAPE_DEFINITION_REPRESENTATION ( #75, #115 ) ;
#174 = AXIS2_PLACEMENT_3D ( 'NONE', #38, #234, #145 ) ;
#175 = EDGE_LOOP ( 'NONE', ( #128, #84, #129, #278, #148 ) ) ;
#176 = DIRECTION ( 'NONE',  ( 1.000000000000000000, 0.0000000000000000000, 0.0000000000000000000 ) ) ;
#177 = DIRECTION ( 'NONE',  ( 0.0000000000000000000, 1.000000000000000000, 0.0000000000000000000 ) ) ;
#178 = VERTEX_POINT ( 'NONE', #249 ) ;
#179 = CC_DESIGN_DATE_AND_TIME_ASSIGNMENT ( #238, #191, ( #21 ) ) ;
#180 = LOCAL_TIME ( 10, 4, 14.00000000000000000, #302 ) ;
#181 = EDGE_CURVE ( 'NONE', #12, #178, #235, .T. ) ;
#182 = EDGE_CURVE ( 'NONE', #224, #70, #25, .T. ) ;
#183 = FACE_OUTER_BOUND ( 'NONE', #247, .T. ) ;
#184 = COORDINATED_UNIVERSAL_TIME_OFFSET ( 5, 0, .BEHIND. ) ;
#185 = CC_DESIGN_PERSON_AND_ORGANIZATION_ASSIGNMENT ( #216, #279, ( #21 ) ) ;
#186 = VECTOR ( 'NONE', #196, 1000.000000000000000 ) ;
#187 = EDGE_CURVE ( 'NONE', #127, #250, #48, .T. ) ;
#188 = DIRECTION ( 'NONE',  ( 1.000000000000000000, 0.0000000000000000000, 0.0000000000000000000 ) ) ;
#189 = PERSON_AND_ORGANIZATION_ROLE ( 'design_supplier' ) ;
#190 = ORIENTED_EDGE ( 'NONE', *, *, #187, .F. ) ;
#191 = DATE_TIME_ROLE ( 'creation_date' ) ;
#192 = DIRECTION ( 'NONE',  ( 1.000000000000000000, 0.0000000000000000000, 0.0000000000000000000 ) ) ;
#193 = APPLICATION_PROTOCOL_DEFINITION ( 'international standard', 'config_control_design', 1994, #231 ) ;
#194 = CARTESIAN_POINT ( 'NONE',  ( -0.4753784984515455059, 1.138757139730729673, 2.087703827811174584 ) ) ;
#195 = ORIENTED_EDGE ( 'NONE', *, *, #297, .T. ) ;
#196 = DIRECTION ( 'NONE',  ( -0.0000000000000000000, -0.0000000000000000000, 1.000000000000000000 ) ) ;
#197 = AXIS2_PLACEMENT_3D ( 'NONE', #304, #164, #10 ) ;
#198 = DIRECTION ( 'NONE',  ( 1.000000000000000000, 0.0000000000000000000, 0.0000000000000000000 ) ) ;
#199 = AXIS2_PLACEMENT_3D ( 'NONE', #126, #19, #73 ) ;
#200 = CLOSED_SHELL ( 'NONE', ( #274, #113, #120, #233, #3, #140, #272, #34, #211 ) ) ;
#201 = APPROVAL_PERSON_ORGANIZATION ( #105, #167, #123 ) ;
#202 = EDGE_CURVE ( 'NONE', #18, #313, #153, .T. ) ;
#203 = FACE_OUTER_BOUND ( 'NONE', #315, .T. ) ;
#204 = CALENDAR_DATE ( 2019, 24, 10 ) ;
#205 = CARTESIAN_POINT ( 'NONE',  ( 0.5246215015484545496, 1.138757139730729451, 1.087703827811174140 ) ) ;
#206 = AXIS2_PLACEMENT_3D ( 'NONE', #114, #5, #61 ) ;
#207 = CONICAL_SURFACE ( 'NONE', #63, 1.000000000000000000, 0.7853981633974580490 ) ;
#208 = CARTESIAN_POINT ( 'NONE',  ( 1.524621501548454550, 1.138757139730729451, 1.137703827811174406 ) ) ;
#209 = ORIENTED_EDGE ( 'NONE', *, *, #27, .F. ) ;
#210 =( NAMED_UNIT ( * ) PLANE_ANGLE_UNIT ( ) SI_UNIT ( $, .RADIAN. ) );
#211 = ADVANCED_FACE ( 'NONE', ( #30 ), #150, .T. ) ;
#212 = MECHANICAL_CONTEXT ( 'NONE', #162, 'mechanical' ) ;
#213 = CARTESIAN_POINT ( 'NONE',  ( 0.5246215015484545496, 1.138757139730729451, 1.137703827811174406 ) ) ;
#214 = VECTOR ( 'NONE', #253, 1000.000000000000114 ) ;
#215 = DIRECTION ( 'NONE',  ( 1.000000000000000000, 0.0000000000000000000, 0.0000000000000000000 ) ) ;
#216 = PERSON_AND_ORGANIZATION ( #293, #42 ) ;
#217 = AXIS2_PLACEMENT_3D ( 'NONE', #298, #37, #215 ) ;
#218 = DIRECTION ( 'NONE',  ( -0.0000000000000000000, -0.0000000000000000000, 1.000000000000000000 ) ) ;
#219 = CARTESIAN_POINT ( 'NONE',  ( 1.524621501548454550, 1.138757139730729451, 2.087703827811174584 ) ) ;
#220 = CARTESIAN_POINT ( 'NONE',  ( -0.4753784984515455059, 1.138757139730729673, 1.137703827811174406 ) ) ;
#221 = DIRECTION ( 'NONE',  ( -0.0000000000000000000, -0.0000000000000000000, 1.000000000000000000 ) ) ;
#222 = EDGE_CURVE ( 'NONE', #6, #70, #172, .T. ) ;
#223 = APPROVAL ( #32, 'UNSPECIFIED' ) ;
#224 = VERTEX_POINT ( 'NONE', #208 ) ;
#225 = FACE_OUTER_BOUND ( 'NONE', #175, .T. ) ;
#226 = PLANE ( 'NONE',  #108 ) ;
#227 = CONICAL_SURFACE ( 'NONE', #199, 1.000000000000000000, 0.7853981633974580490 ) ;
#228 = CARTESIAN_POINT ( 'NONE',  ( 0.5246215015484544386, 0.1887571397307298282, 1.990860298806276241 ) ) ;
#229 = COORDINATED_UNIVERSAL_TIME_OFFSET ( 5, 0, .BEHIND. ) ;
#230 = DATE_TIME_ROLE ( 'classification_date' ) ;
#231 = APPLICATION_CONTEXT ( 'configuration controlled 3d designs of mechanical parts and assemblies' ) ;
#232 = CIRCLE ( 'NONE', #157, 1.000000000000000000 ) ;
#233 = ADVANCED_FACE ( 'NONE', ( #203 ), #158, .T. ) ;
#234 = DIRECTION ( 'NONE',  ( -0.0000000000000000000, -0.0000000000000000000, 1.000000000000000000 ) ) ;
#235 = LINE ( 'NONE', #39, #289 ) ;
#236 = APPROVAL_PERSON_ORGANIZATION ( #98, #223, #4 ) ;
#237 = ORIENTED_EDGE ( 'NONE', *, *, #74, .T. ) ;
#238 = DATE_AND_TIME ( #56, #180 ) ;
#239 = DIRECTION ( 'NONE',  ( -1.000000000000000000, 0.0000000000000000000, 0.0000000000000000000 ) ) ;
#240 = AXIS2_PLACEMENT_3D ( 'NONE', #51, #152, #321 ) ;
#241 = FACE_OUTER_BOUND ( 'NONE', #64, .T. ) ;
#242 = CALENDAR_DATE ( 2019, 24, 10 ) ;
#243 = DIRECTION ( 'NONE',  ( -0.0000000000000000000, -0.0000000000000000000, 1.000000000000000000 ) ) ;
#244 = DIRECTION ( 'NONE',  ( -1.000000000000000000, 0.0000000000000000000, 0.0000000000000000000 ) ) ;
#245 = CIRCLE ( 'NONE', #206, 0.9499999999999990674 ) ;
#246 = ORIENTED_EDGE ( 'NONE', *, *, #181, .F. ) ;
#247 = EDGE_LOOP ( 'NONE', ( #261, #53, #237, #65 ) ) ;
#248 = PERSON_AND_ORGANIZATION ( #293, #42 ) ;
#249 = CARTESIAN_POINT ( 'NONE',  ( -0.4753784984515455059, 1.138757139730729673, 1.940860298806276196 ) ) ;
#250 = VERTEX_POINT ( 'NONE', #121 ) ;
#251 = DIRECTION ( 'NONE',  ( 0.0000000000000000000, -0.0000000000000000000, 1.000000000000000000 ) ) ;
#252 = CARTESIAN_POINT ( 'NONE',  ( 0.5246215015484545496, 1.138757139730729451, 1.940860298806276196 ) ) ;
#253 = DIRECTION ( 'NONE',  ( 0.7071067811865544561, 8.659560562355016675E-17, -0.7071067811865406894 ) ) ;
#254 = CARTESIAN_POINT ( 'NONE',  ( 0.5246215015484545496, 1.138757139730729451, 2.087703827811174584 ) ) ;
#255 = CARTESIAN_POINT ( 'NONE',  ( 1.524621501548454550, 1.138757139730729673, 1.940860298806276196 ) ) ;
#256 = ORIENTED_EDGE ( 'NONE', *, *, #202, .T. ) ;
#257 = AXIS2_PLACEMENT_3D ( 'NONE', #213, #243, #52 ) ;
#258 = DIRECTION ( 'NONE',  ( -0.0000000000000000000, -0.0000000000000000000, 1.000000000000000000 ) ) ;
#259 = SECURITY_CLASSIFICATION ( '', '', #117 ) ;
#260 = CIRCLE ( 'NONE', #257, 1.000000000000000000 ) ;
#261 = ORIENTED_EDGE ( 'NONE', *, *, #202, .F. ) ;
#262 = CIRCLE ( 'NONE', #131, 0.9499999999999996225 ) ;
#263 = EDGE_LOOP ( 'NONE', ( #190, #58, #195, #209 ) ) ;
#264 = FACE_OUTER_BOUND ( 'NONE', #111, .T. ) ;
#265 = DATE_AND_TIME ( #47, #118 ) ;
#266 = AXIS2_PLACEMENT_3D ( 'NONE', #13, #239, #177 ) ;
#267 = ORIENTED_EDGE ( 'NONE', *, *, #170, .F. ) ;
#268 = MANIFOLD_SOLID_BREP ( 'TTN162691-1-solid1', #200 ) ;
#269 = CARTESIAN_POINT ( 'NONE',  ( 1.474621501548453617, 1.138757139730729673, 1.990860298806276241 ) ) ;
#270 = LINE ( 'NONE', #303, #86 ) ;
#271 = CARTESIAN_POINT ( 'NONE',  ( 0.5246215015484545496, 1.138757139730729451, 1.940860298806276196 ) ) ;
#272 = ADVANCED_FACE ( 'NONE', ( #225 ), #207, .T. ) ;
#273 = CARTESIAN_POINT ( 'NONE',  ( 0.0000000000000000000, 0.0000000000000000000, 0.0000000000000000000 ) ) ;
#274 = ADVANCED_FACE ( 'NONE', ( #264 ), #17, .T. ) ;
#275 = DIRECTION ( 'NONE',  ( 0.0000000000000000000, 0.0000000000000000000, 1.000000000000000000 ) ) ;
#276 = CC_DESIGN_PERSON_AND_ORGANIZATION_ASSIGNMENT ( #248, #169, ( #135 ) ) ;
#277 = VECTOR ( 'NONE', #171, 1000.000000000000114 ) ;
#278 = ORIENTED_EDGE ( 'NONE', *, *, #181, .T. ) ;
#279 = PERSON_AND_ORGANIZATION_ROLE ( 'creator' ) ;
#280 = DIRECTION ( 'NONE',  ( -1.000000000000000000, 1.224646799147353207E-16, 0.0000000000000000000 ) ) ;
#281 = ORIENTED_EDGE ( 'NONE', *, *, #170, .T. ) ;
#282 = ORIENTED_EDGE ( 'NONE', *, *, #74, .F. ) ;
#283 = CC_DESIGN_PERSON_AND_ORGANIZATION_ASSIGNMENT ( #23, #11, ( #290 ) ) ;
#284 = CIRCLE ( 'NONE', #29, 0.9499999999999996225 ) ;
#285 = PERSON_AND_ORGANIZATION ( #293, #42 ) ;
#286 = EDGE_LOOP ( 'NONE', ( #55, #7, #97, #82 ) ) ;
#287 = AXIS2_PLACEMENT_3D ( 'NONE', #271, #112, #160 ) ;
#288 = CARTESIAN_POINT ( 'NONE',  ( 0.5246215015484545496, 1.138757139730729451, -2.620296172188826045 ) ) ;
#289 = VECTOR ( 'NONE', #66, 1000.000000000000114 ) ;
#290 = PRODUCT ( 'TTN162740-E0W', 'TTN162740-E0W', '', ( #212 ) ) ;
#291 = DESIGN_CONTEXT ( 'detailed design', #231, 'design' ) ;
#292 = ORIENTED_EDGE ( 'NONE', *, *, #187, .T. ) ;
#293 = PERSON ( 'UNSPECIFIED', 'UNSPECIFIED', 'UNSPECIFIED', ('UNSPECIFIED'), ('UNSPECIFIED'), ('UNSPECIFIED') ) ;
#294 = AXIS2_PLACEMENT_3D ( 'NONE', #69, #258, #91 ) ;
#295 = ORIENTED_EDGE ( 'NONE', *, *, #1, .F. ) ;
#296 = DATE_AND_TIME ( #242, #308 ) ;
#297 = EDGE_CURVE ( 'NONE', #92, #224, #270, .T. ) ;
#298 = CARTESIAN_POINT ( 'NONE',  ( 0.5246215015484545496, 1.138757139730729451, 1.137703827811174406 ) ) ;
#299 = CC_DESIGN_PERSON_AND_ORGANIZATION_ASSIGNMENT ( #285, #14, ( #259 ) ) ;
#300 = DIRECTION ( 'NONE',  ( 0.0000000000000000000, 0.0000000000000000000, -1.000000000000000000 ) ) ;
#301 = CIRCLE ( 'NONE', #122, 0.9499999999999990674 ) ;
#302 = COORDINATED_UNIVERSAL_TIME_OFFSET ( 5, 0, .BEHIND. ) ;
#303 = CARTESIAN_POINT ( 'NONE',  ( 1.524621501548454550, 1.138757139730729451, 1.137703827811174406 ) ) ;
#304 = CARTESIAN_POINT ( 'NONE',  ( 0.5246215015484545496, 1.138757139730729451, 1.990860298806276241 ) ) ;
#305 = APPROVAL_STATUS ( 'not_yet_approved' ) ;
#306 = CC_DESIGN_DATE_AND_TIME_ASSIGNMENT ( #296, #230, ( #259 ) ) ;
#307 = SPHERICAL_SURFACE ( 'NONE', #147, 4.708000000000000185 ) ;
#308 = LOCAL_TIME ( 10, 4, 14.00000000000000000, #184 ) ;
#309 = EDGE_CURVE ( 'NONE', #70, #178, #22, .T. ) ;
#310 = ORIENTED_EDGE ( 'NONE', *, *, #24, .T. ) ;
#311 = CC_DESIGN_PERSON_AND_ORGANIZATION_ASSIGNMENT ( #49, #189, ( #135 ) ) ;
#312 = DIRECTION ( 'NONE',  ( -0.0000000000000000000, -0.0000000000000000000, 1.000000000000000000 ) ) ;
#313 = VERTEX_POINT ( 'NONE', #141 ) ;
#314 = ORIENTED_EDGE ( 'NONE', *, *, #24, .F. ) ;
#315 = EDGE_LOOP ( 'NONE', ( #60, #44, #99, #138 ) ) ;
#316 = LOCAL_TIME ( 10, 4, 14.00000000000000000, #229 ) ;
#317 = EDGE_CURVE ( 'NONE', #92, #127, #262, .T. ) ;
#318 = VERTEX_POINT ( 'NONE', #36 ) ;
#319 = APPROVAL_DATE_TIME ( #125, #83 ) ;
#320 = ORIENTED_EDGE ( 'NONE', *, *, #297, .F. ) ;
#321 = DIRECTION ( 'NONE',  ( 1.000000000000000000, 0.0000000000000000000, 0.0000000000000000000 ) ) ;
ENDSEC;
END-ISO-10303-21;
