ISO-10303-21;
HEADER;
FILE_DESCRIPTION (( 'STEP AP203' ),
    '1' );
FILE_NAME ('Web Model 46459_18717.step',
    '2021-07-13T18:39:50',
    ( '' ),
    ( '' ),
    'SwSTEP 2.0',
    'SolidWorks 2018',
    '' );
FILE_SCHEMA (( 'CONFIG_CONTROL_DESIGN' ));
ENDSEC;

DATA;
#1 = PRODUCT_RELATED_PRODUCT_CATEGORY ( 'detail', '', ( #194 ) ) ;
#2 = VECTOR ( 'NONE', #211, 1000.000000000000000 ) ;
#3 = EDGE_LOOP ( 'NONE', ( #175, #170, #187, #165 ) ) ;
#4 = LOCAL_TIME ( 14, 39, 50.00000000000000000, #14 ) ;
#5 = CARTESIAN_POINT ( 'NONE',  ( -0.7500000000000000000, 0.000000000000000000, 0.000000000000000000 ) ) ;
#6 = VECTOR ( 'NONE', #111, 1000.000000000000000 ) ;
#7 = DIRECTION ( 'NONE',  ( 0.000000000000000000, -0.000000000000000000, -1.000000000000000000 ) ) ;
#8 = DIRECTION ( 'NONE',  ( 0.000000000000000000, -0.000000000000000000, 1.000000000000000000 ) ) ;
#9 = LINE ( 'NONE', #231, #71 ) ;
#10 = DIRECTION ( 'NONE',  ( 0.000000000000000000, 0.000000000000000000, 1.000000000000000000 ) ) ;
#11 = LOCAL_TIME ( 14, 39, 50.00000000000000000, #174 ) ;
#12 =( NAMED_UNIT ( * ) PLANE_ANGLE_UNIT ( ) SI_UNIT ( $, .RADIAN. ) );
#13 = CC_DESIGN_PERSON_AND_ORGANIZATION_ASSIGNMENT ( #202, #124, ( #190 ) ) ;
#14 = COORDINATED_UNIVERSAL_TIME_OFFSET ( 5, 0, .BEHIND. ) ;
#15 = ADVANCED_FACE ( 'NONE', ( #91 ), #205, .F. ) ;
#16 = PERSON_AND_ORGANIZATION ( #134, #99 ) ;
#17 = VERTEX_POINT ( 'NONE', #24 ) ;
#18 = EDGE_CURVE ( 'NONE', #44, #121, #62, .T. ) ;
#19 = CARTESIAN_POINT ( 'NONE',  ( 0.7500000000000000000, 12.69999999999999751, -12.69999999999999929 ) ) ;
#20 = FACE_OUTER_BOUND ( 'NONE', #35, .T. ) ;
#21 = EDGE_CURVE ( 'NONE', #27, #44, #37, .T. ) ;
#22 = PERSON_AND_ORGANIZATION ( #134, #99 ) ;
#23 = VERTEX_POINT ( 'NONE', #80 ) ;
#24 = CARTESIAN_POINT ( 'NONE',  ( 0.7500000000000000000, -12.70000000000000107, 12.70000000000000462 ) ) ;
#25 = ADVANCED_BREP_SHAPE_REPRESENTATION ( 'Web Model 46459_18717', ( #196, #123 ), #75 ) ;
#26 = DIRECTION ( 'NONE',  ( 0.000000000000000000, -2.048885995248197414E-16, -1.000000000000000000 ) ) ;
#27 = VERTEX_POINT ( 'NONE', #227 ) ;
#28 = EDGE_CURVE ( 'NONE', #44, #179, #144, .T. ) ;
#29 = CARTESIAN_POINT ( 'NONE',  ( 0.7500000000000000000, 12.69999999999999751, 12.69999999999999929 ) ) ;
#30 = CALENDAR_DATE ( 2021, 13, 7 ) ;
#31 = APPLICATION_PROTOCOL_DEFINITION ( 'international standard', 'config_control_design', 1994, #197 ) ;
#32 = EDGE_LOOP ( 'NONE', ( #58, #113, #220, #210 ) ) ;
#33 = APPROVAL_ROLE ( '' ) ;
#34 = CC_DESIGN_DATE_AND_TIME_ASSIGNMENT ( #198, #101, ( #213 ) ) ;
#35 = EDGE_LOOP ( 'NONE', ( #167, #153, #67, #93 ) ) ;
#36 = LINE ( 'NONE', #98, #224 ) ;
#37 = LINE ( 'NONE', #206, #129 ) ;
#38 = EDGE_CURVE ( 'NONE', #23, #121, #96, .T. ) ;
#39 = APPROVAL_DATE_TIME ( #128, #138 ) ;
#40 = ORIENTED_EDGE ( 'NONE', *, *, #21, .F. ) ;
#41 = PERSON_AND_ORGANIZATION ( #134, #99 ) ;
#42 = CC_DESIGN_DATE_AND_TIME_ASSIGNMENT ( #234, #159, ( #190 ) ) ;
#43 = FACE_OUTER_BOUND ( 'NONE', #108, .T. ) ;
#44 = VERTEX_POINT ( 'NONE', #19 ) ;
#45 = DIRECTION ( 'NONE',  ( 0.000000000000000000, 1.000000000000000000, -2.048885995248197414E-16 ) ) ;
#46 = DIRECTION ( 'NONE',  ( -1.000000000000000000, -0.000000000000000000, -0.000000000000000000 ) ) ;
#47 = VECTOR ( 'NONE', #76, 1000.000000000000000 ) ;
#48 = CARTESIAN_POINT ( 'NONE',  ( -0.7500000000000000000, -12.70000000000000107, 12.70000000000000462 ) ) ;
#49 = PRODUCT_DEFINITION_FORMATION_WITH_SPECIFIED_SOURCE ( 'ANY', '', #194, .NOT_KNOWN. ) ;
#50 = DIRECTION ( 'NONE',  ( 1.000000000000000000, 0.000000000000000000, 0.000000000000000000 ) ) ;
#51 = APPROVAL_PERSON_ORGANIZATION ( #41, #146, #33 ) ;
#52 = CALENDAR_DATE ( 2021, 13, 7 ) ;
#53 = DESIGN_CONTEXT ( 'detailed design', #102, 'design' ) ;
#54 = LINE ( 'NONE', #232, #216 ) ;
#55 = DIRECTION ( 'NONE',  ( -1.000000000000000000, -0.000000000000000000, -0.000000000000000000 ) ) ;
#56 = CC_DESIGN_PERSON_AND_ORGANIZATION_ASSIGNMENT ( #207, #68, ( #49 ) ) ;
#57 = PERSON_AND_ORGANIZATION ( #134, #99 ) ;
#58 = ORIENTED_EDGE ( 'NONE', *, *, #105, .F. ) ;
#59 = CARTESIAN_POINT ( 'NONE',  ( 0.7500000000000000000, 12.69999999999999751, 12.69999999999999929 ) ) ;
#60 = DIRECTION ( 'NONE',  ( -1.000000000000000000, -0.000000000000000000, -0.000000000000000000 ) ) ;
#61 = CC_DESIGN_APPROVAL ( #136, ( #49 ) ) ;
#62 = LINE ( 'NONE', #151, #109 ) ;
#63 = DIRECTION ( 'NONE',  ( 0.000000000000000000, 0.000000000000000000, -1.000000000000000000 ) ) ;
#64 = CARTESIAN_POINT ( 'NONE',  ( 0.7500000000000000000, 12.69999999999999751, 12.69999999999999929 ) ) ;
#65 = CARTESIAN_POINT ( 'NONE',  ( 0.000000000000000000, 0.000000000000000000, 0.000000000000000000 ) ) ;
#66 = FACE_OUTER_BOUND ( 'NONE', #74, .T. ) ;
#67 = ORIENTED_EDGE ( 'NONE', *, *, #28, .F. ) ;
#68 = PERSON_AND_ORGANIZATION_ROLE ( 'design_supplier' ) ;
#69 = PERSON_AND_ORGANIZATION_ROLE ( 'creator' ) ;
#70 = APPROVAL_ROLE ( '' ) ;
#71 = VECTOR ( 'NONE', #155, 1000.000000000000000 ) ;
#72 = PRODUCT_DEFINITION_SHAPE ( 'NONE', 'NONE',  #190 ) ;
#73 = DATE_AND_TIME ( #30, #164 ) ;
#74 = EDGE_LOOP ( 'NONE', ( #168, #141, #40, #94 ) ) ;
#75 =( GEOMETRIC_REPRESENTATION_CONTEXT ( 3 ) GLOBAL_UNCERTAINTY_ASSIGNED_CONTEXT ( ( #173 ) ) GLOBAL_UNIT_ASSIGNED_CONTEXT ( ( #214, #12, #218 ) ) REPRESENTATION_CONTEXT ( 'NONE', 'WORKASPACE' ) );
#76 = DIRECTION ( 'NONE',  ( -0.000000000000000000, 1.000000000000000000, 2.048885995248197414E-16 ) ) ;
#77 = ORIENTED_EDGE ( 'NONE', *, *, #166, .T. ) ;
#78 = CC_DESIGN_APPROVAL ( #146, ( #190 ) ) ;
#79 = FACE_OUTER_BOUND ( 'NONE', #186, .T. ) ;
#80 = CARTESIAN_POINT ( 'NONE',  ( -0.7500000000000000000, -12.70000000000000107, -12.70000000000000462 ) ) ;
#81 = DIRECTION ( 'NONE',  ( 0.000000000000000000, 0.000000000000000000, -1.000000000000000000 ) ) ;
#82 = AXIS2_PLACEMENT_3D ( 'NONE', #29, #26, #45 ) ;
#83 = DIRECTION ( 'NONE',  ( 0.000000000000000000, 0.000000000000000000, -1.000000000000000000 ) ) ;
#84 = APPROVAL_PERSON_ORGANIZATION ( #178, #138, #199 ) ;
#85 = ORIENTED_EDGE ( 'NONE', *, *, #92, .T. ) ;
#86 = FACE_OUTER_BOUND ( 'NONE', #3, .T. ) ;
#87 = PLANE ( 'NONE',  #150 ) ;
#88 = CC_DESIGN_SECURITY_CLASSIFICATION ( #213, ( #49 ) ) ;
#89 = PERSON_AND_ORGANIZATION_ROLE ( 'classification_officer' ) ;
#90 = LOCAL_TIME ( 14, 39, 50.00000000000000000, #133 ) ;
#91 = FACE_OUTER_BOUND ( 'NONE', #32, .T. ) ;
#92 = EDGE_CURVE ( 'NONE', #189, #23, #137, .T. ) ;
#93 = ORIENTED_EDGE ( 'NONE', *, *, #18, .T. ) ;
#94 = ORIENTED_EDGE ( 'NONE', *, *, #131, .T. ) ;
#95 = AXIS2_PLACEMENT_3D ( 'NONE', #233, #118, #8 ) ;
#96 = LINE ( 'NONE', #114, #47 ) ;
#97 = VECTOR ( 'NONE', #83, 1000.000000000000000 ) ;
#98 = CARTESIAN_POINT ( 'NONE',  ( 0.7500000000000000000, 12.69999999999999751, 12.69999999999999929 ) ) ;
#99 = ORGANIZATION ( 'UNSPECIFIED', 'UNSPECIFIED', '' ) ;
#100 = CALENDAR_DATE ( 2021, 13, 7 ) ;
#101 = DATE_TIME_ROLE ( 'classification_date' ) ;
#102 = APPLICATION_CONTEXT ( 'configuration controlled 3d designs of mechanical parts and assemblies' ) ;
#103 = APPROVAL_STATUS ( 'not_yet_approved' ) ;
#104 = VECTOR ( 'NONE', #188, 1000.000000000000000 ) ;
#105 = EDGE_CURVE ( 'NONE', #148, #189, #147, .T. ) ;
#106 = COORDINATED_UNIVERSAL_TIME_OFFSET ( 5, 0, .BEHIND. ) ;
#107 = CLOSED_SHELL ( 'NONE', ( #145, #200, #222, #177, #183, #15 ) ) ;
#108 = EDGE_LOOP ( 'NONE', ( #208, #215, #149, #230 ) ) ;
#109 = VECTOR ( 'NONE', #55, 1000.000000000000000 ) ;
#110 = AXIS2_PLACEMENT_3D ( 'NONE', #5, #228, #81 ) ;
#111 = DIRECTION ( 'NONE',  ( 0.000000000000000000, -1.000000000000000000, 2.048885995248197414E-16 ) ) ;
#112 = APPROVAL_DATE_TIME ( #73, #136 ) ;
#113 = ORIENTED_EDGE ( 'NONE', *, *, #154, .F. ) ;
#114 = CARTESIAN_POINT ( 'NONE',  ( -0.7500000000000000000, 12.69999999999999751, -12.69999999999999929 ) ) ;
#115 = CARTESIAN_POINT ( 'NONE',  ( 0.7500000000000000000, -12.70000000000000107, -12.70000000000000462 ) ) ;
#116 = ORIENTED_EDGE ( 'NONE', *, *, #143, .F. ) ;
#117 = DIRECTION ( 'NONE',  ( 1.000000000000000000, 0.000000000000000000, 0.000000000000000000 ) ) ;
#118 = DIRECTION ( 'NONE',  ( -0.000000000000000000, 1.000000000000000000, 0.000000000000000000 ) ) ;
#119 = CARTESIAN_POINT ( 'NONE',  ( 0.7500000000000000000, 12.69999999999999751, -12.69999999999999929 ) ) ;
#120 = COORDINATED_UNIVERSAL_TIME_OFFSET ( 5, 0, .BEHIND. ) ;
#121 = VERTEX_POINT ( 'NONE', #130 ) ;
#122 = APPLICATION_PROTOCOL_DEFINITION ( 'international standard', 'config_control_design', 1994, #102 ) ;
#123 = AXIS2_PLACEMENT_3D ( 'NONE', #65, #10, #50 ) ;
#124 = PERSON_AND_ORGANIZATION_ROLE ( 'creator' ) ;
#125 = LINE ( 'NONE', #169, #97 ) ;
#126 = ORIENTED_EDGE ( 'NONE', *, *, #131, .F. ) ;
#127 = EDGE_CURVE ( 'NONE', #179, #17, #201, .T. ) ;
#128 = DATE_AND_TIME ( #229, #90 ) ;
#129 = VECTOR ( 'NONE', #209, 1000.000000000000000 ) ;
#130 = CARTESIAN_POINT ( 'NONE',  ( -0.7500000000000000000, 12.69999999999999751, -12.69999999999999929 ) ) ;
#131 = EDGE_CURVE ( 'NONE', #27, #23, #204, .T. ) ;
#132 = CARTESIAN_POINT ( 'NONE',  ( -0.7500000000000000000, -12.70000000000000107, 12.70000000000000462 ) ) ;
#133 = COORDINATED_UNIVERSAL_TIME_OFFSET ( 5, 0, .BEHIND. ) ;
#134 = PERSON ( 'UNSPECIFIED', 'UNSPECIFIED', 'UNSPECIFIED', ('UNSPECIFIED'), ('UNSPECIFIED'), ('UNSPECIFIED') ) ;
#135 = DIRECTION ( 'NONE',  ( 0.000000000000000000, -1.000000000000000000, 0.000000000000000000 ) ) ;
#136 = APPROVAL ( #176, 'UNSPECIFIED' ) ;
#137 = LINE ( 'NONE', #132, #184 ) ;
#138 = APPROVAL ( #103, 'UNSPECIFIED' ) ;
#139 = APPROVAL_STATUS ( 'not_yet_approved' ) ;
#140 = SHAPE_DEFINITION_REPRESENTATION ( #72, #25 ) ;
#141 = ORIENTED_EDGE ( 'NONE', *, *, #18, .F. ) ;
#142 = DIRECTION ( 'NONE',  ( 0.000000000000000000, -2.048885995248197414E-16, 1.000000000000000000 ) ) ;
#143 = EDGE_CURVE ( 'NONE', #17, #27, #125, .T. ) ;
#144 = LINE ( 'NONE', #59, #104 ) ;
#145 = ADVANCED_FACE ( 'NONE', ( #86 ), #157, .F. ) ;
#146 = APPROVAL ( #139, 'UNSPECIFIED' ) ;
#147 = LINE ( 'NONE', #223, #6 ) ;
#148 = VERTEX_POINT ( 'NONE', #191 ) ;
#149 = ORIENTED_EDGE ( 'NONE', *, *, #21, .T. ) ;
#150 = AXIS2_PLACEMENT_3D ( 'NONE', #212, #117, #63 ) ;
#151 = CARTESIAN_POINT ( 'NONE',  ( 0.7500000000000000000, 12.69999999999999751, -12.69999999999999929 ) ) ;
#152 = LOCAL_TIME ( 14, 39, 50.00000000000000000, #106 ) ;
#153 = ORIENTED_EDGE ( 'NONE', *, *, #160, .F. ) ;
#154 = EDGE_CURVE ( 'NONE', #121, #148, #54, .T. ) ;
#155 = DIRECTION ( 'NONE',  ( -1.000000000000000000, -0.000000000000000000, -0.000000000000000000 ) ) ;
#156 = CARTESIAN_POINT ( 'NONE',  ( 0.7500000000000000000, 12.69999999999999751, 12.69999999999999929 ) ) ;
#157 = PLANE ( 'NONE',  #82 ) ;
#158 = PERSON_AND_ORGANIZATION ( #134, #99 ) ;
#159 = DATE_TIME_ROLE ( 'creation_date' ) ;
#160 = EDGE_CURVE ( 'NONE', #179, #148, #36, .T. ) ;
#161 = PERSON_AND_ORGANIZATION_ROLE ( 'design_owner' ) ;
#162 = APPROVAL_DATE_TIME ( #236, #146 ) ;
#163 = CC_DESIGN_APPROVAL ( #138, ( #213 ) ) ;
#164 = LOCAL_TIME ( 14, 39, 50.00000000000000000, #120 ) ;
#165 = ORIENTED_EDGE ( 'NONE', *, *, #160, .T. ) ;
#166 = EDGE_CURVE ( 'NONE', #17, #189, #9, .T. ) ;
#167 = ORIENTED_EDGE ( 'NONE', *, *, #154, .T. ) ;
#168 = ORIENTED_EDGE ( 'NONE', *, *, #38, .T. ) ;
#169 = CARTESIAN_POINT ( 'NONE',  ( 0.7500000000000000000, -12.70000000000000107, 12.70000000000000462 ) ) ;
#170 = ORIENTED_EDGE ( 'NONE', *, *, #166, .F. ) ;
#171 = PLANE ( 'NONE',  #95 ) ;
#172 = PLANE ( 'NONE',  #237 ) ;
#173 = UNCERTAINTY_MEASURE_WITH_UNIT (LENGTH_MEASURE( 1.000000000000000082E-05 ), #214, 'distance_accuracy_value', 'NONE');
#174 = COORDINATED_UNIVERSAL_TIME_OFFSET ( 5, 0, .BEHIND. ) ;
#175 = ORIENTED_EDGE ( 'NONE', *, *, #105, .T. ) ;
#176 = APPROVAL_STATUS ( 'not_yet_approved' ) ;
#177 = ADVANCED_FACE ( 'NONE', ( #20 ), #172, .F. ) ;
#178 = PERSON_AND_ORGANIZATION ( #134, #99 ) ;
#179 = VERTEX_POINT ( 'NONE', #156 ) ;
#180 = CC_DESIGN_PERSON_AND_ORGANIZATION_ASSIGNMENT ( #57, #161, ( #194 ) ) ;
#181 = PLANE ( 'NONE',  #203 ) ;
#182 = APPROVAL_PERSON_ORGANIZATION ( #22, #136, #70 ) ;
#183 = ADVANCED_FACE ( 'NONE', ( #43 ), #87, .T. ) ;
#184 = VECTOR ( 'NONE', #185, 1000.000000000000000 ) ;
#185 = DIRECTION ( 'NONE',  ( 0.000000000000000000, 0.000000000000000000, -1.000000000000000000 ) ) ;
#186 = EDGE_LOOP ( 'NONE', ( #85, #126, #116, #77 ) ) ;
#187 = ORIENTED_EDGE ( 'NONE', *, *, #127, .F. ) ;
#188 = DIRECTION ( 'NONE',  ( -0.000000000000000000, -0.000000000000000000, 1.000000000000000000 ) ) ;
#189 = VERTEX_POINT ( 'NONE', #48 ) ;
#190 = PRODUCT_DEFINITION ( 'UNKNOWN', '', #49, #53 ) ;
#191 = CARTESIAN_POINT ( 'NONE',  ( -0.7500000000000000000, 12.69999999999999751, 12.69999999999999929 ) ) ;
#192 = CALENDAR_DATE ( 2021, 13, 7 ) ;
#193 = CARTESIAN_POINT ( 'NONE',  ( 0.7500000000000000000, 12.69999999999999751, 12.69999999999999929 ) ) ;
#194 = PRODUCT ( 'Web Model 46459_18717', 'Web Model 46459_18717', '', ( #235 ) ) ;
#195 = DIRECTION ( 'NONE',  ( -0.000000000000000000, -0.000000000000000000, 1.000000000000000000 ) ) ;
#196 = MANIFOLD_SOLID_BREP ( 'Boss-Extrude1', #107 ) ;
#197 = APPLICATION_CONTEXT ( 'configuration controlled 3d designs of mechanical parts and assemblies' ) ;
#198 = DATE_AND_TIME ( #100, #152 ) ;
#199 = APPROVAL_ROLE ( '' ) ;
#200 = ADVANCED_FACE ( 'NONE', ( #79 ), #171, .F. ) ;
#201 = LINE ( 'NONE', #64, #2 ) ;
#202 = PERSON_AND_ORGANIZATION ( #134, #99 ) ;
#203 = AXIS2_PLACEMENT_3D ( 'NONE', #119, #142, #221 ) ;
#204 = LINE ( 'NONE', #115, #225 ) ;
#205 = PLANE ( 'NONE',  #110 ) ;
#206 = CARTESIAN_POINT ( 'NONE',  ( 0.7500000000000000000, 12.69999999999999751, -12.69999999999999929 ) ) ;
#207 = PERSON_AND_ORGANIZATION ( #134, #99 ) ;
#208 = ORIENTED_EDGE ( 'NONE', *, *, #127, .T. ) ;
#209 = DIRECTION ( 'NONE',  ( -0.000000000000000000, 1.000000000000000000, 2.048885995248197414E-16 ) ) ;
#210 = ORIENTED_EDGE ( 'NONE', *, *, #92, .F. ) ;
#211 = DIRECTION ( 'NONE',  ( 0.000000000000000000, -1.000000000000000000, 2.048885995248197414E-16 ) ) ;
#212 = CARTESIAN_POINT ( 'NONE',  ( 0.7500000000000000000, 0.000000000000000000, 0.000000000000000000 ) ) ;
#213 = SECURITY_CLASSIFICATION ( '', '', #217 ) ;
#214 =( LENGTH_UNIT ( ) NAMED_UNIT ( * ) SI_UNIT ( .MILLI., .METRE. ) );
#215 = ORIENTED_EDGE ( 'NONE', *, *, #143, .T. ) ;
#216 = VECTOR ( 'NONE', #195, 1000.000000000000000 ) ;
#217 = SECURITY_CLASSIFICATION_LEVEL ( 'unclassified' ) ;
#218 =( NAMED_UNIT ( * ) SI_UNIT ( $, .STERADIAN. ) SOLID_ANGLE_UNIT ( ) );
#219 = CC_DESIGN_PERSON_AND_ORGANIZATION_ASSIGNMENT ( #16, #69, ( #49 ) ) ;
#220 = ORIENTED_EDGE ( 'NONE', *, *, #38, .F. ) ;
#221 = DIRECTION ( 'NONE',  ( 0.000000000000000000, -1.000000000000000000, -2.048885995248197414E-16 ) ) ;
#222 = ADVANCED_FACE ( 'NONE', ( #66 ), #181, .F. ) ;
#223 = CARTESIAN_POINT ( 'NONE',  ( -0.7500000000000000000, 12.69999999999999751, 12.69999999999999929 ) ) ;
#224 = VECTOR ( 'NONE', #60, 1000.000000000000000 ) ;
#225 = VECTOR ( 'NONE', #46, 1000.000000000000000 ) ;
#226 = CC_DESIGN_PERSON_AND_ORGANIZATION_ASSIGNMENT ( #158, #89, ( #213 ) ) ;
#227 = CARTESIAN_POINT ( 'NONE',  ( 0.7500000000000000000, -12.70000000000000107, -12.70000000000000462 ) ) ;
#228 = DIRECTION ( 'NONE',  ( 1.000000000000000000, 0.000000000000000000, 0.000000000000000000 ) ) ;
#229 = CALENDAR_DATE ( 2021, 13, 7 ) ;
#230 = ORIENTED_EDGE ( 'NONE', *, *, #28, .T. ) ;
#231 = CARTESIAN_POINT ( 'NONE',  ( 0.7500000000000000000, -12.70000000000000107, 12.70000000000000462 ) ) ;
#232 = CARTESIAN_POINT ( 'NONE',  ( -0.7500000000000000000, 12.69999999999999751, 12.69999999999999929 ) ) ;
#233 = CARTESIAN_POINT ( 'NONE',  ( 0.7500000000000000000, -12.70000000000000107, 12.70000000000000462 ) ) ;
#234 = DATE_AND_TIME ( #192, #4 ) ;
#235 = MECHANICAL_CONTEXT ( 'NONE', #197, 'mechanical' ) ;
#236 = DATE_AND_TIME ( #52, #11 ) ;
#237 = AXIS2_PLACEMENT_3D ( 'NONE', #193, #135, #7 ) ;
ENDSEC;
END-ISO-10303-21;
