ISO-10303-21;
HEADER;
FILE_DESCRIPTION (( 'STEP AP203' ),
    '1' );
FILE_NAME ('10mm BEAMSPLITTER CUBE TS_13432.step',
    '2020-09-21T13:53:07',
    ( '' ),
    ( '' ),
    'SwSTEP 2.0',
    'SolidWorks 2018',
    '' );
FILE_SCHEMA (( 'CONFIG_CONTROL_DESIGN' ));
ENDSEC;

DATA;
#1 = APPROVAL ( #354, 'UNSPECIFIED' ) ;
#2 = ADVANCED_FACE ( 'NONE', ( #257 ), #90, .F. ) ;
#3 = ADVANCED_FACE ( 'NONE', ( #124 ), #169, .F. ) ;
#4 = LOCAL_TIME ( 9, 53, 7.000000000000000000, #211 ) ;
#5 = PERSON_AND_ORGANIZATION ( #258, #355 ) ;
#6 = PLANE ( 'NONE',  #300 ) ;
#7 = UNCERTAINTY_MEASURE_WITH_UNIT (LENGTH_MEASURE( 1.000000000000000082E-05 ), #205, 'distance_accuracy_value', 'NONE');
#8 = APPROVAL_PERSON_ORGANIZATION ( #165, #277, #309 ) ;
#9 = DIRECTION ( 'NONE',  ( 0.0000000000000000000, 0.0000000000000000000, 1.000000000000000000 ) ) ;
#10 = CC_DESIGN_DATE_AND_TIME_ASSIGNMENT ( #31, #216, ( #285 ) ) ;
#11 = CARTESIAN_POINT ( 'NONE',  ( 0.0000000000000000000, 0.0000000000000000000, 0.0000000000000000000 ) ) ;
#12 = CLOSED_SHELL ( 'NONE', ( #3, #2, #139, #84, #280 ) ) ;
#13 = APPROVAL_DATE_TIME ( #345, #277 ) ;
#14 = DIRECTION ( 'NONE',  ( 0.0000000000000000000, -0.7071067811865435759, 0.7071067811865515695 ) ) ;
#15 = APPROVAL_DATE_TIME ( #127, #40 ) ;
#16 = DIRECTION ( 'NONE',  ( 0.0000000000000000000, -6.123233995732582608E-17, -1.000000000000000000 ) ) ;
#17 = VECTOR ( 'NONE', #264, 1000.000000000000114 ) ;
#18 = DATE_TIME_ROLE ( 'creation_date' ) ;
#19 = APPROVAL_STATUS ( 'not_yet_approved' ) ;
#20 = PERSON_AND_ORGANIZATION_ROLE ( 'design_supplier' ) ;
#21 = APPROVAL_ROLE ( '' ) ;
#22 = CALENDAR_DATE ( 2020, 21, 9 ) ;
#23 = LOCAL_TIME ( 9, 53, 7.000000000000000000, #338 ) ;
#24 = APPROVAL ( #270, 'UNSPECIFIED' ) ;
#25 = ORIENTED_EDGE ( 'NONE', *, *, #198, .F. ) ;
#26 = COORDINATED_UNIVERSAL_TIME_OFFSET ( 5, 0, .BEHIND. ) ;
#27 = ORIENTED_EDGE ( 'NONE', *, *, #202, .T. ) ;
#28 = CALENDAR_DATE ( 2020, 21, 9 ) ;
#29 = CALENDAR_DATE ( 2020, 21, 9 ) ;
#30 = ORIENTED_EDGE ( 'NONE', *, *, #281, .F. ) ;
#31 = DATE_AND_TIME ( #53, #93 ) ;
#32 = CC_DESIGN_PERSON_AND_ORGANIZATION_ASSIGNMENT ( #138, #179, ( #243 ) ) ;
#33 = VECTOR ( 'NONE', #347, 999.9999999999998863 ) ;
#34 = CARTESIAN_POINT ( 'NONE',  ( 0.0000000000000000000, 0.0000000000000000000, 0.0000000000000000000 ) ) ;
#35 = VECTOR ( 'NONE', #94, 1000.000000000000000 ) ;
#36 = APPROVAL_PERSON_ORGANIZATION ( #253, #151, #44 ) ;
#37 = DIRECTION ( 'NONE',  ( 0.0000000000000000000, 1.000000000000000000, 1.110223024625156540E-16 ) ) ;
#38 = CARTESIAN_POINT ( 'NONE',  ( 5.000000000000000000, 0.0000000000000000000, 7.071067811865514585 ) ) ;
#39 = CARTESIAN_POINT ( 'NONE',  ( 5.000000000000000000, -8.659560562349064226E-16, -7.071067811865514585 ) ) ;
#40 = APPROVAL ( #19, 'UNSPECIFIED' ) ;
#41 = PLANE ( 'NONE',  #291 ) ;
#42 = APPROVAL_STATUS ( 'not_yet_approved' ) ;
#43 = DIRECTION ( 'NONE',  ( 1.000000000000000000, -6.162975822039156098E-33, 6.162975822039154730E-33 ) ) ;
#44 = APPROVAL_ROLE ( '' ) ;
#45 = APPROVAL_DATE_TIME ( #83, #63 ) ;
#46 = APPROVAL_PERSON_ORGANIZATION ( #241, #96, #306 ) ;
#47 = CC_DESIGN_APPROVAL ( #40, ( #285 ) ) ;
#48 = MECHANICAL_CONTEXT ( 'NONE', #130, 'mechanical' ) ;
#49 = SECURITY_CLASSIFICATION_LEVEL ( 'unclassified' ) ;
#50 = CC_DESIGN_PERSON_AND_ORGANIZATION_ASSIGNMENT ( #253, #326, ( #174 ) ) ;
#51 = ORIENTED_EDGE ( 'NONE', *, *, #144, .F. ) ;
#52 = COORDINATED_UNIVERSAL_TIME_OFFSET ( 5, 0, .BEHIND. ) ;
#53 = CALENDAR_DATE ( 2020, 21, 9 ) ;
#54 = CC_DESIGN_DATE_AND_TIME_ASSIGNMENT ( #251, #156, ( #243 ) ) ;
#55 = VECTOR ( 'NONE', #233, 1000.000000000000000 ) ;
#56 = ORIENTED_EDGE ( 'NONE', *, *, #222, .F. ) ;
#57 = CALENDAR_DATE ( 2020, 21, 9 ) ;
#58 = CC_DESIGN_PERSON_AND_ORGANIZATION_ASSIGNMENT ( #311, #129, ( #285 ) ) ;
#59 = DIRECTION ( 'NONE',  ( 0.0000000000000000000, 1.000000000000000000, -6.123233995732582608E-17 ) ) ;
#60 = SHAPE_REPRESENTATION ( '10mm BEAMSPLITTER CUBE TS_13432', ( #256, #155, #213 ), #224 ) ;
#61 = EDGE_CURVE ( 'NONE', #335, #218, #318, .T. ) ;
#62 = CARTESIAN_POINT ( 'NONE',  ( -5.000000000000000000, 0.0000000000000000000, 7.071067811865514585 ) ) ;
#63 = APPROVAL ( #42, 'UNKNOWN' ) ;
#64 = VERTEX_POINT ( 'NONE', #230 ) ;
#65 = ORIENTED_EDGE ( 'NONE', *, *, #162, .F. ) ;
#66 = SHAPE_DEFINITION_REPRESENTATION ( #219, #60 ) ;
#67 = DIRECTION ( 'NONE',  ( -1.000000000000000000, 0.0000000000000000000, 0.0000000000000000000 ) ) ;
#68 = PRODUCT_DEFINITION_SHAPE ( 'NONE', 'NONE',  #285 ) ;
#69 = DIRECTION ( 'NONE',  ( 1.000000000000000000, 0.0000000000000000000, 0.0000000000000000000 ) ) ;
#70 = PRODUCT_DEFINITION_SHAPE ( 'NONE', 'NONE',  #360 ) ;
#71 = APPLICATION_CONTEXT ( 'configuration controlled 3d designs of mechanical parts and assemblies' ) ;
#72 = COORDINATED_UNIVERSAL_TIME_OFFSET ( 5, 0, .BEHIND. ) ;
#73 = CC_DESIGN_SECURITY_CLASSIFICATION ( #243, ( #289 ) ) ;
#74 = ORGANIZATION ( 'NAUO-ORG2', 'UNSPECIFIED', 'UNSPECIFIED' ) ;
#75 = APPLICATION_CONTEXT ( 'configuration controlled 3d designs of mechanical parts and assemblies' ) ;
#76 = APPLICATION_PROTOCOL_DEFINITION ( 'international standard', 'config_control_design', 1994, #75 ) ;
#77 = AXIS2_PLACEMENT_3D ( 'NONE', #254, #317, #227 ) ;
#78 = APPROVAL_STATUS ( 'not_yet_approved' ) ;
#79 = ORIENTED_EDGE ( 'NONE', *, *, #144, .T. ) ;
#80 = LOCAL_TIME ( 9, 53, 7.000000000000000000, #226 ) ;
#81 = CC_DESIGN_PERSON_AND_ORGANIZATION_ASSIGNMENT ( #192, #208, ( #89 ) ) ;
#82 = ORIENTED_EDGE ( 'NONE', *, *, #198, .T. ) ;
#83 = DATE_AND_TIME ( #204, #310 ) ;
#84 = ADVANCED_FACE ( 'NONE', ( #98 ), #6, .F. ) ;
#85 = DIRECTION ( 'NONE',  ( 0.0000000000000000000, 6.123233995732582608E-17, 1.000000000000000000 ) ) ;
#86 = PERSON_AND_ORGANIZATION ( #258, #355 ) ;
#87 = APPROVAL_PERSON_ORGANIZATION ( #99, #1, #107 ) ;
#88 = PRODUCT ( '10mm BEAMSPLITTER CUBE TS_13432', '10mm BEAMSPLITTER CUBE TS_13432', '', ( #48 ) ) ;
#89 = PRODUCT_DEFINITION_FORMATION_WITH_SPECIFIED_SOURCE ( 'ANY', '', #167, .NOT_KNOWN. ) ;
#90 = PLANE ( 'NONE',  #102 ) ;
#91 = DIRECTION ( 'NONE',  ( -1.000000000000000000, -0.0000000000000000000, -0.0000000000000000000 ) ) ;
#92 = LINE ( 'NONE', #324, #340 ) ;
#93 = LOCAL_TIME ( 9, 53, 7.000000000000000000, #278 ) ;
#94 = DIRECTION ( 'NONE',  ( -1.000000000000000000, -0.0000000000000000000, -0.0000000000000000000 ) ) ;
#95 = DIRECTION ( 'NONE',  ( 0.0000000000000000000, 0.0000000000000000000, 1.000000000000000000 ) ) ;
#96 = APPROVAL ( #153, 'UNSPECIFIED' ) ;
#97 =( NAMED_UNIT ( * ) PLANE_ANGLE_UNIT ( ) SI_UNIT ( $, .RADIAN. ) );
#98 = FACE_OUTER_BOUND ( 'NONE', #234, .T. ) ;
#99 = PERSON_AND_ORGANIZATION ( #258, #355 ) ;
#100 = APPROVAL_ROLE ( '' ) ;
#101 = SECURITY_CLASSIFICATION_LEVEL ( 'unclassified' ) ;
#102 = AXIS2_PLACEMENT_3D ( 'NONE', #118, #59, #85 ) ;
#103 = DIRECTION ( 'NONE',  ( 1.000000000000000000, 0.0000000000000000000, 0.0000000000000000000 ) ) ;
#104 = LINE ( 'NONE', #321, #17 ) ;
#105 = CC_DESIGN_APPROVAL ( #63, ( #356 ) ) ;
#106 = PERSON_AND_ORGANIZATION ( #258, #355 ) ;
#107 = APPROVAL_ROLE ( '' ) ;
#108 = COORDINATED_UNIVERSAL_TIME_OFFSET ( 5, 0, .BEHIND. ) ;
#109 = LINE ( 'NONE', #348, #33 ) ;
#110 = DATE_AND_TIME ( #298, #232 ) ;
#111 = CC_DESIGN_APPROVAL ( #96, ( #89 ) ) ;
#112 = DATE_AND_TIME ( #260, #287 ) ;
#113 = APPROVAL_PERSON_ORGANIZATION ( #221, #24, #100 ) ;
#114 = APPROVAL_DATE_TIME ( #229, #181 ) ;
#115 = CC_DESIGN_APPROVAL ( #181, ( #231 ) ) ;
#116 = DESIGN_CONTEXT ( 'detailed design', #301, 'design' ) ;
#117 = VECTOR ( 'NONE', #128, 1000.000000000000114 ) ;
#118 = CARTESIAN_POINT ( 'NONE',  ( 5.000000000000000000, 0.0000000000000000000, 7.071067811865514585 ) ) ;
#119 = COORDINATED_UNIVERSAL_TIME_OFFSET ( 5, 0, .BEHIND. ) ;
#120 = CARTESIAN_POINT ( 'NONE',  ( 5.000000000000000000, -8.659560562349064226E-16, -7.071067811865514585 ) ) ;
#121 = CC_DESIGN_DATE_AND_TIME_ASSIGNMENT ( #276, #328, ( #356 ) ) ;
#122 = CARTESIAN_POINT ( 'NONE',  ( 0.0000000000000000000, 0.0000000000000000000, 0.0000000000000000000 ) ) ;
#123 = CARTESIAN_POINT ( 'NONE',  ( -5.000000000000000000, 7.071067811865433761, -1.734723475976807094E-15 ) ) ;
#124 = FACE_OUTER_BOUND ( 'NONE', #325, .T. ) ;
#125 = APPROVAL_PERSON_ORGANIZATION ( #271, #63, #240 ) ;
#126 = DIRECTION ( 'NONE',  ( -1.000000000000000000, 0.0000000000000000000, 0.0000000000000000000 ) ) ;
#127 = DATE_AND_TIME ( #193, #247 ) ;
#128 = DIRECTION ( 'NONE',  ( 0.0000000000000000000, 0.7071067811865435759, 0.7071067811865513475 ) ) ;
#129 = PERSON_AND_ORGANIZATION_ROLE ( 'creator' ) ;
#130 = APPLICATION_CONTEXT ( 'configuration controlled 3d designs of mechanical parts and assemblies' ) ;
#131 = VECTOR ( 'NONE', #14, 999.9999999999998863 ) ;
#132 = DATE_AND_TIME ( #57, #200 ) ;
#133 = PERSON_AND_ORGANIZATION_ROLE ( 'classification_officer' ) ;
#134 = APPLICATION_PROTOCOL_DEFINITION ( 'international standard', 'config_control_design', 1994, #71 ) ;
#135 = ORIENTED_EDGE ( 'NONE', *, *, #202, .F. ) ;
#136 = CALENDAR_DATE ( 2020, 21, 9 ) ;
#137 = PERSON_AND_ORGANIZATION ( #258, #355 ) ;
#138 = PERSON_AND_ORGANIZATION ( #258, #355 ) ;
#139 = ADVANCED_FACE ( 'NONE', ( #239 ), #292, .F. ) ;
#140 = CC_DESIGN_PERSON_AND_ORGANIZATION_ASSIGNMENT ( #271, #357, ( #356 ) ) ;
#141 = VERTEX_POINT ( 'NONE', #39 ) ;
#142 = CONTEXT_DEPENDENT_SHAPE_REPRESENTATION ( #180, #70 ) ;
#143 = APPROVAL_DATE_TIME ( #110, #24 ) ;
#144 = EDGE_CURVE ( 'NONE', #302, #188, #223, .T. ) ;
#145 = VECTOR ( 'NONE', #178, 1000.000000000000000 ) ;
#146 = CARTESIAN_POINT ( 'NONE',  ( 5.000000000000000000, 7.071067811865434649, -4.801055335612047211E-16 ) ) ;
#147 = ORIENTED_EDGE ( 'NONE', *, *, #61, .T. ) ;
#148 = DATE_AND_TIME ( #29, #197 ) ;
#149 = DIRECTION ( 'NONE',  ( 0.0000000000000000000, -0.7071067811865513475, 0.7071067811865436870 ) ) ;
#150 = CARTESIAN_POINT ( 'NONE',  ( -5.000000000000000000, 0.0000000000000000000, 7.071067811865514585 ) ) ;
#151 = APPROVAL ( #304, 'UNKNOWN' ) ;
#152 = ORIENTED_EDGE ( 'NONE', *, *, #177, .T. ) ;
#153 = APPROVAL_STATUS ( 'not_yet_approved' ) ;
#154 = APPROVAL_STATUS ( 'not_yet_approved' ) ;
#155 = AXIS2_PLACEMENT_3D ( 'NONE', #346, #37, #176 ) ;
#156 = DATE_TIME_ROLE ( 'classification_date' ) ;
#157 = CC_DESIGN_APPROVAL ( #24, ( #243 ) ) ;
#158 = PERSON_AND_ORGANIZATION_ROLE ( 'creator' ) ;
#159 = ORIENTED_EDGE ( 'NONE', *, *, #61, .F. ) ;
#160 = COORDINATED_UNIVERSAL_TIME_OFFSET ( 5, 0, .BEHIND. ) ;
#161 = APPROVAL_PERSON_ORGANIZATION ( #266, #40, #21 ) ;
#162 = EDGE_CURVE ( 'NONE', #64, #218, #104, .T. ) ;
#163 = CC_DESIGN_PERSON_AND_ORGANIZATION_ASSIGNMENT ( #137, #20, ( #89 ) ) ;
#164 = EDGE_LOOP ( 'NONE', ( #225, #159, #30, #152 ) ) ;
#165 = PERSON_AND_ORGANIZATION ( #258, #355 ) ;
#166 =( GEOMETRIC_REPRESENTATION_CONTEXT ( 3 ) GLOBAL_UNCERTAINTY_ASSIGNED_CONTEXT ( ( #7 ) ) GLOBAL_UNIT_ASSIGNED_CONTEXT ( ( #205, #97, #173 ) ) REPRESENTATION_CONTEXT ( 'NONE', 'WORKASPACE' ) );
#167 = PRODUCT ( '10x10 Right Angle Prism Master', '10x10 Right Angle Prism Master', '', ( #358 ) ) ;
#168 = LINE ( 'NONE', #263, #35 ) ;
#169 = PLANE ( 'NONE',  #77 ) ;
#170 = CC_DESIGN_APPROVAL ( #1, ( #289 ) ) ;
#171 = CARTESIAN_POINT ( 'NONE',  ( 5.000000000000000000, 7.071067811865433761, -1.734723475976807094E-15 ) ) ;
#172 = VECTOR ( 'NONE', #91, 1000.000000000000000 ) ;
#173 =( NAMED_UNIT ( * ) SI_UNIT ( $, .STERADIAN. ) SOLID_ANGLE_UNIT ( ) );
#174 = SECURITY_CLASSIFICATION ( '', '', #327 ) ;
#175 = DIRECTION ( 'NONE',  ( 0.0000000000000000000, -0.7071067811865436870, -0.7071067811865513475 ) ) ;
#176 = DIRECTION ( 'NONE',  ( 1.000000000000000000, 0.0000000000000000000, 0.0000000000000000000 ) ) ;
#177 = EDGE_CURVE ( 'NONE', #141, #64, #168, .T. ) ;
#178 = DIRECTION ( 'NONE',  ( -1.000000000000000000, -0.0000000000000000000, -0.0000000000000000000 ) ) ;
#179 = PERSON_AND_ORGANIZATION_ROLE ( 'classification_officer' ) ;
#180 =( REPRESENTATION_RELATIONSHIP ('NONE','NONE', #60, #314 ) REPRESENTATION_RELATIONSHIP_WITH_TRANSFORMATION ( #184 )SHAPE_REPRESENTATION_RELATIONSHIP( ) );
#181 = APPROVAL ( #154, 'UNSPECIFIED' ) ;
#182 =( NAMED_UNIT ( * ) PLANE_ANGLE_UNIT ( ) SI_UNIT ( $, .RADIAN. ) );
#183 = PERSON_AND_ORGANIZATION_ROLE ( 'design_owner' ) ;
#184 = ITEM_DEFINED_TRANSFORMATION ( 'NONE', 'NONE', #155,  #187 ) ;
#185 = PERSON_AND_ORGANIZATION ( #258, #355 ) ;
#186 = APPLICATION_PROTOCOL_DEFINITION ( 'international standard', 'config_control_design', 1994, #301 ) ;
#187 = AXIS2_PLACEMENT_3D ( 'NONE', #11, #9, #69 ) ;
#188 = VERTEX_POINT ( 'NONE', #62 ) ;
#189 = UNCERTAINTY_MEASURE_WITH_UNIT (LENGTH_MEASURE( 1.000000000000000082E-05 ), #242, 'distance_accuracy_value', 'NONE');
#190 = CONTEXT_DEPENDENT_SHAPE_REPRESENTATION ( #269, #303 ) ;
#191 = SECURITY_CLASSIFICATION ( '', '', #209 ) ;
#192 = PERSON_AND_ORGANIZATION ( #258, #355 ) ;
#193 = CALENDAR_DATE ( 2020, 21, 9 ) ;
#194 = CC_DESIGN_PERSON_AND_ORGANIZATION_ASSIGNMENT ( #185, #158, ( #289 ) ) ;
#195 = EDGE_LOOP ( 'NONE', ( #249, #65, #25 ) ) ;
#196 = ORGANIZATION ( 'NAUO-ORG1', 'UNSPECIFIED', 'UNSPECIFIED' ) ;
#197 = LOCAL_TIME ( 9, 53, 7.000000000000000000, #72 ) ;
#198 = EDGE_CURVE ( 'NONE', #188, #64, #245, .T. ) ;
#199 = CC_DESIGN_PERSON_AND_ORGANIZATION_ASSIGNMENT ( #255, #214, ( #231 ) ) ;
#200 = LOCAL_TIME ( 9, 53, 7.000000000000000000, #119 ) ;
#201 = DIRECTION ( 'NONE',  ( 0.0000000000000000000, 0.0000000000000000000, 1.000000000000000000 ) ) ;
#202 = EDGE_CURVE ( 'NONE', #335, #302, #283, .T. ) ;
#203 = LOCAL_TIME ( 9, 53, 7.000000000000000000, #108 ) ;
#204 = CALENDAR_DATE ( 2020, 21, 9 ) ;
#205 =( LENGTH_UNIT ( ) NAMED_UNIT ( * ) SI_UNIT ( .MILLI., .METRE. ) );
#206 = DIRECTION ( 'NONE',  ( 0.0000000000000000000, 0.0000000000000000000, 1.000000000000000000 ) ) ;
#207 = CC_DESIGN_APPROVAL ( #151, ( #174 ) ) ;
#208 = PERSON_AND_ORGANIZATION_ROLE ( 'creator' ) ;
#209 = SECURITY_CLASSIFICATION_LEVEL ( 'unclassified' ) ;
#210 = LINE ( 'NONE', #120, #117 ) ;
#211 = COORDINATED_UNIVERSAL_TIME_OFFSET ( 5, 0, .BEHIND. ) ;
#212 = DATE_TIME_ROLE ( 'classification_date' ) ;
#213 = AXIS2_PLACEMENT_3D ( 'NONE', #34, #261, #43 ) ;
#214 = PERSON_AND_ORGANIZATION_ROLE ( 'creator' ) ;
#215 = CC_DESIGN_PERSON_AND_ORGANIZATION_ASSIGNMENT ( #5, #272, ( #289 ) ) ;
#216 = DATE_TIME_ROLE ( 'creation_date' ) ;
#217 = SHAPE_REPRESENTATION_RELATIONSHIP ( 'NONE' , 'NONE' ,  #314, #262 ) ;
#218 = VERTEX_POINT ( 'NONE', #297 ) ;
#219 = PRODUCT_DEFINITION_SHAPE ( 'NONE', 'NONE',  #231 ) ;
#220 = CALENDAR_DATE ( 2020, 21, 9 ) ;
#221 = PERSON_AND_ORGANIZATION ( #258, #355 ) ;
#222 = EDGE_CURVE ( 'NONE', #302, #141, #92, .T. ) ;
#223 = LINE ( 'NONE', #294, #145 ) ;
#224 =( GEOMETRIC_REPRESENTATION_CONTEXT ( 3 ) GLOBAL_UNCERTAINTY_ASSIGNED_CONTEXT ( ( #189 ) ) GLOBAL_UNIT_ASSIGNED_CONTEXT ( ( #242, #182, #307 ) ) REPRESENTATION_CONTEXT ( 'NONE', 'WORKASPACE' ) );
#225 = ORIENTED_EDGE ( 'NONE', *, *, #162, .T. ) ;
#226 = COORDINATED_UNIVERSAL_TIME_OFFSET ( 5, 0, .BEHIND. ) ;
#227 = DIRECTION ( 'NONE',  ( 0.0000000000000000000, 0.7071067811865435759, -0.7071067811865515695 ) ) ;
#228 = PERSON ( 'NAUO-PER2', 'UNSPECIFIED', 'UNSPECIFIED', ('UNSPECIFIED'), ('UNSPECIFIED'), ('UNSPECIFIED') ) ;
#229 = DATE_AND_TIME ( #312, #339 ) ;
#230 = CARTESIAN_POINT ( 'NONE',  ( -5.000000000000000000, -8.659560562349064226E-16, -7.071067811865514585 ) ) ;
#231 = PRODUCT_DEFINITION ( 'UNKNOWN', '', #289, #290 ) ;
#232 = LOCAL_TIME ( 9, 53, 7.000000000000000000, #320 ) ;
#233 = DIRECTION ( 'NONE',  ( 0.0000000000000000000, -6.123233995732582608E-17, -1.000000000000000000 ) ) ;
#234 = EDGE_LOOP ( 'NONE', ( #27, #341, #275 ) ) ;
#235 = PRODUCT_RELATED_PRODUCT_CATEGORY ( 'detail', '', ( #88 ) ) ;
#236 = DATE_AND_TIME ( #28, #23 ) ;
#237 = CARTESIAN_POINT ( 'NONE',  ( 5.000000000000000000, 7.071067811865434649, -4.801055335612047211E-16 ) ) ;
#238 = COORDINATED_UNIVERSAL_TIME_OFFSET ( 5, 0, .BEHIND. ) ;
#239 = FACE_OUTER_BOUND ( 'NONE', #164, .T. ) ;
#240 = APPROVAL_ROLE ( '' ) ;
#241 = PERSON_AND_ORGANIZATION ( #258, #355 ) ;
#242 =( LENGTH_UNIT ( ) NAMED_UNIT ( * ) SI_UNIT ( .MILLI., .METRE. ) );
#243 = SECURITY_CLASSIFICATION ( '', '', #101 ) ;
#244 = DIRECTION ( 'NONE',  ( 0.0000000000000000000, 0.0000000000000000000, 1.000000000000000000 ) ) ;
#245 = LINE ( 'NONE', #150, #55 ) ;
#246 = COORDINATED_UNIVERSAL_TIME_OFFSET ( 5, 0, .BEHIND. ) ;
#247 = LOCAL_TIME ( 9, 53, 7.000000000000000000, #351 ) ;
#248 = DATE_TIME_ROLE ( 'classification_date' ) ;
#249 = ORIENTED_EDGE ( 'NONE', *, *, #279, .F. ) ;
#250 = DATE_AND_TIME ( #136, #203 ) ;
#251 = DATE_AND_TIME ( #343, #288 ) ;
#252 = PERSON ( 'NAUO-PER1', 'UNSPECIFIED', 'UNSPECIFIED', ('UNSPECIFIED'), ('UNSPECIFIED'), ('UNSPECIFIED') ) ;
#253 = PERSON_AND_ORGANIZATION ( #228, #74 ) ;
#254 = CARTESIAN_POINT ( 'NONE',  ( 5.000000000000000000, 7.071067811865434649, -4.801055335612047211E-16 ) ) ;
#255 = PERSON_AND_ORGANIZATION ( #258, #355 ) ;
#256 = AXIS2_PLACEMENT_3D ( 'NONE', #122, #244, #103 ) ;
#257 = FACE_OUTER_BOUND ( 'NONE', #315, .T. ) ;
#258 = PERSON ( 'UNSPECIFIED', 'UNSPECIFIED', 'UNSPECIFIED', ('UNSPECIFIED'), ('UNSPECIFIED'), ('UNSPECIFIED') ) ;
#259 = CC_DESIGN_SECURITY_CLASSIFICATION ( #356, ( #360 ) ) ;
#260 = CALENDAR_DATE ( 2020, 21, 9 ) ;
#261 = DIRECTION ( 'NONE',  ( -6.162975822039154730E-33, -1.000000000000000000, -1.110223024625156787E-16 ) ) ;
#262 = ADVANCED_BREP_SHAPE_REPRESENTATION ( '', ( #353, #187 ), #166 ) ;
#263 = CARTESIAN_POINT ( 'NONE',  ( 5.000000000000000000, -8.659560562349064226E-16, -7.071067811865514585 ) ) ;
#264 = DIRECTION ( 'NONE',  ( 0.0000000000000000000, 0.7071067811865435759, 0.7071067811865513475 ) ) ;
#265 = APPROVAL_DATE_TIME ( #296, #151 ) ;
#266 = PERSON_AND_ORGANIZATION ( #258, #355 ) ;
#267 = CARTESIAN_POINT ( 'NONE',  ( 0.0000000000000000000, 0.0000000000000000000, 0.0000000000000000000 ) ) ;
#268 = PERSON_AND_ORGANIZATION_ROLE ( 'design_owner' ) ;
#269 =( REPRESENTATION_RELATIONSHIP ('NONE','NONE', #60, #314 ) REPRESENTATION_RELATIONSHIP_WITH_TRANSFORMATION ( #337 )SHAPE_REPRESENTATION_RELATIONSHIP( ) );
#270 = APPROVAL_STATUS ( 'not_yet_approved' ) ;
#271 = PERSON_AND_ORGANIZATION ( #252, #196 ) ;
#272 = PERSON_AND_ORGANIZATION_ROLE ( 'design_supplier' ) ;
#273 = CC_DESIGN_DATE_AND_TIME_ASSIGNMENT ( #132, #212, ( #191 ) ) ;
#274 = APPROVAL_ROLE ( '' ) ;
#275 = ORIENTED_EDGE ( 'NONE', *, *, #281, .T. ) ;
#276 = DATE_AND_TIME ( #220, #80 ) ;
#277 = APPROVAL ( #78, 'UNSPECIFIED' ) ;
#278 = COORDINATED_UNIVERSAL_TIME_OFFSET ( 5, 0, .BEHIND. ) ;
#279 = EDGE_CURVE ( 'NONE', #218, #188, #109, .T. ) ;
#280 = ADVANCED_FACE ( 'NONE', ( #333 ), #41, .T. ) ;
#281 = EDGE_CURVE ( 'NONE', #141, #335, #210, .T. ) ;
#282 = PERSON_AND_ORGANIZATION ( #258, #355 ) ;
#283 = LINE ( 'NONE', #237, #131 ) ;
#284 = APPROVAL_DATE_TIME ( #236, #96 ) ;
#285 = PRODUCT_DEFINITION ( 'UNKNOWN', '', #89, #116 ) ;
#286 = AXIS2_PLACEMENT_3D ( 'NONE', #267, #95, #352 ) ;
#287 = LOCAL_TIME ( 9, 53, 7.000000000000000000, #52 ) ;
#288 = LOCAL_TIME ( 9, 53, 7.000000000000000000, #26 ) ;
#289 = PRODUCT_DEFINITION_FORMATION_WITH_SPECIFIED_SOURCE ( 'ANY', '', #88, .NOT_KNOWN. ) ;
#290 = DESIGN_CONTEXT ( 'detailed design', #75, 'design' ) ;
#291 = AXIS2_PLACEMENT_3D ( 'NONE', #123, #67, #201 ) ;
#292 = PLANE ( 'NONE',  #322 ) ;
#293 = APPROVAL_PERSON_ORGANIZATION ( #282, #181, #274 ) ;
#294 = CARTESIAN_POINT ( 'NONE',  ( 5.000000000000000000, 0.0000000000000000000, 7.071067811865514585 ) ) ;
#295 = CC_DESIGN_SECURITY_CLASSIFICATION ( #174, ( #361 ) ) ;
#296 = DATE_AND_TIME ( #342, #4 ) ;
#297 = CARTESIAN_POINT ( 'NONE',  ( -5.000000000000000000, 7.071067811865434649, -4.801055335612047211E-16 ) ) ;
#298 = CALENDAR_DATE ( 2020, 21, 9 ) ;
#299 = CARTESIAN_POINT ( 'NONE',  ( 5.000000000000000000, 7.071067811865434649, -4.801055335612047211E-16 ) ) ;
#300 = AXIS2_PLACEMENT_3D ( 'NONE', #171, #126, #206 ) ;
#301 = APPLICATION_CONTEXT ( 'configuration controlled 3d designs of mechanical parts and assemblies' ) ;
#302 = VERTEX_POINT ( 'NONE', #38 ) ;
#303 = PRODUCT_DEFINITION_SHAPE ( 'NONE', 'NONE',  #361 ) ;
#304 = APPROVAL_STATUS ( 'not_yet_approved' ) ;
#305 = CC_DESIGN_DATE_AND_TIME_ASSIGNMENT ( #250, #18, ( #231 ) ) ;
#306 = APPROVAL_ROLE ( '' ) ;
#307 =( NAMED_UNIT ( * ) SI_UNIT ( $, .STERADIAN. ) SOLID_ANGLE_UNIT ( ) );
#308 = ORIENTED_EDGE ( 'NONE', *, *, #177, .F. ) ;
#309 = APPROVAL_ROLE ( '' ) ;
#310 = LOCAL_TIME ( 9, 53, 7.000000000000000000, #160 ) ;
#311 = PERSON_AND_ORGANIZATION ( #258, #355 ) ;
#312 = CALENDAR_DATE ( 2020, 21, 9 ) ;
#313 = ORIENTED_EDGE ( 'NONE', *, *, #279, .T. ) ;
#314 = SHAPE_REPRESENTATION ( '10x10 Right Angle Prism Master', ( #187 ), #166 ) ;
#315 = EDGE_LOOP ( 'NONE', ( #82, #308, #56, #79 ) ) ;
#316 = CC_DESIGN_PERSON_AND_ORGANIZATION_ASSIGNMENT ( #329, #133, ( #191 ) ) ;
#317 = DIRECTION ( 'NONE',  ( 0.0000000000000000000, -0.7071067811865515695, -0.7071067811865435759 ) ) ;
#318 = LINE ( 'NONE', #299, #172 ) ;
#319 = CC_DESIGN_APPROVAL ( #277, ( #191 ) ) ;
#320 = COORDINATED_UNIVERSAL_TIME_OFFSET ( 5, 0, .BEHIND. ) ;
#321 = CARTESIAN_POINT ( 'NONE',  ( -5.000000000000000000, -8.659560562349064226E-16, -7.071067811865514585 ) ) ;
#322 = AXIS2_PLACEMENT_3D ( 'NONE', #323, #149, #175 ) ;
#323 = CARTESIAN_POINT ( 'NONE',  ( 5.000000000000000000, -8.659560562349064226E-16, -7.071067811865514585 ) ) ;
#324 = CARTESIAN_POINT ( 'NONE',  ( 5.000000000000000000, 0.0000000000000000000, 7.071067811865514585 ) ) ;
#325 = EDGE_LOOP ( 'NONE', ( #313, #51, #135, #147 ) ) ;
#326 = PERSON_AND_ORGANIZATION_ROLE ( 'classification_officer' ) ;
#327 = SECURITY_CLASSIFICATION_LEVEL ( 'unclassified' ) ;
#328 = DATE_TIME_ROLE ( 'classification_date' ) ;
#329 = PERSON_AND_ORGANIZATION ( #258, #355 ) ;
#330 = SHAPE_DEFINITION_REPRESENTATION ( #68, #314 ) ;
#331 = APPLICATION_PROTOCOL_DEFINITION ( 'international standard', 'config_control_design', 1994, #130 ) ;
#332 = CC_DESIGN_DATE_AND_TIME_ASSIGNMENT ( #112, #248, ( #174 ) ) ;
#333 = FACE_OUTER_BOUND ( 'NONE', #195, .T. ) ;
#334 = CC_DESIGN_PERSON_AND_ORGANIZATION_ASSIGNMENT ( #106, #183, ( #167 ) ) ;
#335 = VERTEX_POINT ( 'NONE', #146 ) ;
#336 = PRODUCT_RELATED_PRODUCT_CATEGORY ( 'detail', '', ( #167 ) ) ;
#337 = ITEM_DEFINED_TRANSFORMATION ( 'NONE', 'NONE', #213,  #187 ) ;
#338 = COORDINATED_UNIVERSAL_TIME_OFFSET ( 5, 0, .BEHIND. ) ;
#339 = LOCAL_TIME ( 9, 53, 7.000000000000000000, #238 ) ;
#340 = VECTOR ( 'NONE', #16, 1000.000000000000000 ) ;
#341 = ORIENTED_EDGE ( 'NONE', *, *, #222, .T. ) ;
#342 = CALENDAR_DATE ( 2020, 21, 9 ) ;
#343 = CALENDAR_DATE ( 2020, 21, 9 ) ;
#344 = CC_DESIGN_PERSON_AND_ORGANIZATION_ASSIGNMENT ( #86, #268, ( #88 ) ) ;
#345 = DATE_AND_TIME ( #22, #350 ) ;
#346 = CARTESIAN_POINT ( 'NONE',  ( 0.0000000000000000000, 0.0000000000000000000, 0.0000000000000000000 ) ) ;
#347 = DIRECTION ( 'NONE',  ( 0.0000000000000000000, -0.7071067811865435759, 0.7071067811865515695 ) ) ;
#348 = CARTESIAN_POINT ( 'NONE',  ( -5.000000000000000000, 7.071067811865434649, -4.801055335612047211E-16 ) ) ;
#349 = CC_DESIGN_SECURITY_CLASSIFICATION ( #191, ( #89 ) ) ;
#350 = LOCAL_TIME ( 9, 53, 7.000000000000000000, #246 ) ;
#351 = COORDINATED_UNIVERSAL_TIME_OFFSET ( 5, 0, .BEHIND. ) ;
#352 = DIRECTION ( 'NONE',  ( 1.000000000000000000, 0.0000000000000000000, 0.0000000000000000000 ) ) ;
#353 = MANIFOLD_SOLID_BREP ( 'Extrude1', #12 ) ;
#354 = APPROVAL_STATUS ( 'not_yet_approved' ) ;
#355 = ORGANIZATION ( 'UNSPECIFIED', 'UNSPECIFIED', '' ) ;
#356 = SECURITY_CLASSIFICATION ( '', '', #49 ) ;
#357 = PERSON_AND_ORGANIZATION_ROLE ( 'classification_officer' ) ;
#358 = MECHANICAL_CONTEXT ( 'NONE', #71, 'mechanical' ) ;
#359 = APPROVAL_DATE_TIME ( #148, #1 ) ;
#360 = NEXT_ASSEMBLY_USAGE_OCCURRENCE ( 'NAUO1', ' ', ' ', #231, #285, $ ) ;
#361 = NEXT_ASSEMBLY_USAGE_OCCURRENCE ( 'NAUO2', ' ', ' ', #231, #285, $ ) ;
ENDSEC;
END-ISO-10303-21;
