ISO-10303-21;
HEADER;
FILE_DESCRIPTION (( 'STEP AP203' ),
    '1' );
FILE_NAME ('Web Model 15426_15442.step',
    '2020-07-31T18:50:32',
    ( '' ),
    ( '' ),
    'SwSTEP 2.0',
    'SolidWorks 2018',
    '' );
FILE_SCHEMA (( 'CONFIG_CONTROL_DESIGN' ));
ENDSEC;

DATA;
#1 = DIRECTION ( 'NONE',  ( -1.000000000000000000, 0.0000000000000000000, 0.0000000000000000000 ) ) ;
#2 = APPLICATION_PROTOCOL_DEFINITION ( 'international standard', 'config_control_design', 1994, #98 ) ;
#3 = PERSON_AND_ORGANIZATION ( #32, #42 ) ;
#4 = PERSON_AND_ORGANIZATION_ROLE ( 'design_owner' ) ;
#5 = ORIENTED_EDGE ( 'NONE', *, *, #52, .F. ) ;
#6 = CC_DESIGN_APPROVAL ( #145, ( #41 ) ) ;
#7 = PERSON_AND_ORGANIZATION ( #32, #42 ) ;
#8 = AXIS2_PLACEMENT_3D ( 'NONE', #66, #18, #1 ) ;
#9 = ORIENTED_EDGE ( 'NONE', *, *, #168, .F. ) ;
#10 = PRODUCT_DEFINITION ( 'UNKNOWN', '', #96, #75 ) ;
#11 = AXIS2_PLACEMENT_3D ( 'NONE', #174, #116, #43 ) ;
#12 = APPROVAL_DATE_TIME ( #65, #145 ) ;
#13 = CC_DESIGN_PERSON_AND_ORGANIZATION_ASSIGNMENT ( #7, #47, ( #96 ) ) ;
#14 = ORIENTED_EDGE ( 'NONE', *, *, #57, .F. ) ;
#15 = CARTESIAN_POINT ( 'NONE',  ( -25.39999999999999858, 0.0000000000000000000, -2.000000000000000000 ) ) ;
#16 = LOCAL_TIME ( 14, 50, 32.00000000000000000, #88 ) ;
#17 = CALENDAR_DATE ( 2020, 31, 7 ) ;
#18 = DIRECTION ( 'NONE',  ( -0.0000000000000000000, -0.0000000000000000000, -1.000000000000000000 ) ) ;
#19 = CLOSED_SHELL ( 'NONE', ( #84, #68, #133, #94 ) ) ;
#20 = CARTESIAN_POINT ( 'NONE',  ( 0.0000000000000000000, 0.0000000000000000000, 2.000000000000000000 ) ) ;
#21 = APPROVAL_ROLE ( '' ) ;
#22 = APPROVAL_ROLE ( '' ) ;
#23 =( GEOMETRIC_REPRESENTATION_CONTEXT ( 3 ) GLOBAL_UNCERTAINTY_ASSIGNED_CONTEXT ( ( #162 ) ) GLOBAL_UNIT_ASSIGNED_CONTEXT ( ( #161, #69, #82 ) ) REPRESENTATION_CONTEXT ( 'NONE', 'WORKASPACE' ) );
#24 = PRODUCT_DEFINITION_SHAPE ( 'NONE', 'NONE',  #10 ) ;
#25 = ORIENTED_EDGE ( 'NONE', *, *, #168, .T. ) ;
#26 = AXIS2_PLACEMENT_3D ( 'NONE', #104, #39, #164 ) ;
#27 = APPROVAL_PERSON_ORGANIZATION ( #63, #145, #83 ) ;
#28 = CARTESIAN_POINT ( 'NONE',  ( -25.39999999999999858, 0.0000000000000000000, 2.000000000000000000 ) ) ;
#29 = CIRCLE ( 'NONE', #90, 25.39999999999999858 ) ;
#30 = CARTESIAN_POINT ( 'NONE',  ( 25.39999999999999858, 3.110602869834276865E-15, 2.000000000000000000 ) ) ;
#31 = MECHANICAL_CONTEXT ( 'NONE', #86, 'mechanical' ) ;
#32 = PERSON ( 'UNSPECIFIED', 'UNSPECIFIED', 'UNSPECIFIED', ('UNSPECIFIED'), ('UNSPECIFIED'), ('UNSPECIFIED') ) ;
#33 = PERSON_AND_ORGANIZATION ( #32, #42 ) ;
#34 = EDGE_CURVE ( 'NONE', #49, #77, #154, .T. ) ;
#35 = PERSON_AND_ORGANIZATION ( #32, #42 ) ;
#36 = DATE_TIME_ROLE ( 'creation_date' ) ;
#37 = LINE ( 'NONE', #78, #167 ) ;
#38 = ORIENTED_EDGE ( 'NONE', *, *, #155, .F. ) ;
#39 = DIRECTION ( 'NONE',  ( 0.0000000000000000000, 0.0000000000000000000, 1.000000000000000000 ) ) ;
#40 = PRODUCT ( 'Web Model 15426_15442', 'Web Model 15426_15442', '', ( #31 ) ) ;
#41 = SECURITY_CLASSIFICATION ( '', '', #97 ) ;
#42 = ORGANIZATION ( 'UNSPECIFIED', 'UNSPECIFIED', '' ) ;
#43 = DIRECTION ( 'NONE',  ( 1.000000000000000000, 0.0000000000000000000, -0.0000000000000000000 ) ) ;
#44 = DIRECTION ( 'NONE',  ( -1.000000000000000000, 0.0000000000000000000, 0.0000000000000000000 ) ) ;
#45 = DIRECTION ( 'NONE',  ( 0.0000000000000000000, 0.0000000000000000000, 1.000000000000000000 ) ) ;
#46 = DATE_TIME_ROLE ( 'classification_date' ) ;
#47 = PERSON_AND_ORGANIZATION_ROLE ( 'design_supplier' ) ;
#48 = LOCAL_TIME ( 14, 50, 32.00000000000000000, #115 ) ;
#49 = VERTEX_POINT ( 'NONE', #55 ) ;
#50 = ORIENTED_EDGE ( 'NONE', *, *, #80, .F. ) ;
#51 = CC_DESIGN_DATE_AND_TIME_ASSIGNMENT ( #60, #36, ( #10 ) ) ;
#52 = EDGE_CURVE ( 'NONE', #92, #175, #160, .T. ) ;
#53 = FACE_OUTER_BOUND ( 'NONE', #170, .T. ) ;
#54 = COORDINATED_UNIVERSAL_TIME_OFFSET ( 5, 0, .BEHIND. ) ;
#55 = CARTESIAN_POINT ( 'NONE',  ( 25.39999999999999858, 3.110602869834276865E-15, -2.000000000000000000 ) ) ;
#56 = DIRECTION ( 'NONE',  ( 0.0000000000000000000, 0.0000000000000000000, 1.000000000000000000 ) ) ;
#57 = EDGE_CURVE ( 'NONE', #92, #77, #124, .T. ) ;
#58 = EDGE_LOOP ( 'NONE', ( #9, #101 ) ) ;
#59 = CC_DESIGN_PERSON_AND_ORGANIZATION_ASSIGNMENT ( #35, #4, ( #40 ) ) ;
#60 = DATE_AND_TIME ( #102, #152 ) ;
#61 = EDGE_LOOP ( 'NONE', ( #50, #113, #138, #14 ) ) ;
#62 = VECTOR ( 'NONE', #159, 1000.000000000000000 ) ;
#63 = PERSON_AND_ORGANIZATION ( #32, #42 ) ;
#64 = COORDINATED_UNIVERSAL_TIME_OFFSET ( 5, 0, .BEHIND. ) ;
#65 = DATE_AND_TIME ( #165, #16 ) ;
#66 = CARTESIAN_POINT ( 'NONE',  ( 0.0000000000000000000, 0.0000000000000000000, 2.000000000000000000 ) ) ;
#67 = DIRECTION ( 'NONE',  ( 0.0000000000000000000, 0.0000000000000000000, 1.000000000000000000 ) ) ;
#68 = ADVANCED_FACE ( 'NONE', ( #53 ), #140, .T. ) ;
#69 =( NAMED_UNIT ( * ) PLANE_ANGLE_UNIT ( ) SI_UNIT ( $, .RADIAN. ) );
#70 = PLANE ( 'NONE',  #139 ) ;
#71 = APPROVAL_STATUS ( 'not_yet_approved' ) ;
#72 = AXIS2_PLACEMENT_3D ( 'NONE', #128, #45, #132 ) ;
#73 = PRODUCT_RELATED_PRODUCT_CATEGORY ( 'detail', '', ( #40 ) ) ;
#74 = ORIENTED_EDGE ( 'NONE', *, *, #57, .T. ) ;
#75 = DESIGN_CONTEXT ( 'detailed design', #98, 'design' ) ;
#76 = DIRECTION ( 'NONE',  ( 1.000000000000000000, 0.0000000000000000000, 0.0000000000000000000 ) ) ;
#77 = VERTEX_POINT ( 'NONE', #15 ) ;
#78 = CARTESIAN_POINT ( 'NONE',  ( 25.39999999999999858, 3.110602869834276865E-15, 2.000000000000000000 ) ) ;
#79 = SHAPE_DEFINITION_REPRESENTATION ( #24, #171 ) ;
#80 = EDGE_CURVE ( 'NONE', #175, #92, #163, .T. ) ;
#81 = DIRECTION ( 'NONE',  ( -0.0000000000000000000, -0.0000000000000000000, -1.000000000000000000 ) ) ;
#82 =( NAMED_UNIT ( * ) SI_UNIT ( $, .STERADIAN. ) SOLID_ANGLE_UNIT ( ) );
#83 = APPROVAL_ROLE ( '' ) ;
#84 = ADVANCED_FACE ( 'NONE', ( #137 ), #141, .T. ) ;
#85 = CC_DESIGN_APPROVAL ( #111, ( #10 ) ) ;
#86 = APPLICATION_CONTEXT ( 'configuration controlled 3d designs of mechanical parts and assemblies' ) ;
#87 = AXIS2_PLACEMENT_3D ( 'NONE', #130, #173, #93 ) ;
#88 = COORDINATED_UNIVERSAL_TIME_OFFSET ( 5, 0, .BEHIND. ) ;
#89 = FACE_OUTER_BOUND ( 'NONE', #108, .T. ) ;
#90 = AXIS2_PLACEMENT_3D ( 'NONE', #95, #105, #129 ) ;
#91 = CC_DESIGN_PERSON_AND_ORGANIZATION_ASSIGNMENT ( #3, #109, ( #10 ) ) ;
#92 = VERTEX_POINT ( 'NONE', #28 ) ;
#93 = DIRECTION ( 'NONE',  ( 1.000000000000000000, 0.0000000000000000000, 0.0000000000000000000 ) ) ;
#94 = ADVANCED_FACE ( 'NONE', ( #120 ), #103, .F. ) ;
#95 = CARTESIAN_POINT ( 'NONE',  ( 0.0000000000000000000, 0.0000000000000000000, -2.000000000000000000 ) ) ;
#96 = PRODUCT_DEFINITION_FORMATION_WITH_SPECIFIED_SOURCE ( 'ANY', '', #40, .NOT_KNOWN. ) ;
#97 = SECURITY_CLASSIFICATION_LEVEL ( 'unclassified' ) ;
#98 = APPLICATION_CONTEXT ( 'configuration controlled 3d designs of mechanical parts and assemblies' ) ;
#99 = COORDINATED_UNIVERSAL_TIME_OFFSET ( 5, 0, .BEHIND. ) ;
#100 = LOCAL_TIME ( 14, 50, 32.00000000000000000, #54 ) ;
#101 = ORIENTED_EDGE ( 'NONE', *, *, #34, .F. ) ;
#102 = CALENDAR_DATE ( 2020, 31, 7 ) ;
#103 = PLANE ( 'NONE',  #11 ) ;
#104 = CARTESIAN_POINT ( 'NONE',  ( 0.0000000000000000000, 0.0000000000000000000, 0.0000000000000000000 ) ) ;
#105 = DIRECTION ( 'NONE',  ( 0.0000000000000000000, 0.0000000000000000000, 1.000000000000000000 ) ) ;
#106 = AXIS2_PLACEMENT_3D ( 'NONE', #118, #81, #44 ) ;
#107 = CC_DESIGN_DATE_AND_TIME_ASSIGNMENT ( #134, #46, ( #41 ) ) ;
#108 = EDGE_LOOP ( 'NONE', ( #142, #122 ) ) ;
#109 = PERSON_AND_ORGANIZATION_ROLE ( 'creator' ) ;
#110 = CALENDAR_DATE ( 2020, 31, 7 ) ;
#111 = APPROVAL ( #148, 'UNSPECIFIED' ) ;
#112 = APPROVAL ( #136, 'UNSPECIFIED' ) ;
#113 = ORIENTED_EDGE ( 'NONE', *, *, #155, .T. ) ;
#114 = APPROVAL_DATE_TIME ( #151, #112 ) ;
#115 = COORDINATED_UNIVERSAL_TIME_OFFSET ( 5, 0, .BEHIND. ) ;
#116 = DIRECTION ( 'NONE',  ( 0.0000000000000000000, 0.0000000000000000000, 1.000000000000000000 ) ) ;
#117 = DIRECTION ( 'NONE',  ( -0.0000000000000000000, -0.0000000000000000000, -1.000000000000000000 ) ) ;
#118 = CARTESIAN_POINT ( 'NONE',  ( 0.0000000000000000000, 0.0000000000000000000, 2.000000000000000000 ) ) ;
#119 = CARTESIAN_POINT ( 'NONE',  ( -25.39999999999999858, 0.0000000000000000000, 2.000000000000000000 ) ) ;
#120 = FACE_OUTER_BOUND ( 'NONE', #58, .T. ) ;
#121 = PERSON_AND_ORGANIZATION_ROLE ( 'classification_officer' ) ;
#122 = ORIENTED_EDGE ( 'NONE', *, *, #80, .T. ) ;
#123 = LOCAL_TIME ( 14, 50, 32.00000000000000000, #99 ) ;
#124 = LINE ( 'NONE', #119, #62 ) ;
#125 = CC_DESIGN_APPROVAL ( #112, ( #96 ) ) ;
#126 = CC_DESIGN_PERSON_AND_ORGANIZATION_ASSIGNMENT ( #33, #121, ( #41 ) ) ;
#127 = APPROVAL_DATE_TIME ( #156, #111 ) ;
#128 = CARTESIAN_POINT ( 'NONE',  ( 0.0000000000000000000, 0.0000000000000000000, 2.000000000000000000 ) ) ;
#129 = DIRECTION ( 'NONE',  ( 1.000000000000000000, 0.0000000000000000000, 0.0000000000000000000 ) ) ;
#130 = CARTESIAN_POINT ( 'NONE',  ( 0.0000000000000000000, 0.0000000000000000000, -2.000000000000000000 ) ) ;
#131 = PERSON_AND_ORGANIZATION ( #32, #42 ) ;
#132 = DIRECTION ( 'NONE',  ( 1.000000000000000000, 0.0000000000000000000, 0.0000000000000000000 ) ) ;
#133 = ADVANCED_FACE ( 'NONE', ( #89 ), #70, .T. ) ;
#134 = DATE_AND_TIME ( #110, #100 ) ;
#135 = CALENDAR_DATE ( 2020, 31, 7 ) ;
#136 = APPROVAL_STATUS ( 'not_yet_approved' ) ;
#137 = FACE_OUTER_BOUND ( 'NONE', #61, .T. ) ;
#138 = ORIENTED_EDGE ( 'NONE', *, *, #34, .T. ) ;
#139 = AXIS2_PLACEMENT_3D ( 'NONE', #146, #67, #158 ) ;
#140 = CYLINDRICAL_SURFACE ( 'NONE', #106, 25.39999999999999858 ) ;
#141 = CYLINDRICAL_SURFACE ( 'NONE', #8, 25.39999999999999858 ) ;
#142 = ORIENTED_EDGE ( 'NONE', *, *, #52, .T. ) ;
#143 = MANIFOLD_SOLID_BREP ( 'Boss-Extrude1', #19 ) ;
#144 = AXIS2_PLACEMENT_3D ( 'NONE', #20, #56, #76 ) ;
#145 = APPROVAL ( #71, 'UNSPECIFIED' ) ;
#146 = CARTESIAN_POINT ( 'NONE',  ( 0.0000000000000000000, 0.0000000000000000000, 2.000000000000000000 ) ) ;
#147 = PERSON_AND_ORGANIZATION ( #32, #42 ) ;
#148 = APPROVAL_STATUS ( 'not_yet_approved' ) ;
#149 = APPROVAL_PERSON_ORGANIZATION ( #169, #111, #22 ) ;
#150 = APPLICATION_PROTOCOL_DEFINITION ( 'international standard', 'config_control_design', 1994, #86 ) ;
#151 = DATE_AND_TIME ( #17, #123 ) ;
#152 = LOCAL_TIME ( 14, 50, 32.00000000000000000, #64 ) ;
#153 = CC_DESIGN_SECURITY_CLASSIFICATION ( #41, ( #96 ) ) ;
#154 = CIRCLE ( 'NONE', #87, 25.39999999999999858 ) ;
#155 = EDGE_CURVE ( 'NONE', #175, #49, #37, .T. ) ;
#156 = DATE_AND_TIME ( #135, #48 ) ;
#157 = CC_DESIGN_PERSON_AND_ORGANIZATION_ASSIGNMENT ( #131, #166, ( #96 ) ) ;
#158 = DIRECTION ( 'NONE',  ( 1.000000000000000000, 0.0000000000000000000, -0.0000000000000000000 ) ) ;
#159 = DIRECTION ( 'NONE',  ( -0.0000000000000000000, -0.0000000000000000000, -1.000000000000000000 ) ) ;
#160 = CIRCLE ( 'NONE', #144, 25.39999999999999858 ) ;
#161 =( LENGTH_UNIT ( ) NAMED_UNIT ( * ) SI_UNIT ( .MILLI., .METRE. ) );
#162 = UNCERTAINTY_MEASURE_WITH_UNIT (LENGTH_MEASURE( 1.000000000000000082E-05 ), #161, 'distance_accuracy_value', 'NONE');
#163 = CIRCLE ( 'NONE', #72, 25.39999999999999858 ) ;
#164 = DIRECTION ( 'NONE',  ( 1.000000000000000000, 0.0000000000000000000, 0.0000000000000000000 ) ) ;
#165 = CALENDAR_DATE ( 2020, 31, 7 ) ;
#166 = PERSON_AND_ORGANIZATION_ROLE ( 'creator' ) ;
#167 = VECTOR ( 'NONE', #117, 1000.000000000000000 ) ;
#168 = EDGE_CURVE ( 'NONE', #77, #49, #29, .T. ) ;
#169 = PERSON_AND_ORGANIZATION ( #32, #42 ) ;
#170 = EDGE_LOOP ( 'NONE', ( #38, #5, #74, #25 ) ) ;
#171 = ADVANCED_BREP_SHAPE_REPRESENTATION ( 'Web Model 15426_15442', ( #143, #26 ), #23 ) ;
#172 = APPROVAL_PERSON_ORGANIZATION ( #147, #112, #21 ) ;
#173 = DIRECTION ( 'NONE',  ( 0.0000000000000000000, 0.0000000000000000000, 1.000000000000000000 ) ) ;
#174 = CARTESIAN_POINT ( 'NONE',  ( 0.0000000000000000000, 0.0000000000000000000, -2.000000000000000000 ) ) ;
#175 = VERTEX_POINT ( 'NONE', #30 ) ;
ENDSEC;
END-ISO-10303-21;
