ISO-10303-21;
HEADER;
FILE_DESCRIPTION (( 'STEP AP214' ),
    '1' );
FILE_NAME ('4841-E0W.STEP',
    '2009-12-21T17:09:56',
    ( ' ' ),
    ( ' ' ),
    'SwSTEP 2.0',
    'SolidWorks 2009',
    '' );
FILE_SCHEMA (( 'AUTOMOTIVE_DESIGN' ));
ENDSEC;

DATA;
#1 = PRESENTATION_LAYER_ASSIGNMENT (  '', '', ( #4 ) ) ;
#2 =( LENGTH_UNIT ( ) NAMED_UNIT ( * ) SI_UNIT ( .MILLI., .METRE. ) );
#3 = MECHANICAL_DESIGN_GEOMETRIC_PRESENTATION_REPRESENTATION (  '', ( #4 ), #21 ) ;
#4 = STYLED_ITEM ( 'NONE', ( #5 ), #17 ) ;
#5 = PRESENTATION_STYLE_ASSIGNMENT (( #10 ) ) ;
#6 = COLOUR_RGB ( '',0.7960784313725489700, 0.8235294117647058400, 0.9372549019607843100 ) ;
#7 = SURFACE_STYLE_FILL_AREA ( #9 ) ;
#8 = FILL_AREA_STYLE_COLOUR ( '', #6 ) ;
#9 = FILL_AREA_STYLE ('',( #8 ) ) ;
#10 = SURFACE_STYLE_USAGE ( .BOTH. , #11 ) ;
#11 = SURFACE_SIDE_STYLE ('',( #7 ) ) ;
#12 = UNCERTAINTY_MEASURE_WITH_UNIT (LENGTH_MEASURE( 1.000000000000000100E-005 ), #16, 'distance_accuracy_value', 'NONE');
#13 =( NAMED_UNIT ( * ) SI_UNIT ( $, .STERADIAN. ) SOLID_ANGLE_UNIT ( ) );
#14 =( GEOMETRIC_REPRESENTATION_CONTEXT ( 3 ) GLOBAL_UNCERTAINTY_ASSIGNED_CONTEXT ( ( #12 ) ) GLOBAL_UNIT_ASSIGNED_CONTEXT ( ( #16, #15, #13 ) ) REPRESENTATION_CONTEXT ( 'NONE', 'WORKASPACE' ) );
#15 =( NAMED_UNIT ( * ) PLANE_ANGLE_UNIT ( ) SI_UNIT ( $, .RADIAN. ) );
#16 =( LENGTH_UNIT ( ) NAMED_UNIT ( * ) SI_UNIT ( .MILLI., .METRE. ) );
#17 = ADVANCED_BREP_SHAPE_REPRESENTATION ( '4841-E0W', ( #260, #24 ), #14 ) ;
#18 = UNCERTAINTY_MEASURE_WITH_UNIT (LENGTH_MEASURE( 1.000000000000000100E-005 ), #2, 'distance_accuracy_value', 'NONE');
#19 =( NAMED_UNIT ( * ) SI_UNIT ( $, .STERADIAN. ) SOLID_ANGLE_UNIT ( ) );
#20 =( NAMED_UNIT ( * ) PLANE_ANGLE_UNIT ( ) SI_UNIT ( $, .RADIAN. ) );
#21 =( GEOMETRIC_REPRESENTATION_CONTEXT ( 3 ) GLOBAL_UNCERTAINTY_ASSIGNED_CONTEXT ( ( #18 ) ) GLOBAL_UNIT_ASSIGNED_CONTEXT ( ( #2, #20, #19 ) ) REPRESENTATION_CONTEXT ( 'NONE', 'WORKASPACE' ) );
#22 = DIRECTION ( 'NONE',  ( 1.000000000000000000, 0.0000000000000000000, 0.0000000000000000000 ) ) ;
#23 = DIRECTION ( 'NONE',  ( 0.0000000000000000000, 0.0000000000000000000, 1.000000000000000000 ) ) ;
#24 = AXIS2_PLACEMENT_3D ( 'NONE', #25, #23, #26 ) ;
#25 = CARTESIAN_POINT ( 'NONE',  ( 0.0000000000000000000, 0.0000000000000000000, 0.0000000000000000000 ) ) ;
#26 = DIRECTION ( 'NONE',  ( 1.000000000000000000, 0.0000000000000000000, 0.0000000000000000000 ) ) ;
#27 = PRODUCT_CONTEXT ( 'NONE', #28, 'mechanical' ) ;
#28 = APPLICATION_CONTEXT ( 'automotive_design' ) ;
#29 = APPLICATION_PROTOCOL_DEFINITION ( 'draft international standard', 'automotive_design', 1998, #30 ) ;
#30 = APPLICATION_CONTEXT ( 'automotive_design' ) ;
#31 = PRODUCT ( '4841-E0W', '4841-E0W', '', ( #27 ) ) ;
#32 = APPLICATION_PROTOCOL_DEFINITION ( 'draft international standard', 'automotive_design', 1998, #28 ) ;
#33 = PRODUCT_DEFINITION_CONTEXT ( 'detailed design', #30, 'design' ) ;
#34 = SHAPE_DEFINITION_REPRESENTATION ( #35, #17 ) ;
#35 = PRODUCT_DEFINITION_SHAPE ( 'NONE', 'NONE',  #37 ) ;
#36 = PRODUCT_DEFINITION_FORMATION_WITH_SPECIFIED_SOURCE ( 'ANY', '', #31, .NOT_KNOWN. ) ;
#37 = PRODUCT_DEFINITION ( 'UNKNOWN', '', #36, #33 ) ;
#38 = PRODUCT_RELATED_PRODUCT_CATEGORY ( 'part', '', ( #31 ) ) ;
#39 =( NAMED_UNIT ( * ) PLANE_ANGLE_UNIT ( ) SI_UNIT ( $, .RADIAN. ) );
#40 =( NAMED_UNIT ( * ) SI_UNIT ( $, .STERADIAN. ) SOLID_ANGLE_UNIT ( ) );
#41 = UNCERTAINTY_MEASURE_WITH_UNIT (LENGTH_MEASURE( 1.000000000000000100E-005 ), #52, 'distance_accuracy_value', 'NONE');
#42 = CARTESIAN_POINT ( 'NONE',  ( 0.0000000000000000000, 0.0000000000000000000, -22.93995881381060500 ) ) ;
#43 = COLOUR_RGB ( '',0.7960784313725489700, 0.8235294117647058400, 0.9372549019607843100 ) ;
#44 = CARTESIAN_POINT ( 'NONE',  ( -25.39999999999999900, 3.110500138708838200E-015, -6.346116582428510200 ) ) ;
#45 = DIRECTION ( 'NONE',  ( -0.0000000000000000000, -0.0000000000000000000, 1.000000000000000000 ) ) ;
#46 = VECTOR ( 'NONE', #45, 1000.000000000000000 ) ;
#47 = CARTESIAN_POINT ( 'NONE',  ( -25.39999999999999900, 3.110500138708838200E-015, 11.45514494103044900 ) ) ;
#48 = LINE ( 'NONE', #47, #46 ) ;
#49 = CARTESIAN_POINT ( 'NONE',  ( -25.39999999999999900, 3.110500138708838200E-015, -7.400041186189393500 ) ) ;
#50 = FILL_AREA_STYLE ('',( #51 ) ) ;
#51 = FILL_AREA_STYLE_COLOUR ( '', #43 ) ;
#52 =( LENGTH_UNIT ( ) NAMED_UNIT ( * ) SI_UNIT ( .MILLI., .METRE. ) );
#53 = MECHANICAL_DESIGN_GEOMETRIC_PRESENTATION_REPRESENTATION (  '', ( #55 ), #89 ) ;
#54 = PRESENTATION_LAYER_ASSIGNMENT (  '', '', ( #55 ) ) ;
#55 = STYLED_ITEM ( 'NONE', ( #56 ), #260 ) ;
#56 = PRESENTATION_STYLE_ASSIGNMENT (( #57 ) ) ;
#57 = SURFACE_STYLE_USAGE ( .BOTH. , #58 ) ;
#58 = SURFACE_SIDE_STYLE ('',( #59 ) ) ;
#59 = SURFACE_STYLE_FILL_AREA ( #50 ) ;
#60 = CARTESIAN_POINT ( 'NONE',  ( 0.0000000000000000000, 0.0000000000000000000, -68.09995881381058800 ) ) ;
#61 = AXIS2_PLACEMENT_3D ( 'NONE', #60, #111, #110 ) ;
#62 = AXIS2_PLACEMENT_3D ( 'NONE', #109, #78, #77 ) ;
#63 = CIRCLE ( 'NONE', #62, 25.39999999999999900 ) ;
#64 = MECHANICAL_DESIGN_GEOMETRIC_PRESENTATION_REPRESENTATION (  '', ( #79 ), #113 ) ;
#65 = CARTESIAN_POINT ( 'NONE',  ( 0.0000000000000000000, 4.028954904075621500E-015, -2.299958813810593300 ) ) ;
#66 = DIRECTION ( 'NONE',  ( -1.000000000000000000, 0.0000000000000000000, 0.0000000000000000000 ) ) ;
#67 = UNCERTAINTY_MEASURE_WITH_UNIT (LENGTH_MEASURE( 1.000000000000000100E-005 ), #91, 'distance_accuracy_value', 'NONE');
#68 =( NAMED_UNIT ( * ) SI_UNIT ( $, .STERADIAN. ) SOLID_ANGLE_UNIT ( ) );
#69 = FILL_AREA_STYLE ('',( #71 ) ) ;
#70 = PRESENTATION_LAYER_ASSIGNMENT (  '', '', ( #79 ) ) ;
#71 = FILL_AREA_STYLE_COLOUR ( '', #92 ) ;
#72 = DIRECTION ( 'NONE',  ( -1.224606353822377500E-016, -1.000000000000000000, 0.0000000000000000000 ) ) ;
#73 = DIRECTION ( 'NONE',  ( -1.000000000000000000, 1.224606353822377300E-016, 0.0000000000000000000 ) ) ;
#74 = CARTESIAN_POINT ( 'NONE',  ( 0.0000000000000000000, 0.0000000000000000000, -68.09995881381058800 ) ) ;
#75 = AXIS2_PLACEMENT_3D ( 'NONE', #74, #73, #72 ) ;
#76 = CIRCLE ( 'NONE', #75, 65.79999999999999700 ) ;
#77 = DIRECTION ( 'NONE',  ( 1.000000000000000000, 0.0000000000000000000, 0.0000000000000000000 ) ) ;
#78 = DIRECTION ( 'NONE',  ( -0.0000000000000000000, -0.0000000000000000000, 1.000000000000000000 ) ) ;
#79 = STYLED_ITEM ( 'NONE', ( #115 ), #261 ) ;
#80 = MECHANICAL_DESIGN_GEOMETRIC_PRESENTATION_REPRESENTATION (  '', ( #82 ), #124 ) ;
#81 = PRESENTATION_LAYER_ASSIGNMENT (  '', '', ( #82 ) ) ;
#82 = STYLED_ITEM ( 'NONE', ( #83 ), #278 ) ;
#83 = PRESENTATION_STYLE_ASSIGNMENT (( #84 ) ) ;
#84 = SURFACE_STYLE_USAGE ( .BOTH. , #85 ) ;
#85 = SURFACE_SIDE_STYLE ('',( #86 ) ) ;
#86 = SURFACE_STYLE_FILL_AREA ( #87 ) ;
#87 = FILL_AREA_STYLE ('',( #95 ) ) ;
#88 = COLOUR_RGB ( '',0.9568627450980391500, 0.9490196078431372100, 0.9607843137254902200 ) ;
#89 =( GEOMETRIC_REPRESENTATION_CONTEXT ( 3 ) GLOBAL_UNCERTAINTY_ASSIGNED_CONTEXT ( ( #41 ) ) GLOBAL_UNIT_ASSIGNED_CONTEXT ( ( #52, #39, #40 ) ) REPRESENTATION_CONTEXT ( 'NONE', 'WORKASPACE' ) );
#90 =( NAMED_UNIT ( * ) PLANE_ANGLE_UNIT ( ) SI_UNIT ( $, .RADIAN. ) );
#91 =( LENGTH_UNIT ( ) NAMED_UNIT ( * ) SI_UNIT ( .MILLI., .METRE. ) );
#92 = COLOUR_RGB ( '',0.9568627450980391500, 0.9490196078431372100, 0.9607843137254902200 ) ;
#93 = CARTESIAN_POINT ( 'NONE',  ( 0.0000000000000000000, 0.0000000000000000000, -7.400041186189393500 ) ) ;
#94 =( NAMED_UNIT ( * ) SI_UNIT ( $, .STERADIAN. ) SOLID_ANGLE_UNIT ( ) );
#95 = FILL_AREA_STYLE_COLOUR ( '', #88 ) ;
#96 = DIRECTION ( 'NONE',  ( 1.000000000000000000, 0.0000000000000000000, 0.0000000000000000000 ) ) ;
#97 = DIRECTION ( 'NONE',  ( -0.0000000000000000000, -0.0000000000000000000, 1.000000000000000000 ) ) ;
#98 = AXIS2_PLACEMENT_3D ( 'NONE', #93, #97, #96 ) ;
#99 = CIRCLE ( 'NONE', #98, 25.39999999999999900 ) ;
#100 = FACE_OUTER_BOUND ( 'NONE', #279, .T. ) ;
#101 = SPHERICAL_SURFACE ( 'NONE', #61, 65.79999999999999700 ) ;
#102 = CARTESIAN_POINT ( 'NONE',  ( 25.39999999999999900, 0.0000000000000000000, -7.400041186189393500 ) ) ;
#103 = CARTESIAN_POINT ( 'NONE',  ( -3.110500138708840100E-015, -25.40000000000001300, -7.400041186189390000 ) ) ;
#104 = SURFACE_STYLE_USAGE ( .BOTH. , #114 ) ;
#105 = UNCERTAINTY_MEASURE_WITH_UNIT (LENGTH_MEASURE( 1.000000000000000100E-005 ), #107, 'distance_accuracy_value', 'NONE');
#106 =( NAMED_UNIT ( * ) PLANE_ANGLE_UNIT ( ) SI_UNIT ( $, .RADIAN. ) );
#107 =( LENGTH_UNIT ( ) NAMED_UNIT ( * ) SI_UNIT ( .MILLI., .METRE. ) );
#108 = SURFACE_STYLE_FILL_AREA ( #69 ) ;
#109 = CARTESIAN_POINT ( 'NONE',  ( 0.0000000000000000000, 0.0000000000000000000, -7.400041186189393500 ) ) ;
#110 = DIRECTION ( 'NONE',  ( 0.0000000000000000000, 1.000000000000000000, 0.0000000000000000000 ) ) ;
#111 = DIRECTION ( 'NONE',  ( -1.000000000000000000, 0.0000000000000000000, 0.0000000000000000000 ) ) ;
#112 = FACE_OUTER_BOUND ( 'NONE', #262, .T. ) ;
#113 =( GEOMETRIC_REPRESENTATION_CONTEXT ( 3 ) GLOBAL_UNCERTAINTY_ASSIGNED_CONTEXT ( ( #105 ) ) GLOBAL_UNIT_ASSIGNED_CONTEXT ( ( #107, #106, #94 ) ) REPRESENTATION_CONTEXT ( 'NONE', 'WORKASPACE' ) );
#114 = SURFACE_SIDE_STYLE ('',( #108 ) ) ;
#115 = PRESENTATION_STYLE_ASSIGNMENT (( #104 ) ) ;
#116 =( NAMED_UNIT ( * ) PLANE_ANGLE_UNIT ( ) SI_UNIT ( $, .RADIAN. ) );
#117 = AXIS2_PLACEMENT_3D ( 'NONE', #123, #127, #125 ) ;
#118 = DIRECTION ( 'NONE',  ( -1.000000000000000000, 0.0000000000000000000, 0.0000000000000000000 ) ) ;
#119 = PRESENTATION_STYLE_ASSIGNMENT (( #120 ) ) ;
#120 = SURFACE_STYLE_USAGE ( .BOTH. , #121 ) ;
#121 = SURFACE_SIDE_STYLE ('',( #122 ) ) ;
#122 = SURFACE_STYLE_FILL_AREA ( #134 ) ;
#123 = CARTESIAN_POINT ( 'NONE',  ( 0.0000000000000000000, 0.0000000000000000000, -22.93995881381060500 ) ) ;
#124 =( GEOMETRIC_REPRESENTATION_CONTEXT ( 3 ) GLOBAL_UNCERTAINTY_ASSIGNED_CONTEXT ( ( #67 ) ) GLOBAL_UNIT_ASSIGNED_CONTEXT ( ( #91, #90, #68 ) ) REPRESENTATION_CONTEXT ( 'NONE', 'WORKASPACE' ) );
#125 = DIRECTION ( 'NONE',  ( -1.224606353822377300E-016, -1.000000000000000000, 0.0000000000000000000 ) ) ;
#126 = SPHERICAL_SURFACE ( 'NONE', #141, 65.79999999999999700 ) ;
#127 = DIRECTION ( 'NONE',  ( -1.000000000000000000, 1.224606353822377300E-016, 0.0000000000000000000 ) ) ;
#128 = CARTESIAN_POINT ( 'NONE',  ( 0.0000000000000000000, 0.0000000000000000000, -68.09995881381058800 ) ) ;
#129 = FACE_OUTER_BOUND ( 'NONE', #291, .T. ) ;
#130 =( GEOMETRIC_REPRESENTATION_CONTEXT ( 3 ) GLOBAL_UNCERTAINTY_ASSIGNED_CONTEXT ( ( #138 ) ) GLOBAL_UNIT_ASSIGNED_CONTEXT ( ( #132, #116, #139 ) ) REPRESENTATION_CONTEXT ( 'NONE', 'WORKASPACE' ) );
#131 = DIRECTION ( 'NONE',  ( 0.0000000000000000000, 1.000000000000000000, 0.0000000000000000000 ) ) ;
#132 =( LENGTH_UNIT ( ) NAMED_UNIT ( * ) SI_UNIT ( .MILLI., .METRE. ) );
#133 = CIRCLE ( 'NONE', #117, 30.34000000000000000 ) ;
#134 = FILL_AREA_STYLE ('',( #135 ) ) ;
#135 = FILL_AREA_STYLE_COLOUR ( '', #136 ) ;
#136 = COLOUR_RGB ( '',0.9568627450980391500, 0.9490196078431372100, 0.9607843137254902200 ) ;
#137 = DIRECTION ( 'NONE',  ( 0.0000000000000000000, 0.0000000000000000000, -1.000000000000000000 ) ) ;
#138 = UNCERTAINTY_MEASURE_WITH_UNIT (LENGTH_MEASURE( 1.000000000000000100E-005 ), #132, 'distance_accuracy_value', 'NONE');
#139 =( NAMED_UNIT ( * ) SI_UNIT ( $, .STERADIAN. ) SOLID_ANGLE_UNIT ( ) );
#140 = CIRCLE ( 'NONE', #147, 30.34000000000000000 ) ;
#141 = AXIS2_PLACEMENT_3D ( 'NONE', #128, #118, #131 ) ;
#142 = MECHANICAL_DESIGN_GEOMETRIC_PRESENTATION_REPRESENTATION (  '', ( #144 ), #130 ) ;
#143 = PRESENTATION_LAYER_ASSIGNMENT (  '', '', ( #144 ) ) ;
#144 = STYLED_ITEM ( 'NONE', ( #119 ), #290 ) ;
#145 = DIRECTION ( 'NONE',  ( 1.000000000000000000, 0.0000000000000000000, 0.0000000000000000000 ) ) ;
#146 = CARTESIAN_POINT ( 'NONE',  ( 0.0000000000000000000, 0.0000000000000000000, -22.93995881381060500 ) ) ;
#147 = AXIS2_PLACEMENT_3D ( 'NONE', #146, #145, #137 ) ;
#148 = STYLED_ITEM ( 'NONE', ( #161 ), #297 ) ;
#149 = AXIS2_PLACEMENT_3D ( 'NONE', #156, #164, #166 ) ;
#150 = PRESENTATION_LAYER_ASSIGNMENT (  '', '', ( #148 ) ) ;
#151 =( NAMED_UNIT ( * ) SI_UNIT ( $, .STERADIAN. ) SOLID_ANGLE_UNIT ( ) );
#152 = MECHANICAL_DESIGN_GEOMETRIC_PRESENTATION_REPRESENTATION (  '', ( #148 ), #194 ) ;
#153 =( LENGTH_UNIT ( ) NAMED_UNIT ( * ) SI_UNIT ( .MILLI., .METRE. ) );
#154 = CIRCLE ( 'NONE', #149, 25.39999999999999900 ) ;
#155 = SURFACE_STYLE_USAGE ( .BOTH. , #168 ) ;
#156 = CARTESIAN_POINT ( 'NONE',  ( 0.0000000000000000000, 0.0000000000000000000, -6.346116582428510200 ) ) ;
#157 = COLOUR_RGB ( '',0.9568627450980391500, 0.9490196078431372100, 0.9607843137254902200 ) ;
#158 = DIRECTION ( 'NONE',  ( -1.000000000000000000, 0.0000000000000000000, 0.0000000000000000000 ) ) ;
#159 = CARTESIAN_POINT ( 'NONE',  ( 0.0000000000000000000, 0.0000000000000000000, -22.93995881381060500 ) ) ;
#160 = FILL_AREA_STYLE ('',( #171 ) ) ;
#161 = PRESENTATION_STYLE_ASSIGNMENT (( #155 ) ) ;
#162 = SPHERICAL_SURFACE ( 'NONE', #165, 30.34000000000000000 ) ;
#163 = UNCERTAINTY_MEASURE_WITH_UNIT (LENGTH_MEASURE( 1.000000000000000100E-005 ), #153, 'distance_accuracy_value', 'NONE');
#164 = DIRECTION ( 'NONE',  ( -0.0000000000000000000, -0.0000000000000000000, 1.000000000000000000 ) ) ;
#165 = AXIS2_PLACEMENT_3D ( 'NONE', #159, #158, #172 ) ;
#166 = DIRECTION ( 'NONE',  ( 1.000000000000000000, 0.0000000000000000000, 0.0000000000000000000 ) ) ;
#167 = SURFACE_STYLE_FILL_AREA ( #160 ) ;
#168 = SURFACE_SIDE_STYLE ('',( #167 ) ) ;
#169 = FACE_OUTER_BOUND ( 'NONE', #298, .T. ) ;
#170 =( NAMED_UNIT ( * ) PLANE_ANGLE_UNIT ( ) SI_UNIT ( $, .RADIAN. ) );
#171 = FILL_AREA_STYLE_COLOUR ( '', #157 ) ;
#172 = DIRECTION ( 'NONE',  ( 0.0000000000000000000, 1.000000000000000000, 0.0000000000000000000 ) ) ;
#173 = DIRECTION ( 'NONE',  ( 1.000000000000000000, 0.0000000000000000000, 0.0000000000000000000 ) ) ;
#174 = CARTESIAN_POINT ( 'NONE',  ( 0.0000000000000000000, 25.39999999999999900, -6.346116582428510200 ) ) ;
#175 = AXIS2_PLACEMENT_3D ( 'NONE', #177, #213, #212 ) ;
#176 = CIRCLE ( 'NONE', #175, 25.39999999999999900 ) ;
#177 = CARTESIAN_POINT ( 'NONE',  ( 0.0000000000000000000, 0.0000000000000000000, -6.346116582428510200 ) ) ;
#178 = AXIS2_PLACEMENT_3D ( 'NONE', #183, #195, #208 ) ;
#179 = CYLINDRICAL_SURFACE ( 'NONE', #178, 25.39999999999999900 ) ;
#180 =( NAMED_UNIT ( * ) PLANE_ANGLE_UNIT ( ) SI_UNIT ( $, .RADIAN. ) );
#181 =( LENGTH_UNIT ( ) NAMED_UNIT ( * ) SI_UNIT ( .MILLI., .METRE. ) );
#182 = MECHANICAL_DESIGN_GEOMETRIC_PRESENTATION_REPRESENTATION (  '', ( #200 ), #192 ) ;
#183 = CARTESIAN_POINT ( 'NONE',  ( 0.0000000000000000000, 0.0000000000000000000, 11.45514494103044900 ) ) ;
#184 = DIRECTION ( 'NONE',  ( -0.0000000000000000000, -0.0000000000000000000, 1.000000000000000000 ) ) ;
#185 = VECTOR ( 'NONE', #184, 1000.000000000000000 ) ;
#186 = CARTESIAN_POINT ( 'NONE',  ( 25.39999999999999900, 0.0000000000000000000, 11.45514494103044900 ) ) ;
#187 = LINE ( 'NONE', #186, #185 ) ;
#188 = FILL_AREA_STYLE_COLOUR ( '', #206 ) ;
#189 = SPHERICAL_SURFACE ( 'NONE', #191, 30.34000000000000000 ) ;
#190 = CARTESIAN_POINT ( 'NONE',  ( 0.0000000000000000000, 0.0000000000000000000, -7.400041186189393500 ) ) ;
#191 = AXIS2_PLACEMENT_3D ( 'NONE', #42, #66, #227 ) ;
#192 =( GEOMETRIC_REPRESENTATION_CONTEXT ( 3 ) GLOBAL_UNCERTAINTY_ASSIGNED_CONTEXT ( ( #209 ) ) GLOBAL_UNIT_ASSIGNED_CONTEXT ( ( #181, #180, #210 ) ) REPRESENTATION_CONTEXT ( 'NONE', 'WORKASPACE' ) );
#193 = CIRCLE ( 'NONE', #196, 25.39999999999999900 ) ;
#194 =( GEOMETRIC_REPRESENTATION_CONTEXT ( 3 ) GLOBAL_UNCERTAINTY_ASSIGNED_CONTEXT ( ( #163 ) ) GLOBAL_UNIT_ASSIGNED_CONTEXT ( ( #153, #170, #151 ) ) REPRESENTATION_CONTEXT ( 'NONE', 'WORKASPACE' ) );
#195 = DIRECTION ( 'NONE',  ( -0.0000000000000000000, -0.0000000000000000000, 1.000000000000000000 ) ) ;
#196 = AXIS2_PLACEMENT_3D ( 'NONE', #198, #197, #173 ) ;
#197 = DIRECTION ( 'NONE',  ( -0.0000000000000000000, -0.0000000000000000000, 1.000000000000000000 ) ) ;
#198 = CARTESIAN_POINT ( 'NONE',  ( 0.0000000000000000000, 0.0000000000000000000, -6.346116582428510200 ) ) ;
#199 = PRESENTATION_LAYER_ASSIGNMENT (  '', '', ( #200 ) ) ;
#200 = STYLED_ITEM ( 'NONE', ( #201 ), #307 ) ;
#201 = PRESENTATION_STYLE_ASSIGNMENT (( #202 ) ) ;
#202 = SURFACE_STYLE_USAGE ( .BOTH. , #203 ) ;
#203 = SURFACE_SIDE_STYLE ('',( #204 ) ) ;
#204 = SURFACE_STYLE_FILL_AREA ( #205 ) ;
#205 = FILL_AREA_STYLE ('',( #188 ) ) ;
#206 = COLOUR_RGB ( '',0.9568627450980391500, 0.9490196078431372100, 0.9607843137254902200 ) ;
#207 = FACE_OUTER_BOUND ( 'NONE', #308, .T. ) ;
#208 = DIRECTION ( 'NONE',  ( 1.000000000000000000, 0.0000000000000000000, 0.0000000000000000000 ) ) ;
#209 = UNCERTAINTY_MEASURE_WITH_UNIT (LENGTH_MEASURE( 1.000000000000000100E-005 ), #181, 'distance_accuracy_value', 'NONE');
#210 =( NAMED_UNIT ( * ) SI_UNIT ( $, .STERADIAN. ) SOLID_ANGLE_UNIT ( ) );
#211 = CARTESIAN_POINT ( 'NONE',  ( 25.39999999999999900, 0.0000000000000000000, -6.346116582428510200 ) ) ;
#212 = DIRECTION ( 'NONE',  ( 1.000000000000000000, 0.0000000000000000000, 0.0000000000000000000 ) ) ;
#213 = DIRECTION ( 'NONE',  ( -0.0000000000000000000, -0.0000000000000000000, 1.000000000000000000 ) ) ;
#214 = CYLINDRICAL_SURFACE ( 'NONE', #233, 25.39999999999999900 ) ;
#215 =( GEOMETRIC_REPRESENTATION_CONTEXT ( 3 ) GLOBAL_UNCERTAINTY_ASSIGNED_CONTEXT ( ( #246 ) ) GLOBAL_UNIT_ASSIGNED_CONTEXT ( ( #229, #228, #247 ) ) REPRESENTATION_CONTEXT ( 'NONE', 'WORKASPACE' ) );
#216 = DIRECTION ( 'NONE',  ( 1.000000000000000000, 0.0000000000000000000, 0.0000000000000000000 ) ) ;
#217 = DIRECTION ( 'NONE',  ( -0.0000000000000000000, -0.0000000000000000000, 1.000000000000000000 ) ) ;
#218 = CARTESIAN_POINT ( 'NONE',  ( 0.0000000000000000000, 0.0000000000000000000, -7.400041186189393500 ) ) ;
#219 = AXIS2_PLACEMENT_3D ( 'NONE', #218, #217, #216 ) ;
#220 = CIRCLE ( 'NONE', #219, 25.39999999999999900 ) ;
#221 = SURFACE_STYLE_USAGE ( .BOTH. , #222 ) ;
#222 = SURFACE_SIDE_STYLE ('',( #223 ) ) ;
#223 = SURFACE_STYLE_FILL_AREA ( #224 ) ;
#224 = FILL_AREA_STYLE ('',( #225 ) ) ;
#225 = FILL_AREA_STYLE_COLOUR ( '', #226 ) ;
#226 = COLOUR_RGB ( '',0.9568627450980391500, 0.9490196078431372100, 0.9607843137254902200 ) ;
#227 = DIRECTION ( 'NONE',  ( 0.0000000000000000000, 1.000000000000000000, 0.0000000000000000000 ) ) ;
#228 =( NAMED_UNIT ( * ) PLANE_ANGLE_UNIT ( ) SI_UNIT ( $, .RADIAN. ) );
#229 =( LENGTH_UNIT ( ) NAMED_UNIT ( * ) SI_UNIT ( .MILLI., .METRE. ) );
#230 = DIRECTION ( 'NONE',  ( 1.000000000000000000, 0.0000000000000000000, 0.0000000000000000000 ) ) ;
#231 = DIRECTION ( 'NONE',  ( -0.0000000000000000000, -0.0000000000000000000, 1.000000000000000000 ) ) ;
#232 = CARTESIAN_POINT ( 'NONE',  ( 0.0000000000000000000, 0.0000000000000000000, 11.45514494103044900 ) ) ;
#233 = AXIS2_PLACEMENT_3D ( 'NONE', #232, #231, #230 ) ;
#234 = AXIS2_PLACEMENT_3D ( 'NONE', #190, #285, #22 ) ;
#235 = CIRCLE ( 'NONE', #234, 25.39999999999999900 ) ;
#236 = AXIS2_PLACEMENT_3D ( 'NONE', #255, #237, #254 ) ;
#237 = DIRECTION ( 'NONE',  ( -0.0000000000000000000, -0.0000000000000000000, 1.000000000000000000 ) ) ;
#238 = FACE_OUTER_BOUND ( 'NONE', #319, .T. ) ;
#239 = CARTESIAN_POINT ( 'NONE',  ( 0.0000000000000000000, 1.857727838748546200E-015, 7.400041186189393500 ) ) ;
#240 = DIRECTION ( 'NONE',  ( 0.0000000000000000000, 0.0000000000000000000, -1.000000000000000000 ) ) ;
#241 = DIRECTION ( 'NONE',  ( 1.000000000000000000, -0.0000000000000000000, 0.0000000000000000000 ) ) ;
#242 = CARTESIAN_POINT ( 'NONE',  ( 0.0000000000000000000, 0.0000000000000000000, -68.09995881381058800 ) ) ;
#243 = AXIS2_PLACEMENT_3D ( 'NONE', #242, #241, #240 ) ;
#244 = CIRCLE ( 'NONE', #236, 25.39999999999999900 ) ;
#245 = CARTESIAN_POINT ( 'NONE',  ( -3.110500138708838200E-015, -25.39999999999999900, -6.346116582428510200 ) ) ;
#246 = UNCERTAINTY_MEASURE_WITH_UNIT (LENGTH_MEASURE( 1.000000000000000100E-005 ), #229, 'distance_accuracy_value', 'NONE');
#247 =( NAMED_UNIT ( * ) SI_UNIT ( $, .STERADIAN. ) SOLID_ANGLE_UNIT ( ) );
#248 = CARTESIAN_POINT ( 'NONE',  ( 0.0000000000000000000, 25.40000000000001300, -7.400041186189390000 ) ) ;
#249 = MECHANICAL_DESIGN_GEOMETRIC_PRESENTATION_REPRESENTATION (  '', ( #251 ), #215 ) ;
#250 = PRESENTATION_LAYER_ASSIGNMENT (  '', '', ( #251 ) ) ;
#251 = STYLED_ITEM ( 'NONE', ( #252 ), #318 ) ;
#252 = PRESENTATION_STYLE_ASSIGNMENT (( #221 ) ) ;
#253 = CIRCLE ( 'NONE', #243, 65.79999999999999700 ) ;
#254 = DIRECTION ( 'NONE',  ( 1.000000000000000000, 0.0000000000000000000, 0.0000000000000000000 ) ) ;
#255 = CARTESIAN_POINT ( 'NONE',  ( 0.0000000000000000000, 0.0000000000000000000, -6.346116582428510200 ) ) ;
#256 = VERTEX_POINT ( 'NONE', #49 ) ;
#257 = ORIENTED_EDGE ( 'NONE', *, *, #258, .T. ) ;
#258 = EDGE_CURVE ( 'NONE', #256, #259, #48, .T. ) ;
#259 = VERTEX_POINT ( 'NONE', #44 ) ;
#260 = MANIFOLD_SOLID_BREP ( 'NONE', #284 ) ;
#261 = ADVANCED_FACE ( 'NONE', ( #112 ), #101, .F. ) ;
#262 = EDGE_LOOP ( 'NONE', ( #263, #267, #270, #316 ) ) ;
#263 = ORIENTED_EDGE ( 'NONE', *, *, #264, .F. ) ;
#264 = EDGE_CURVE ( 'NONE', #265, #266, #63, .T. ) ;
#265 = VERTEX_POINT ( 'NONE', #103 ) ;
#266 = VERTEX_POINT ( 'NONE', #102 ) ;
#267 = ORIENTED_EDGE ( 'NONE', *, *, #268, .T. ) ;
#268 = EDGE_CURVE ( 'NONE', #265, #269, #76, .T. ) ;
#269 = VERTEX_POINT ( 'NONE', #65 ) ;
#270 = ORIENTED_EDGE ( 'NONE', *, *, #314, .F. ) ;
#271 = ORIENTED_EDGE ( 'NONE', *, *, #258, .F. ) ;
#272 = ORIENTED_EDGE ( 'NONE', *, *, #273, .T. ) ;
#273 = EDGE_CURVE ( 'NONE', #256, #265, #99, .T. ) ;
#274 = ORIENTED_EDGE ( 'NONE', *, *, #264, .T. ) ;
#275 = ORIENTED_EDGE ( 'NONE', *, *, #306, .T. ) ;
#276 = ORIENTED_EDGE ( 'NONE', *, *, #294, .F. ) ;
#277 = ORIENTED_EDGE ( 'NONE', *, *, #311, .F. ) ;
#278 = ADVANCED_FACE ( 'NONE', ( #100 ), #126, .F. ) ;
#279 = EDGE_LOOP ( 'NONE', ( #280, #281, #282, #283 ) ) ;
#280 = ORIENTED_EDGE ( 'NONE', *, *, #268, .F. ) ;
#281 = ORIENTED_EDGE ( 'NONE', *, *, #273, .F. ) ;
#282 = ORIENTED_EDGE ( 'NONE', *, *, #322, .F. ) ;
#283 = ORIENTED_EDGE ( 'NONE', *, *, #314, .T. ) ;
#284 = CLOSED_SHELL ( 'NONE', ( #261, #318, #307, #290, #297, #278 ) ) ;
#285 = DIRECTION ( 'NONE',  ( -0.0000000000000000000, -0.0000000000000000000, 1.000000000000000000 ) ) ;
#286 = ORIENTED_EDGE ( 'NONE', *, *, #287, .T. ) ;
#287 = EDGE_CURVE ( 'NONE', #312, #313, #133, .T. ) ;
#288 = ORIENTED_EDGE ( 'NONE', *, *, #289, .F. ) ;
#289 = EDGE_CURVE ( 'NONE', #301, #313, #140, .T. ) ;
#290 = ADVANCED_FACE ( 'NONE', ( #129 ), #162, .T. ) ;
#291 = EDGE_LOOP ( 'NONE', ( #292, #293, #295, #296 ) ) ;
#292 = ORIENTED_EDGE ( 'NONE', *, *, #287, .F. ) ;
#293 = ORIENTED_EDGE ( 'NONE', *, *, #294, .T. ) ;
#294 = EDGE_CURVE ( 'NONE', #312, #304, #154, .T. ) ;
#295 = ORIENTED_EDGE ( 'NONE', *, *, #303, .T. ) ;
#296 = ORIENTED_EDGE ( 'NONE', *, *, #289, .T. ) ;
#297 = ADVANCED_FACE ( 'NONE', ( #169 ), #179, .T. ) ;
#298 = EDGE_LOOP ( 'NONE', ( #271, #272, #274, #275, #276, #277 ) ) ;
#299 = ORIENTED_EDGE ( 'NONE', *, *, #300, .F. ) ;
#300 = EDGE_CURVE ( 'NONE', #301, #259, #193, .T. ) ;
#301 = VERTEX_POINT ( 'NONE', #174 ) ;
#302 = ORIENTED_EDGE ( 'NONE', *, *, #303, .F. ) ;
#303 = EDGE_CURVE ( 'NONE', #304, #301, #176, .T. ) ;
#304 = VERTEX_POINT ( 'NONE', #211 ) ;
#305 = ORIENTED_EDGE ( 'NONE', *, *, #306, .F. ) ;
#306 = EDGE_CURVE ( 'NONE', #266, #304, #187, .T. ) ;
#307 = ADVANCED_FACE ( 'NONE', ( #207 ), #189, .T. ) ;
#308 = EDGE_LOOP ( 'NONE', ( #309, #310, #286, #288 ) ) ;
#309 = ORIENTED_EDGE ( 'NONE', *, *, #300, .T. ) ;
#310 = ORIENTED_EDGE ( 'NONE', *, *, #311, .T. ) ;
#311 = EDGE_CURVE ( 'NONE', #259, #312, #244, .T. ) ;
#312 = VERTEX_POINT ( 'NONE', #245 ) ;
#313 = VERTEX_POINT ( 'NONE', #239 ) ;
#314 = EDGE_CURVE ( 'NONE', #315, #269, #253, .T. ) ;
#315 = VERTEX_POINT ( 'NONE', #248 ) ;
#316 = ORIENTED_EDGE ( 'NONE', *, *, #317, .F. ) ;
#317 = EDGE_CURVE ( 'NONE', #266, #315, #220, .T. ) ;
#318 = ADVANCED_FACE ( 'NONE', ( #238 ), #214, .T. ) ;
#319 = EDGE_LOOP ( 'NONE', ( #320, #321, #257, #299, #302, #305 ) ) ;
#320 = ORIENTED_EDGE ( 'NONE', *, *, #317, .T. ) ;
#321 = ORIENTED_EDGE ( 'NONE', *, *, #322, .T. ) ;
#322 = EDGE_CURVE ( 'NONE', #315, #256, #235, .T. ) ;
ENDSEC;
END-ISO-10303-21;
