ISO-10303-21;
HEADER;
FILE_DESCRIPTION (( 'STEP AP203' ),
    '1' );
FILE_NAME ('Web Model 19841_19899.step',
    '2022-04-06T15:22:28',
    ( 'WC' ),
    ( 'Windows Central' ),
    'SwSTEP 2.0',
    'SolidWorks 2021',
    '' );
FILE_SCHEMA (( 'CONFIG_CONTROL_DESIGN' ));
ENDSEC;

DATA;
#1 = CARTESIAN_POINT ( 'NONE',  ( 0.000000000000000000, 0.000000000000000000, 5.000000000000000000 ) ) ;
#2 = DIRECTION ( 'NONE',  ( 1.000000000000000000, 0.000000000000000000, 0.000000000000000000 ) ) ;
#3 = DIRECTION ( 'NONE',  ( 0.000000000000000000, 0.000000000000000000, 1.000000000000000000 ) ) ;
#4 = ORGANIZATION ( 'UNSPECIFIED', 'UNSPECIFIED', '' ) ;
#5 = APPLICATION_PROTOCOL_DEFINITION ( 'international standard', 'config_control_design', 1994, #102 ) ;
#6 = DATE_AND_TIME ( #83, #147 ) ;
#7 = CIRCLE ( 'NONE', #169, 25.00000000000000000 ) ;
#8 = CC_DESIGN_PERSON_AND_ORGANIZATION_ASSIGNMENT ( #86, #137, ( #34 ) ) ;
#9 = CALENDAR_DATE ( 2022, 6, 4 ) ;
#10 = AXIS2_PLACEMENT_3D ( 'NONE', #12, #106, #59 ) ;
#11 = CARTESIAN_POINT ( 'NONE',  ( -25.00000000000000000, 0.000000000000000000, 5.000000000000000000 ) ) ;
#12 = CARTESIAN_POINT ( 'NONE',  ( 0.000000000000000000, 0.000000000000000000, 5.000000000000000000 ) ) ;
#13 = ORIENTED_EDGE ( 'NONE', *, *, #101, .T. ) ;
#14 = LOCAL_TIME ( 11, 22, 28.00000000000000000, #89 ) ;
#15 = CARTESIAN_POINT ( 'NONE',  ( -25.00000000000000000, 0.000000000000000000, 5.000000000000000000 ) ) ;
#16 = PRODUCT_RELATED_PRODUCT_CATEGORY ( 'detail', '', ( #56 ) ) ;
#17 = APPROVAL_ROLE ( '' ) ;
#18 =( GEOMETRIC_REPRESENTATION_CONTEXT ( 3 ) GLOBAL_UNCERTAINTY_ASSIGNED_CONTEXT ( ( #54 ) ) GLOBAL_UNIT_ASSIGNED_CONTEXT ( ( #51, #109, #112 ) ) REPRESENTATION_CONTEXT ( 'NONE', 'WORKASPACE' ) );
#19 = DIRECTION ( 'NONE',  ( 0.000000000000000000, 0.000000000000000000, 1.000000000000000000 ) ) ;
#20 = COORDINATED_UNIVERSAL_TIME_OFFSET ( 5, 0, .BEHIND. ) ;
#21 = SHAPE_DEFINITION_REPRESENTATION ( #155, #132 ) ;
#22 = PERSON_AND_ORGANIZATION_ROLE ( 'classification_officer' ) ;
#23 = LOCAL_TIME ( 11, 22, 28.00000000000000000, #138 ) ;
#24 = CARTESIAN_POINT ( 'NONE',  ( 0.000000000000000000, 0.000000000000000000, 5.000000000000000000 ) ) ;
#25 = DIRECTION ( 'NONE',  ( 0.000000000000000000, 0.000000000000000000, 1.000000000000000000 ) ) ;
#26 = DIRECTION ( 'NONE',  ( 1.000000000000000000, 0.000000000000000000, -0.000000000000000000 ) ) ;
#27 = ORIENTED_EDGE ( 'NONE', *, *, #116, .F. ) ;
#28 = PERSON_AND_ORGANIZATION ( #104, #4 ) ;
#29 = APPROVAL_PERSON_ORGANIZATION ( #149, #120, #166 ) ;
#30 = PERSON_AND_ORGANIZATION_ROLE ( 'design_owner' ) ;
#31 = APPROVAL_DATE_TIME ( #154, #42 ) ;
#32 = CIRCLE ( 'NONE', #88, 25.00000000000000000 ) ;
#33 = CARTESIAN_POINT ( 'NONE',  ( 0.000000000000000000, 0.000000000000000000, 0.000000000000000000 ) ) ;
#34 = PRODUCT_DEFINITION ( 'UNKNOWN', '', #127, #126 ) ;
#35 = PLANE ( 'NONE',  #10 ) ;
#36 = LINE ( 'NONE', #15, #52 ) ;
#37 = EDGE_LOOP ( 'NONE', ( #50, #115, #163, #119 ) ) ;
#38 = CC_DESIGN_PERSON_AND_ORGANIZATION_ASSIGNMENT ( #98, #22, ( #134 ) ) ;
#39 = DIRECTION ( 'NONE',  ( -0.000000000000000000, -0.000000000000000000, -1.000000000000000000 ) ) ;
#40 = DATE_TIME_ROLE ( 'creation_date' ) ;
#41 = CARTESIAN_POINT ( 'NONE',  ( 0.000000000000000000, 0.000000000000000000, 0.000000000000000000 ) ) ;
#42 = APPROVAL ( #156, 'UNSPECIFIED' ) ;
#43 = CALENDAR_DATE ( 2022, 6, 4 ) ;
#44 = AXIS2_PLACEMENT_3D ( 'NONE', #24, #39, #82 ) ;
#45 = DATE_AND_TIME ( #43, #73 ) ;
#46 = ADVANCED_FACE ( 'NONE', ( #148 ), #48, .F. ) ;
#47 = EDGE_LOOP ( 'NONE', ( #13, #121 ) ) ;
#48 = PLANE ( 'NONE',  #92 ) ;
#49 = CARTESIAN_POINT ( 'NONE',  ( -25.00000000000000000, 0.000000000000000000, 0.000000000000000000 ) ) ;
#50 = ORIENTED_EDGE ( 'NONE', *, *, #84, .F. ) ;
#51 =( LENGTH_UNIT ( ) NAMED_UNIT ( * ) SI_UNIT ( .MILLI., .METRE. ) );
#52 = VECTOR ( 'NONE', #107, 1000.000000000000000 ) ;
#53 = CC_DESIGN_DATE_AND_TIME_ASSIGNMENT ( #45, #55, ( #134 ) ) ;
#54 = UNCERTAINTY_MEASURE_WITH_UNIT (LENGTH_MEASURE( 1.000000000000000082E-05 ), #51, 'distance_accuracy_value', 'NONE');
#55 = DATE_TIME_ROLE ( 'classification_date' ) ;
#56 = PRODUCT ( 'Web Model 19841_19899', 'Web Model 19841_19899', '', ( #153 ) ) ;
#57 = PERSON_AND_ORGANIZATION ( #104, #4 ) ;
#58 = CARTESIAN_POINT ( 'NONE',  ( 0.000000000000000000, 0.000000000000000000, 0.000000000000000000 ) ) ;
#59 = DIRECTION ( 'NONE',  ( 1.000000000000000000, 0.000000000000000000, -0.000000000000000000 ) ) ;
#60 = CC_DESIGN_APPROVAL ( #42, ( #134 ) ) ;
#61 = ORIENTED_EDGE ( 'NONE', *, *, #113, .F. ) ;
#62 = ORIENTED_EDGE ( 'NONE', *, *, #158, .F. ) ;
#63 = VERTEX_POINT ( 'NONE', #49 ) ;
#64 = COORDINATED_UNIVERSAL_TIME_OFFSET ( 5, 0, .BEHIND. ) ;
#65 = CIRCLE ( 'NONE', #165, 25.00000000000000000 ) ;
#66 = CC_DESIGN_PERSON_AND_ORGANIZATION_ASSIGNMENT ( #168, #30, ( #56 ) ) ;
#67 = DATE_AND_TIME ( #167, #23 ) ;
#68 = CC_DESIGN_PERSON_AND_ORGANIZATION_ASSIGNMENT ( #72, #140, ( #127 ) ) ;
#69 = APPROVAL_DATE_TIME ( #71, #123 ) ;
#70 = APPROVAL_PERSON_ORGANIZATION ( #128, #42, #87 ) ;
#71 = DATE_AND_TIME ( #150, #114 ) ;
#72 = PERSON_AND_ORGANIZATION ( #104, #4 ) ;
#73 = LOCAL_TIME ( 11, 22, 28.00000000000000000, #142 ) ;
#74 = ADVANCED_FACE ( 'NONE', ( #162 ), #35, .T. ) ;
#75 = AXIS2_PLACEMENT_3D ( 'NONE', #139, #111, #122 ) ;
#76 = DIRECTION ( 'NONE',  ( -0.000000000000000000, -0.000000000000000000, -1.000000000000000000 ) ) ;
#77 = CARTESIAN_POINT ( 'NONE',  ( 25.00000000000000000, 3.061616997868383043E-15, 5.000000000000000000 ) ) ;
#78 = MANIFOLD_SOLID_BREP ( 'Boss-Extrude1', #80 ) ;
#79 = FACE_OUTER_BOUND ( 'NONE', #37, .T. ) ;
#80 = CLOSED_SHELL ( 'NONE', ( #125, #173, #74, #46 ) ) ;
#81 = CARTESIAN_POINT ( 'NONE',  ( 25.00000000000000000, 3.061616997868383043E-15, 5.000000000000000000 ) ) ;
#82 = DIRECTION ( 'NONE',  ( -1.000000000000000000, 0.000000000000000000, 0.000000000000000000 ) ) ;
#83 = CALENDAR_DATE ( 2022, 6, 4 ) ;
#84 = EDGE_CURVE ( 'NONE', #95, #133, #96, .T. ) ;
#85 = CYLINDRICAL_SURFACE ( 'NONE', #75, 25.00000000000000000 ) ;
#86 = PERSON_AND_ORGANIZATION ( #104, #4 ) ;
#87 = APPROVAL_ROLE ( '' ) ;
#88 = AXIS2_PLACEMENT_3D ( 'NONE', #131, #118, #2 ) ;
#89 = COORDINATED_UNIVERSAL_TIME_OFFSET ( 5, 0, .BEHIND. ) ;
#90 = CIRCLE ( 'NONE', #129, 25.00000000000000000 ) ;
#91 = CC_DESIGN_PERSON_AND_ORGANIZATION_ASSIGNMENT ( #57, #170, ( #127 ) ) ;
#92 = AXIS2_PLACEMENT_3D ( 'NONE', #33, #25, #26 ) ;
#93 = ORIENTED_EDGE ( 'NONE', *, *, #141, .T. ) ;
#94 = CARTESIAN_POINT ( 'NONE',  ( 25.00000000000000000, 3.061616997868383043E-15, 0.000000000000000000 ) ) ;
#95 = VERTEX_POINT ( 'NONE', #77 ) ;
#96 = LINE ( 'NONE', #81, #144 ) ;
#97 = APPLICATION_PROTOCOL_DEFINITION ( 'international standard', 'config_control_design', 1994, #99 ) ;
#98 = PERSON_AND_ORGANIZATION ( #104, #4 ) ;
#99 = APPLICATION_CONTEXT ( 'configuration controlled 3d designs of mechanical parts and assemblies' ) ;
#100 = CC_DESIGN_APPROVAL ( #120, ( #34 ) ) ;
#101 = EDGE_CURVE ( 'NONE', #145, #95, #7, .T. ) ;
#102 = APPLICATION_CONTEXT ( 'configuration controlled 3d designs of mechanical parts and assemblies' ) ;
#103 = APPROVAL_PERSON_ORGANIZATION ( #28, #123, #17 ) ;
#104 = PERSON ( 'UNSPECIFIED', 'UNSPECIFIED', 'UNSPECIFIED', ('UNSPECIFIED'), ('UNSPECIFIED'), ('UNSPECIFIED') ) ;
#105 = EDGE_LOOP ( 'NONE', ( #27, #117 ) ) ;
#106 = DIRECTION ( 'NONE',  ( 0.000000000000000000, 0.000000000000000000, 1.000000000000000000 ) ) ;
#107 = DIRECTION ( 'NONE',  ( -0.000000000000000000, -0.000000000000000000, -1.000000000000000000 ) ) ;
#108 = CYLINDRICAL_SURFACE ( 'NONE', #44, 25.00000000000000000 ) ;
#109 =( NAMED_UNIT ( * ) PLANE_ANGLE_UNIT ( ) SI_UNIT ( $, .RADIAN. ) );
#110 = DIRECTION ( 'NONE',  ( 1.000000000000000000, 0.000000000000000000, 0.000000000000000000 ) ) ;
#111 = DIRECTION ( 'NONE',  ( -0.000000000000000000, -0.000000000000000000, -1.000000000000000000 ) ) ;
#112 =( NAMED_UNIT ( * ) SI_UNIT ( $, .STERADIAN. ) SOLID_ANGLE_UNIT ( ) );
#113 = EDGE_CURVE ( 'NONE', #145, #63, #36, .T. ) ;
#114 = LOCAL_TIME ( 11, 22, 28.00000000000000000, #64 ) ;
#115 = ORIENTED_EDGE ( 'NONE', *, *, #101, .F. ) ;
#116 = EDGE_CURVE ( 'NONE', #63, #133, #32, .T. ) ;
#117 = ORIENTED_EDGE ( 'NONE', *, *, #141, .F. ) ;
#118 = DIRECTION ( 'NONE',  ( 0.000000000000000000, 0.000000000000000000, 1.000000000000000000 ) ) ;
#119 = ORIENTED_EDGE ( 'NONE', *, *, #116, .T. ) ;
#120 = APPROVAL ( #152, 'UNSPECIFIED' ) ;
#121 = ORIENTED_EDGE ( 'NONE', *, *, #158, .T. ) ;
#122 = DIRECTION ( 'NONE',  ( -1.000000000000000000, 0.000000000000000000, 0.000000000000000000 ) ) ;
#123 = APPROVAL ( #136, 'UNSPECIFIED' ) ;
#124 = APPROVAL_DATE_TIME ( #67, #120 ) ;
#125 = ADVANCED_FACE ( 'NONE', ( #143 ), #108, .T. ) ;
#126 = DESIGN_CONTEXT ( 'detailed design', #99, 'design' ) ;
#127 = PRODUCT_DEFINITION_FORMATION_WITH_SPECIFIED_SOURCE ( 'ANY', '', #56, .NOT_KNOWN. ) ;
#128 = PERSON_AND_ORGANIZATION ( #104, #4 ) ;
#129 = AXIS2_PLACEMENT_3D ( 'NONE', #1, #174, #160 ) ;
#130 = CARTESIAN_POINT ( 'NONE',  ( 0.000000000000000000, 0.000000000000000000, 5.000000000000000000 ) ) ;
#131 = CARTESIAN_POINT ( 'NONE',  ( 0.000000000000000000, 0.000000000000000000, 0.000000000000000000 ) ) ;
#132 = ADVANCED_BREP_SHAPE_REPRESENTATION ( 'Web Model 19841_19899', ( #78, #151 ), #18 ) ;
#133 = VERTEX_POINT ( 'NONE', #94 ) ;
#134 = SECURITY_CLASSIFICATION ( '', '', #157 ) ;
#135 = DIRECTION ( 'NONE',  ( 1.000000000000000000, 0.000000000000000000, 0.000000000000000000 ) ) ;
#136 = APPROVAL_STATUS ( 'not_yet_approved' ) ;
#137 = PERSON_AND_ORGANIZATION_ROLE ( 'creator' ) ;
#138 = COORDINATED_UNIVERSAL_TIME_OFFSET ( 5, 0, .BEHIND. ) ;
#139 = CARTESIAN_POINT ( 'NONE',  ( 0.000000000000000000, 0.000000000000000000, 5.000000000000000000 ) ) ;
#140 = PERSON_AND_ORGANIZATION_ROLE ( 'creator' ) ;
#141 = EDGE_CURVE ( 'NONE', #133, #63, #65, .T. ) ;
#142 = COORDINATED_UNIVERSAL_TIME_OFFSET ( 5, 0, .BEHIND. ) ;
#143 = FACE_OUTER_BOUND ( 'NONE', #175, .T. ) ;
#144 = VECTOR ( 'NONE', #76, 1000.000000000000000 ) ;
#145 = VERTEX_POINT ( 'NONE', #11 ) ;
#146 = DIRECTION ( 'NONE',  ( 0.000000000000000000, 0.000000000000000000, 1.000000000000000000 ) ) ;
#147 = LOCAL_TIME ( 11, 22, 28.00000000000000000, #20 ) ;
#148 = FACE_OUTER_BOUND ( 'NONE', #105, .T. ) ;
#149 = PERSON_AND_ORGANIZATION ( #104, #4 ) ;
#150 = CALENDAR_DATE ( 2022, 6, 4 ) ;
#151 = AXIS2_PLACEMENT_3D ( 'NONE', #41, #19, #110 ) ;
#152 = APPROVAL_STATUS ( 'not_yet_approved' ) ;
#153 = MECHANICAL_CONTEXT ( 'NONE', #102, 'mechanical' ) ;
#154 = DATE_AND_TIME ( #9, #14 ) ;
#155 = PRODUCT_DEFINITION_SHAPE ( 'NONE', 'NONE',  #34 ) ;
#156 = APPROVAL_STATUS ( 'not_yet_approved' ) ;
#157 = SECURITY_CLASSIFICATION_LEVEL ( 'unclassified' ) ;
#158 = EDGE_CURVE ( 'NONE', #95, #145, #90, .T. ) ;
#159 = DIRECTION ( 'NONE',  ( 1.000000000000000000, 0.000000000000000000, 0.000000000000000000 ) ) ;
#160 = DIRECTION ( 'NONE',  ( 1.000000000000000000, 0.000000000000000000, 0.000000000000000000 ) ) ;
#161 = CC_DESIGN_APPROVAL ( #123, ( #127 ) ) ;
#162 = FACE_OUTER_BOUND ( 'NONE', #47, .T. ) ;
#163 = ORIENTED_EDGE ( 'NONE', *, *, #113, .T. ) ;
#164 = ORIENTED_EDGE ( 'NONE', *, *, #84, .T. ) ;
#165 = AXIS2_PLACEMENT_3D ( 'NONE', #58, #3, #159 ) ;
#166 = APPROVAL_ROLE ( '' ) ;
#167 = CALENDAR_DATE ( 2022, 6, 4 ) ;
#168 = PERSON_AND_ORGANIZATION ( #104, #4 ) ;
#169 = AXIS2_PLACEMENT_3D ( 'NONE', #130, #146, #135 ) ;
#170 = PERSON_AND_ORGANIZATION_ROLE ( 'design_supplier' ) ;
#171 = CC_DESIGN_DATE_AND_TIME_ASSIGNMENT ( #6, #40, ( #34 ) ) ;
#172 = CC_DESIGN_SECURITY_CLASSIFICATION ( #134, ( #127 ) ) ;
#173 = ADVANCED_FACE ( 'NONE', ( #79 ), #85, .T. ) ;
#174 = DIRECTION ( 'NONE',  ( 0.000000000000000000, 0.000000000000000000, 1.000000000000000000 ) ) ;
#175 = EDGE_LOOP ( 'NONE', ( #62, #164, #93, #61 ) ) ;
ENDSEC;
END-ISO-10303-21;
