ISO-10303-21;
HEADER;
FILE_DESCRIPTION (( 'STEP AP203' ),
    '1' );
FILE_NAME ('ISP Flat Parts_16801.step',
    '2020-12-15T21:26:21',
    ( '' ),
    ( '' ),
    'SwSTEP 2.0',
    'SolidWorks 2018',
    '' );
FILE_SCHEMA (( 'CONFIG_CONTROL_DESIGN' ));
ENDSEC;

DATA;
#1 = VECTOR ( 'NONE', #158, 1000.000000000000000 ) ;
#2 = COORDINATED_UNIVERSAL_TIME_OFFSET ( 5, 0, .BEHIND. ) ;
#3 = CC_DESIGN_PERSON_AND_ORGANIZATION_ASSIGNMENT ( #138, #46, ( #90 ) ) ;
#4 = CYLINDRICAL_SURFACE ( 'NONE', #44, 12.69999999999999929 ) ;
#5 = DATE_AND_TIME ( #171, #70 ) ;
#6 = APPROVAL ( #175, 'UNSPECIFIED' ) ;
#7 = CARTESIAN_POINT ( 'NONE',  ( -12.69999999999999929, 0.0000000000000000000, 2.000000000000000000 ) ) ;
#8 = CC_DESIGN_PERSON_AND_ORGANIZATION_ASSIGNMENT ( #49, #96, ( #107 ) ) ;
#9 = PERSON_AND_ORGANIZATION_ROLE ( 'creator' ) ;
#10 = COORDINATED_UNIVERSAL_TIME_OFFSET ( 5, 0, .BEHIND. ) ;
#11 = VECTOR ( 'NONE', #79, 1000.000000000000000 ) ;
#12 = DIRECTION ( 'NONE',  ( 0.0000000000000000000, 0.0000000000000000000, 1.000000000000000000 ) ) ;
#13 = CC_DESIGN_DATE_AND_TIME_ASSIGNMENT ( #42, #174, ( #90 ) ) ;
#14 = CARTESIAN_POINT ( 'NONE',  ( 0.0000000000000000000, 0.0000000000000000000, 0.0000000000000000000 ) ) ;
#15 = CARTESIAN_POINT ( 'NONE',  ( 0.0000000000000000000, 0.0000000000000000000, 2.000000000000000000 ) ) ;
#16 = CIRCLE ( 'NONE', #132, 12.69999999999999929 ) ;
#17 = SHAPE_DEFINITION_REPRESENTATION ( #131, #157 ) ;
#18 = LINE ( 'NONE', #35, #1 ) ;
#19 = FACE_OUTER_BOUND ( 'NONE', #52, .T. ) ;
#20 = DIRECTION ( 'NONE',  ( 0.0000000000000000000, 0.0000000000000000000, 1.000000000000000000 ) ) ;
#21 = PRODUCT_DEFINITION_FORMATION_WITH_SPECIFIED_SOURCE ( 'ANY', '', #107, .NOT_KNOWN. ) ;
#22 = ADVANCED_FACE ( 'NONE', ( #19 ), #76, .F. ) ;
#23 = COORDINATED_UNIVERSAL_TIME_OFFSET ( 5, 0, .BEHIND. ) ;
#24 = VERTEX_POINT ( 'NONE', #101 ) ;
#25 = DIRECTION ( 'NONE',  ( -0.0000000000000000000, -0.0000000000000000000, -1.000000000000000000 ) ) ;
#26 = DIRECTION ( 'NONE',  ( 1.000000000000000000, 0.0000000000000000000, 0.0000000000000000000 ) ) ;
#27 =( GEOMETRIC_REPRESENTATION_CONTEXT ( 3 ) GLOBAL_UNCERTAINTY_ASSIGNED_CONTEXT ( ( #151 ) ) GLOBAL_UNIT_ASSIGNED_CONTEXT ( ( #80, #30, #119 ) ) REPRESENTATION_CONTEXT ( 'NONE', 'WORKASPACE' ) );
#28 = ORGANIZATION ( 'UNSPECIFIED', 'UNSPECIFIED', '' ) ;
#29 = APPROVAL_DATE_TIME ( #67, #6 ) ;
#30 =( NAMED_UNIT ( * ) PLANE_ANGLE_UNIT ( ) SI_UNIT ( $, .RADIAN. ) );
#31 = EDGE_LOOP ( 'NONE', ( #34, #122, #83, #93 ) ) ;
#32 = AXIS2_PLACEMENT_3D ( 'NONE', #15, #105, #118 ) ;
#33 = DATE_TIME_ROLE ( 'classification_date' ) ;
#34 = ORIENTED_EDGE ( 'NONE', *, *, #114, .F. ) ;
#35 = CARTESIAN_POINT ( 'NONE',  ( -12.69999999999999929, 0.0000000000000000000, 2.000000000000000000 ) ) ;
#36 = AXIS2_PLACEMENT_3D ( 'NONE', #40, #25, #94 ) ;
#37 = DATE_AND_TIME ( #167, #74 ) ;
#38 = CC_DESIGN_SECURITY_CLASSIFICATION ( #127, ( #21 ) ) ;
#39 = APPROVAL ( #86, 'UNSPECIFIED' ) ;
#40 = CARTESIAN_POINT ( 'NONE',  ( 0.0000000000000000000, 0.0000000000000000000, 2.000000000000000000 ) ) ;
#41 = VERTEX_POINT ( 'NONE', #112 ) ;
#42 = DATE_AND_TIME ( #71, #103 ) ;
#43 = PERSON_AND_ORGANIZATION_ROLE ( 'design_supplier' ) ;
#44 = AXIS2_PLACEMENT_3D ( 'NONE', #64, #162, #78 ) ;
#45 = EDGE_CURVE ( 'NONE', #129, #41, #16, .T. ) ;
#46 = PERSON_AND_ORGANIZATION_ROLE ( 'creator' ) ;
#47 = ORIENTED_EDGE ( 'NONE', *, *, #84, .T. ) ;
#48 = CC_DESIGN_APPROVAL ( #39, ( #21 ) ) ;
#49 = PERSON_AND_ORGANIZATION ( #69, #28 ) ;
#50 = CARTESIAN_POINT ( 'NONE',  ( 0.0000000000000000000, 0.0000000000000000000, 0.0000000000000000000 ) ) ;
#51 = DIRECTION ( 'NONE',  ( 0.0000000000000000000, 0.0000000000000000000, 1.000000000000000000 ) ) ;
#52 = EDGE_LOOP ( 'NONE', ( #91, #154 ) ) ;
#53 = PERSON_AND_ORGANIZATION ( #69, #28 ) ;
#54 = DIRECTION ( 'NONE',  ( 0.0000000000000000000, 0.0000000000000000000, 1.000000000000000000 ) ) ;
#55 = FACE_OUTER_BOUND ( 'NONE', #121, .T. ) ;
#56 = CC_DESIGN_PERSON_AND_ORGANIZATION_ASSIGNMENT ( #102, #9, ( #21 ) ) ;
#57 = APPROVAL_PERSON_ORGANIZATION ( #110, #165, #58 ) ;
#58 = APPROVAL_ROLE ( '' ) ;
#59 = CYLINDRICAL_SURFACE ( 'NONE', #36, 12.69999999999999929 ) ;
#60 = DIRECTION ( 'NONE',  ( 1.000000000000000000, 0.0000000000000000000, 0.0000000000000000000 ) ) ;
#61 = LOCAL_TIME ( 16, 26, 21.00000000000000000, #2 ) ;
#62 = CIRCLE ( 'NONE', #72, 12.69999999999999929 ) ;
#63 = ORIENTED_EDGE ( 'NONE', *, *, #153, .F. ) ;
#64 = CARTESIAN_POINT ( 'NONE',  ( 0.0000000000000000000, 0.0000000000000000000, 2.000000000000000000 ) ) ;
#65 = PERSON_AND_ORGANIZATION ( #69, #28 ) ;
#66 = CC_DESIGN_APPROVAL ( #165, ( #90 ) ) ;
#67 = DATE_AND_TIME ( #161, #61 ) ;
#68 = DIRECTION ( 'NONE',  ( 1.000000000000000000, 0.0000000000000000000, 0.0000000000000000000 ) ) ;
#69 = PERSON ( 'UNSPECIFIED', 'UNSPECIFIED', 'UNSPECIFIED', ('UNSPECIFIED'), ('UNSPECIFIED'), ('UNSPECIFIED') ) ;
#70 = LOCAL_TIME ( 16, 26, 21.00000000000000000, #92 ) ;
#71 = CALENDAR_DATE ( 2020, 15, 12 ) ;
#72 = AXIS2_PLACEMENT_3D ( 'NONE', #14, #51, #68 ) ;
#73 = APPLICATION_PROTOCOL_DEFINITION ( 'international standard', 'config_control_design', 1994, #85 ) ;
#74 = LOCAL_TIME ( 16, 26, 21.00000000000000000, #23 ) ;
#75 = APPROVAL_PERSON_ORGANIZATION ( #53, #6, #124 ) ;
#76 = PLANE ( 'NONE',  #140 ) ;
#77 = DATE_AND_TIME ( #123, #136 ) ;
#78 = DIRECTION ( 'NONE',  ( -1.000000000000000000, 0.0000000000000000000, 0.0000000000000000000 ) ) ;
#79 = DIRECTION ( 'NONE',  ( -0.0000000000000000000, -0.0000000000000000000, -1.000000000000000000 ) ) ;
#80 =( LENGTH_UNIT ( ) NAMED_UNIT ( * ) SI_UNIT ( .MILLI., .METRE. ) );
#81 = AXIS2_PLACEMENT_3D ( 'NONE', #137, #54, #149 ) ;
#82 = CARTESIAN_POINT ( 'NONE',  ( 0.0000000000000000000, 0.0000000000000000000, 2.000000000000000000 ) ) ;
#83 = ORIENTED_EDGE ( 'NONE', *, *, #45, .T. ) ;
#84 = EDGE_CURVE ( 'NONE', #125, #41, #18, .T. ) ;
#85 = APPLICATION_CONTEXT ( 'configuration controlled 3d designs of mechanical parts and assemblies' ) ;
#86 = APPROVAL_STATUS ( 'not_yet_approved' ) ;
#87 = CIRCLE ( 'NONE', #113, 12.69999999999999929 ) ;
#88 = PERSON_AND_ORGANIZATION ( #69, #28 ) ;
#89 = CARTESIAN_POINT ( 'NONE',  ( 0.0000000000000000000, 0.0000000000000000000, 0.0000000000000000000 ) ) ;
#90 = PRODUCT_DEFINITION ( 'UNKNOWN', '', #21, #111 ) ;
#91 = ORIENTED_EDGE ( 'NONE', *, *, #156, .F. ) ;
#92 = COORDINATED_UNIVERSAL_TIME_OFFSET ( 5, 0, .BEHIND. ) ;
#93 = ORIENTED_EDGE ( 'NONE', *, *, #84, .F. ) ;
#94 = DIRECTION ( 'NONE',  ( -1.000000000000000000, 0.0000000000000000000, 0.0000000000000000000 ) ) ;
#95 = ORIENTED_EDGE ( 'NONE', *, *, #153, .T. ) ;
#96 = PERSON_AND_ORGANIZATION_ROLE ( 'design_owner' ) ;
#97 = CLOSED_SHELL ( 'NONE', ( #100, #164, #128, #22 ) ) ;
#98 = SECURITY_CLASSIFICATION_LEVEL ( 'unclassified' ) ;
#99 = MANIFOLD_SOLID_BREP ( 'Boss-Extrude1', #97 ) ;
#100 = ADVANCED_FACE ( 'NONE', ( #117 ), #4, .T. ) ;
#101 = CARTESIAN_POINT ( 'NONE',  ( 12.69999999999999929, 1.555301434917138433E-15, 2.000000000000000000 ) ) ;
#102 = PERSON_AND_ORGANIZATION ( #69, #28 ) ;
#103 = LOCAL_TIME ( 16, 26, 21.00000000000000000, #144 ) ;
#104 = DIRECTION ( 'NONE',  ( 0.0000000000000000000, 0.0000000000000000000, 1.000000000000000000 ) ) ;
#105 = DIRECTION ( 'NONE',  ( 0.0000000000000000000, 0.0000000000000000000, 1.000000000000000000 ) ) ;
#106 = PRODUCT_RELATED_PRODUCT_CATEGORY ( 'detail', '', ( #107 ) ) ;
#107 = PRODUCT ( 'ISP Flat Parts_16801', 'ISP Flat Parts_16801', '', ( #172 ) ) ;
#108 = CC_DESIGN_PERSON_AND_ORGANIZATION_ASSIGNMENT ( #65, #43, ( #21 ) ) ;
#109 = APPROVAL_STATUS ( 'not_yet_approved' ) ;
#110 = PERSON_AND_ORGANIZATION ( #69, #28 ) ;
#111 = DESIGN_CONTEXT ( 'detailed design', #85, 'design' ) ;
#112 = CARTESIAN_POINT ( 'NONE',  ( -12.69999999999999929, 0.0000000000000000000, 0.0000000000000000000 ) ) ;
#113 = AXIS2_PLACEMENT_3D ( 'NONE', #148, #12, #169 ) ;
#114 = EDGE_CURVE ( 'NONE', #24, #125, #163, .T. ) ;
#115 = FACE_OUTER_BOUND ( 'NONE', #126, .T. ) ;
#116 = EDGE_CURVE ( 'NONE', #24, #129, #170, .T. ) ;
#117 = FACE_OUTER_BOUND ( 'NONE', #31, .T. ) ;
#118 = DIRECTION ( 'NONE',  ( 1.000000000000000000, 0.0000000000000000000, -0.0000000000000000000 ) ) ;
#119 =( NAMED_UNIT ( * ) SI_UNIT ( $, .STERADIAN. ) SOLID_ANGLE_UNIT ( ) );
#120 = CC_DESIGN_APPROVAL ( #6, ( #127 ) ) ;
#121 = EDGE_LOOP ( 'NONE', ( #95, #145 ) ) ;
#122 = ORIENTED_EDGE ( 'NONE', *, *, #116, .T. ) ;
#123 = CALENDAR_DATE ( 2020, 15, 12 ) ;
#124 = APPROVAL_ROLE ( '' ) ;
#125 = VERTEX_POINT ( 'NONE', #7 ) ;
#126 = EDGE_LOOP ( 'NONE', ( #160, #63, #47, #134 ) ) ;
#127 = SECURITY_CLASSIFICATION ( '', '', #98 ) ;
#128 = ADVANCED_FACE ( 'NONE', ( #55 ), #133, .T. ) ;
#129 = VERTEX_POINT ( 'NONE', #166 ) ;
#130 = PERSON_AND_ORGANIZATION ( #69, #28 ) ;
#131 = PRODUCT_DEFINITION_SHAPE ( 'NONE', 'NONE',  #90 ) ;
#132 = AXIS2_PLACEMENT_3D ( 'NONE', #50, #146, #60 ) ;
#133 = PLANE ( 'NONE',  #32 ) ;
#134 = ORIENTED_EDGE ( 'NONE', *, *, #156, .T. ) ;
#135 = CARTESIAN_POINT ( 'NONE',  ( 12.69999999999999929, 1.555301434917138433E-15, 2.000000000000000000 ) ) ;
#136 = LOCAL_TIME ( 16, 26, 21.00000000000000000, #10 ) ;
#137 = CARTESIAN_POINT ( 'NONE',  ( 0.0000000000000000000, 0.0000000000000000000, 0.0000000000000000000 ) ) ;
#138 = PERSON_AND_ORGANIZATION ( #69, #28 ) ;
#139 = APPROVAL_DATE_TIME ( #5, #39 ) ;
#140 = AXIS2_PLACEMENT_3D ( 'NONE', #89, #20, #143 ) ;
#141 = PERSON_AND_ORGANIZATION_ROLE ( 'classification_officer' ) ;
#142 = APPROVAL_DATE_TIME ( #37, #165 ) ;
#143 = DIRECTION ( 'NONE',  ( 1.000000000000000000, 0.0000000000000000000, -0.0000000000000000000 ) ) ;
#144 = COORDINATED_UNIVERSAL_TIME_OFFSET ( 5, 0, .BEHIND. ) ;
#145 = ORIENTED_EDGE ( 'NONE', *, *, #114, .T. ) ;
#146 = DIRECTION ( 'NONE',  ( 0.0000000000000000000, 0.0000000000000000000, 1.000000000000000000 ) ) ;
#147 = AXIS2_PLACEMENT_3D ( 'NONE', #82, #104, #26 ) ;
#148 = CARTESIAN_POINT ( 'NONE',  ( 0.0000000000000000000, 0.0000000000000000000, 2.000000000000000000 ) ) ;
#149 = DIRECTION ( 'NONE',  ( 1.000000000000000000, 0.0000000000000000000, 0.0000000000000000000 ) ) ;
#150 = APPLICATION_PROTOCOL_DEFINITION ( 'international standard', 'config_control_design', 1994, #152 ) ;
#151 = UNCERTAINTY_MEASURE_WITH_UNIT (LENGTH_MEASURE( 1.000000000000000082E-05 ), #80, 'distance_accuracy_value', 'NONE');
#152 = APPLICATION_CONTEXT ( 'configuration controlled 3d designs of mechanical parts and assemblies' ) ;
#153 = EDGE_CURVE ( 'NONE', #125, #24, #87, .T. ) ;
#154 = ORIENTED_EDGE ( 'NONE', *, *, #45, .F. ) ;
#155 = APPROVAL_ROLE ( '' ) ;
#156 = EDGE_CURVE ( 'NONE', #41, #129, #62, .T. ) ;
#157 = ADVANCED_BREP_SHAPE_REPRESENTATION ( 'ISP Flat Parts_16801', ( #99, #81 ), #27 ) ;
#158 = DIRECTION ( 'NONE',  ( -0.0000000000000000000, -0.0000000000000000000, -1.000000000000000000 ) ) ;
#159 = CC_DESIGN_PERSON_AND_ORGANIZATION_ASSIGNMENT ( #130, #141, ( #127 ) ) ;
#160 = ORIENTED_EDGE ( 'NONE', *, *, #116, .F. ) ;
#161 = CALENDAR_DATE ( 2020, 15, 12 ) ;
#162 = DIRECTION ( 'NONE',  ( -0.0000000000000000000, -0.0000000000000000000, -1.000000000000000000 ) ) ;
#163 = CIRCLE ( 'NONE', #147, 12.69999999999999929 ) ;
#164 = ADVANCED_FACE ( 'NONE', ( #115 ), #59, .T. ) ;
#165 = APPROVAL ( #109, 'UNSPECIFIED' ) ;
#166 = CARTESIAN_POINT ( 'NONE',  ( 12.69999999999999929, 1.555301434917138433E-15, 0.0000000000000000000 ) ) ;
#167 = CALENDAR_DATE ( 2020, 15, 12 ) ;
#168 = APPROVAL_PERSON_ORGANIZATION ( #88, #39, #155 ) ;
#169 = DIRECTION ( 'NONE',  ( 1.000000000000000000, 0.0000000000000000000, 0.0000000000000000000 ) ) ;
#170 = LINE ( 'NONE', #135, #11 ) ;
#171 = CALENDAR_DATE ( 2020, 15, 12 ) ;
#172 = MECHANICAL_CONTEXT ( 'NONE', #152, 'mechanical' ) ;
#173 = CC_DESIGN_DATE_AND_TIME_ASSIGNMENT ( #77, #33, ( #127 ) ) ;
#174 = DATE_TIME_ROLE ( 'creation_date' ) ;
#175 = APPROVAL_STATUS ( 'not_yet_approved' ) ;
ENDSEC;
END-ISO-10303-21;
