ISO-10303-21;
HEADER;
FILE_DESCRIPTION (( 'STEP AP203' ),
    '1' );
FILE_NAME ('Web Model 49123.STEP',
    '2017-01-31T15:22:03',
    ( '' ),
    ( '' ),
    'SwSTEP 2.0',
    'SolidWorks 2016',
    '' );
FILE_SCHEMA (( 'CONFIG_CONTROL_DESIGN' ));
ENDSEC;

DATA;
#1 = PRODUCT_RELATED_PRODUCT_CATEGORY ( 'detail', '', ( #69 ) ) ;
#2 = FACE_OUTER_BOUND ( 'NONE', #9, .T. ) ;
#3 = APPROVAL_DATE_TIME ( #35, #150 ) ;
#4 = CC_DESIGN_APPROVAL ( #81, ( #53 ) ) ;
#5 = PLANE ( 'NONE',  #46 ) ;
#6 = DESIGN_CONTEXT ( 'detailed design', #106, 'design' ) ;
#7 = DIRECTION ( 'NONE',  ( 0.0000000000000000000, 0.0000000000000000000, 1.000000000000000000 ) ) ;
#8 = CARTESIAN_POINT ( 'NONE',  ( 0.0000000000000000000, 0.0000000000000000000, 0.0000000000000000000 ) ) ;
#9 = EDGE_LOOP ( 'NONE', ( #147, #170 ) ) ;
#10 =( NAMED_UNIT ( * ) SI_UNIT ( $, .STERADIAN. ) SOLID_ANGLE_UNIT ( ) );
#11 = APPROVAL_DATE_TIME ( #47, #81 ) ;
#12 = EDGE_CURVE ( 'NONE', #83, #162, #130, .T. ) ;
#13 = FACE_OUTER_BOUND ( 'NONE', #58, .T. ) ;
#14 = CARTESIAN_POINT ( 'NONE',  ( 0.0000000000000000000, 0.0000000000000000000, -2.000000000000000000 ) ) ;
#15 = AXIS2_PLACEMENT_3D ( 'NONE', #50, #64, #168 ) ;
#16 = PRODUCT_DEFINITION_SHAPE ( 'NONE', 'NONE',  #143 ) ;
#17 = APPROVAL_STATUS ( 'not_yet_approved' ) ;
#18 = PERSON_AND_ORGANIZATION_ROLE ( 'design_owner' ) ;
#19 = DATE_TIME_ROLE ( 'classification_date' ) ;
#20 = VERTEX_POINT ( 'NONE', #38 ) ;
#21 = AXIS2_PLACEMENT_3D ( 'NONE', #89, #62, #104 ) ;
#22 = PERSON_AND_ORGANIZATION ( #167, #51 ) ;
#23 = CC_DESIGN_APPROVAL ( #160, ( #145 ) ) ;
#24 = FACE_OUTER_BOUND ( 'NONE', #161, .T. ) ;
#25 = CARTESIAN_POINT ( 'NONE',  ( 0.0000000000000000000, 0.0000000000000000000, -2.000000000000000000 ) ) ;
#26 = PERSON_AND_ORGANIZATION ( #167, #51 ) ;
#27 = DIRECTION ( 'NONE',  ( 1.000000000000000000, 0.0000000000000000000, 0.0000000000000000000 ) ) ;
#28 = EDGE_CURVE ( 'NONE', #20, #54, #55, .T. ) ;
#29 = ADVANCED_FACE ( 'NONE', ( #24 ), #159, .T. ) ;
#30 = CARTESIAN_POINT ( 'NONE',  ( 0.0000000000000000000, 0.0000000000000000000, 0.0000000000000000000 ) ) ;
#31 = MECHANICAL_CONTEXT ( 'NONE', #137, 'mechanical' ) ;
#32 = CALENDAR_DATE ( 2017, 31, 1 ) ;
#33 = CIRCLE ( 'NONE', #84, 4.500000000000000000 ) ;
#34 = EDGE_CURVE ( 'NONE', #83, #20, #102, .T. ) ;
#35 = DATE_AND_TIME ( #120, #71 ) ;
#36 = CLOSED_SHELL ( 'NONE', ( #29, #149, #75, #117 ) ) ;
#37 = DIRECTION ( 'NONE',  ( 0.0000000000000000000, 0.0000000000000000000, 1.000000000000000000 ) ) ;
#38 = CARTESIAN_POINT ( 'NONE',  ( 4.500000000000000000, 0.0000000000000000000, 0.0000000000000000000 ) ) ;
#39 = DIRECTION ( 'NONE',  ( 1.000000000000000000, 0.0000000000000000000, 0.0000000000000000000 ) ) ;
#40 = CARTESIAN_POINT ( 'NONE',  ( 0.0000000000000000000, 0.0000000000000000000, 0.0000000000000000000 ) ) ;
#41 = SECURITY_CLASSIFICATION_LEVEL ( 'unclassified' ) ;
#42 = ORIENTED_EDGE ( 'NONE', *, *, #115, .F. ) ;
#43 = DIRECTION ( 'NONE',  ( 1.000000000000000000, 0.0000000000000000000, 0.0000000000000000000 ) ) ;
#44 = CIRCLE ( 'NONE', #15, 4.500000000000000000 ) ;
#45 = CC_DESIGN_DATE_AND_TIME_ASSIGNMENT ( #74, #19, ( #145 ) ) ;
#46 = AXIS2_PLACEMENT_3D ( 'NONE', #25, #37, #118 ) ;
#47 = DATE_AND_TIME ( #165, #109 ) ;
#48 = EDGE_CURVE ( 'NONE', #162, #83, #44, .T. ) ;
#49 = ORIENTED_EDGE ( 'NONE', *, *, #34, .T. ) ;
#50 = CARTESIAN_POINT ( 'NONE',  ( 0.0000000000000000000, 0.0000000000000000000, -2.000000000000000000 ) ) ;
#51 = ORGANIZATION ( 'UNSPECIFIED', 'UNSPECIFIED', '' ) ;
#52 = APPROVAL_STATUS ( 'not_yet_approved' ) ;
#53 = PRODUCT_DEFINITION_FORMATION_WITH_SPECIFIED_SOURCE ( 'ANY', '', #69, .NOT_KNOWN. ) ;
#54 = VERTEX_POINT ( 'NONE', #77 ) ;
#55 = CIRCLE ( 'NONE', #112, 4.500000000000000000 ) ;
#56 = CC_DESIGN_PERSON_AND_ORGANIZATION_ASSIGNMENT ( #76, #171, ( #53 ) ) ;
#57 = PERSON_AND_ORGANIZATION ( #167, #51 ) ;
#58 = EDGE_LOOP ( 'NONE', ( #175, #86 ) ) ;
#59 = LOCAL_TIME ( 10, 22, 3.000000000000000000, #142 ) ;
#60 = CARTESIAN_POINT ( 'NONE',  ( 4.500000000000000000, 0.0000000000000000000, -2.000000000000000000 ) ) ;
#61 = AXIS2_PLACEMENT_3D ( 'NONE', #91, #66, #95 ) ;
#62 = DIRECTION ( 'NONE',  ( 0.0000000000000000000, 0.0000000000000000000, 1.000000000000000000 ) ) ;
#63 = DATE_AND_TIME ( #32, #59 ) ;
#64 = DIRECTION ( 'NONE',  ( 0.0000000000000000000, 0.0000000000000000000, 1.000000000000000000 ) ) ;
#65 = PERSON_AND_ORGANIZATION_ROLE ( 'classification_officer' ) ;
#66 = DIRECTION ( 'NONE',  ( 0.0000000000000000000, 0.0000000000000000000, 1.000000000000000000 ) ) ;
#67 = COORDINATED_UNIVERSAL_TIME_OFFSET ( 5, 0, .BEHIND. ) ;
#68 = CARTESIAN_POINT ( 'NONE',  ( -4.500000000000000000, 5.510910596163088600E-016, -2.000000000000000000 ) ) ;
#69 = PRODUCT ( 'Web Model 49123', 'Web Model 49123', '', ( #31 ) ) ;
#70 = PLANE ( 'NONE',  #110 ) ;
#71 = LOCAL_TIME ( 10, 22, 3.000000000000000000, #67 ) ;
#72 = COORDINATED_UNIVERSAL_TIME_OFFSET ( 5, 0, .BEHIND. ) ;
#73 = AXIS2_PLACEMENT_3D ( 'NONE', #14, #135, #27 ) ;
#74 = DATE_AND_TIME ( #103, #146 ) ;
#75 = ADVANCED_FACE ( 'NONE', ( #13 ), #5, .F. ) ;
#76 = PERSON_AND_ORGANIZATION ( #167, #51 ) ;
#77 = CARTESIAN_POINT ( 'NONE',  ( -4.500000000000000000, 5.510910596163088600E-016, 0.0000000000000000000 ) ) ;
#78 = DIRECTION ( 'NONE',  ( 1.000000000000000000, 0.0000000000000000000, 0.0000000000000000000 ) ) ;
#79 = APPLICATION_PROTOCOL_DEFINITION ( 'international standard', 'config_control_design', 1994, #137 ) ;
#80 = DIRECTION ( 'NONE',  ( 0.0000000000000000000, 0.0000000000000000000, 1.000000000000000000 ) ) ;
#81 = APPROVAL ( #105, 'UNSPECIFIED' ) ;
#82 = COORDINATED_UNIVERSAL_TIME_OFFSET ( 5, 0, .BEHIND. ) ;
#83 = VERTEX_POINT ( 'NONE', #90 ) ;
#84 = AXIS2_PLACEMENT_3D ( 'NONE', #40, #156, #78 ) ;
#85 = VECTOR ( 'NONE', #153, 1000.000000000000000 ) ;
#86 = ORIENTED_EDGE ( 'NONE', *, *, #48, .F. ) ;
#87 = COORDINATED_UNIVERSAL_TIME_OFFSET ( 5, 0, .BEHIND. ) ;
#88 = APPROVAL_PERSON_ORGANIZATION ( #22, #150, #138 ) ;
#89 = CARTESIAN_POINT ( 'NONE',  ( 0.0000000000000000000, 0.0000000000000000000, -2.000000000000000000 ) ) ;
#90 = CARTESIAN_POINT ( 'NONE',  ( 4.500000000000000000, 0.0000000000000000000, -2.000000000000000000 ) ) ;
#91 = CARTESIAN_POINT ( 'NONE',  ( 0.0000000000000000000, 0.0000000000000000000, 0.0000000000000000000 ) ) ;
#92 = VECTOR ( 'NONE', #7, 1000.000000000000000 ) ;
#93 = ORIENTED_EDGE ( 'NONE', *, *, #12, .T. ) ;
#94 = DATE_TIME_ROLE ( 'creation_date' ) ;
#95 = DIRECTION ( 'NONE',  ( 1.000000000000000000, 0.0000000000000000000, 0.0000000000000000000 ) ) ;
#96 = SHAPE_DEFINITION_REPRESENTATION ( #16, #131 ) ;
#97 = MANIFOLD_SOLID_BREP ( 'Extrude1', #36 ) ;
#98 = CC_DESIGN_PERSON_AND_ORGANIZATION_ASSIGNMENT ( #151, #65, ( #145 ) ) ;
#99 = PERSON_AND_ORGANIZATION ( #167, #51 ) ;
#100 = AXIS2_PLACEMENT_3D ( 'NONE', #134, #80, #43 ) ;
#101 = LINE ( 'NONE', #123, #92 ) ;
#102 = LINE ( 'NONE', #60, #85 ) ;
#103 = CALENDAR_DATE ( 2017, 31, 1 ) ;
#104 = DIRECTION ( 'NONE',  ( 1.000000000000000000, 0.0000000000000000000, 0.0000000000000000000 ) ) ;
#105 = APPROVAL_STATUS ( 'not_yet_approved' ) ;
#106 = APPLICATION_CONTEXT ( 'configuration controlled 3d designs of mechanical parts and assemblies' ) ;
#107 = APPROVAL_ROLE ( '' ) ;
#108 = APPROVAL_PERSON_ORGANIZATION ( #164, #160, #107 ) ;
#109 = LOCAL_TIME ( 10, 22, 3.000000000000000000, #82 ) ;
#110 = AXIS2_PLACEMENT_3D ( 'NONE', #8, #154, #124 ) ;
#111 = ORIENTED_EDGE ( 'NONE', *, *, #48, .T. ) ;
#112 = AXIS2_PLACEMENT_3D ( 'NONE', #30, #122, #39 ) ;
#113 = PERSON_AND_ORGANIZATION ( #167, #51 ) ;
#114 = EDGE_LOOP ( 'NONE', ( #152, #111, #49, #42 ) ) ;
#115 = EDGE_CURVE ( 'NONE', #54, #20, #33, .T. ) ;
#116 = UNCERTAINTY_MEASURE_WITH_UNIT (LENGTH_MEASURE( 1.000000000000000100E-005 ), #139, 'distance_accuracy_value', 'NONE');
#117 = ADVANCED_FACE ( 'NONE', ( #2 ), #70, .T. ) ;
#118 = DIRECTION ( 'NONE',  ( 1.000000000000000000, 0.0000000000000000000, -0.0000000000000000000 ) ) ;
#119 = EDGE_CURVE ( 'NONE', #162, #54, #101, .T. ) ;
#120 = CALENDAR_DATE ( 2017, 31, 1 ) ;
#121 = ORIENTED_EDGE ( 'NONE', *, *, #119, .T. ) ;
#122 = DIRECTION ( 'NONE',  ( 0.0000000000000000000, 0.0000000000000000000, 1.000000000000000000 ) ) ;
#123 = CARTESIAN_POINT ( 'NONE',  ( -4.500000000000000000, 5.510910596163088600E-016, -2.000000000000000000 ) ) ;
#124 = DIRECTION ( 'NONE',  ( 1.000000000000000000, 0.0000000000000000000, -0.0000000000000000000 ) ) ;
#125 = APPROVAL_ROLE ( '' ) ;
#126 = CC_DESIGN_PERSON_AND_ORGANIZATION_ASSIGNMENT ( #113, #155, ( #53 ) ) ;
#127 = APPLICATION_PROTOCOL_DEFINITION ( 'international standard', 'config_control_design', 1994, #106 ) ;
#128 = CALENDAR_DATE ( 2017, 31, 1 ) ;
#129 = CYLINDRICAL_SURFACE ( 'NONE', #100, 4.500000000000000000 ) ;
#130 = CIRCLE ( 'NONE', #21, 4.500000000000000000 ) ;
#131 = ADVANCED_BREP_SHAPE_REPRESENTATION ( 'Web Model 49123', ( #97, #61 ), #163 ) ;
#132 = CC_DESIGN_DATE_AND_TIME_ASSIGNMENT ( #63, #94, ( #143 ) ) ;
#133 = FACE_OUTER_BOUND ( 'NONE', #114, .T. ) ;
#134 = CARTESIAN_POINT ( 'NONE',  ( 0.0000000000000000000, 0.0000000000000000000, -2.000000000000000000 ) ) ;
#135 = DIRECTION ( 'NONE',  ( 0.0000000000000000000, 0.0000000000000000000, 1.000000000000000000 ) ) ;
#136 = ORIENTED_EDGE ( 'NONE', *, *, #34, .F. ) ;
#137 = APPLICATION_CONTEXT ( 'configuration controlled 3d designs of mechanical parts and assemblies' ) ;
#138 = APPROVAL_ROLE ( '' ) ;
#139 =( LENGTH_UNIT ( ) NAMED_UNIT ( * ) SI_UNIT ( .MILLI., .METRE. ) );
#140 = APPROVAL_DATE_TIME ( #144, #160 ) ;
#141 = PERSON_AND_ORGANIZATION_ROLE ( 'creator' ) ;
#142 = COORDINATED_UNIVERSAL_TIME_OFFSET ( 5, 0, .BEHIND. ) ;
#143 = PRODUCT_DEFINITION ( 'UNKNOWN', '', #53, #6 ) ;
#144 = DATE_AND_TIME ( #128, #158 ) ;
#145 = SECURITY_CLASSIFICATION ( '', '', #41 ) ;
#146 = LOCAL_TIME ( 10, 22, 3.000000000000000000, #72 ) ;
#147 = ORIENTED_EDGE ( 'NONE', *, *, #28, .T. ) ;
#148 = CC_DESIGN_APPROVAL ( #150, ( #143 ) ) ;
#149 = ADVANCED_FACE ( 'NONE', ( #133 ), #129, .T. ) ;
#150 = APPROVAL ( #17, 'UNSPECIFIED' ) ;
#151 = PERSON_AND_ORGANIZATION ( #167, #51 ) ;
#152 = ORIENTED_EDGE ( 'NONE', *, *, #119, .F. ) ;
#153 = DIRECTION ( 'NONE',  ( 0.0000000000000000000, 0.0000000000000000000, 1.000000000000000000 ) ) ;
#154 = DIRECTION ( 'NONE',  ( 0.0000000000000000000, 0.0000000000000000000, 1.000000000000000000 ) ) ;
#155 = PERSON_AND_ORGANIZATION_ROLE ( 'creator' ) ;
#156 = DIRECTION ( 'NONE',  ( 0.0000000000000000000, 0.0000000000000000000, 1.000000000000000000 ) ) ;
#157 = CC_DESIGN_PERSON_AND_ORGANIZATION_ASSIGNMENT ( #57, #18, ( #69 ) ) ;
#158 = LOCAL_TIME ( 10, 22, 3.000000000000000000, #87 ) ;
#159 = CYLINDRICAL_SURFACE ( 'NONE', #73, 4.500000000000000000 ) ;
#160 = APPROVAL ( #52, 'UNSPECIFIED' ) ;
#161 = EDGE_LOOP ( 'NONE', ( #93, #121, #166, #136 ) ) ;
#162 = VERTEX_POINT ( 'NONE', #68 ) ;
#163 =( GEOMETRIC_REPRESENTATION_CONTEXT ( 3 ) GLOBAL_UNCERTAINTY_ASSIGNED_CONTEXT ( ( #116 ) ) GLOBAL_UNIT_ASSIGNED_CONTEXT ( ( #139, #172, #10 ) ) REPRESENTATION_CONTEXT ( 'NONE', 'WORKASPACE' ) );
#164 = PERSON_AND_ORGANIZATION ( #167, #51 ) ;
#165 = CALENDAR_DATE ( 2017, 31, 1 ) ;
#166 = ORIENTED_EDGE ( 'NONE', *, *, #28, .F. ) ;
#167 = PERSON ( 'UNSPECIFIED', 'UNSPECIFIED', 'UNSPECIFIED', ('UNSPECIFIED'), ('UNSPECIFIED'), ('UNSPECIFIED') ) ;
#168 = DIRECTION ( 'NONE',  ( 1.000000000000000000, 0.0000000000000000000, 0.0000000000000000000 ) ) ;
#169 = CC_DESIGN_SECURITY_CLASSIFICATION ( #145, ( #53 ) ) ;
#170 = ORIENTED_EDGE ( 'NONE', *, *, #115, .T. ) ;
#171 = PERSON_AND_ORGANIZATION_ROLE ( 'design_supplier' ) ;
#172 =( NAMED_UNIT ( * ) PLANE_ANGLE_UNIT ( ) SI_UNIT ( $, .RADIAN. ) );
#173 = APPROVAL_PERSON_ORGANIZATION ( #26, #81, #125 ) ;
#174 = CC_DESIGN_PERSON_AND_ORGANIZATION_ASSIGNMENT ( #99, #141, ( #143 ) ) ;
#175 = ORIENTED_EDGE ( 'NONE', *, *, #12, .F. ) ;
ENDSEC;
END-ISO-10303-21;
