ISO-10303-21;
HEADER;
FILE_DESCRIPTION (( 'STEP AP203' ),
    '1' );
FILE_NAME ('20115-E0W.STEP',
    '2009-09-14T20:28:33',
    ( 'Admin' ),
    ( 'Thorlabs, Inc.' ),
    'SwSTEP 2.0',
    'SolidWorks 2007',
    '' );
FILE_SCHEMA (( 'CONFIG_CONTROL_DESIGN' ));
ENDSEC;

DATA;
#1 = ADVANCED_FACE ( 'NONE', ( #82 ), #56, .T. ) ;
#2 = ADVANCED_FACE ( 'NONE', ( #86 ), #114, .T. ) ;
#3 = ORIENTED_EDGE ( 'NONE', *, *, #4, .F. ) ;
#4 = EDGE_CURVE ( 'NONE', #5, #30, #81, .T. ) ;
#5 = VERTEX_POINT ( 'NONE', #48 ) ;
#6 = ORIENTED_EDGE ( 'NONE', *, *, #23, .T. ) ;
#7 = VERTEX_POINT ( 'NONE', #44 ) ;
#8 = ORIENTED_EDGE ( 'NONE', *, *, #29, .T. ) ;
#9 = ORIENTED_EDGE ( 'NONE', *, *, #13, .T. ) ;
#10 = ADVANCED_FACE ( 'NONE', ( #45 ), #115, .T. ) ;
#11 = EDGE_CURVE ( 'NONE', #27, #30, #83, .T. ) ;
#12 = ORIENTED_EDGE ( 'NONE', *, *, #13, .F. ) ;
#13 = EDGE_CURVE ( 'NONE', #7, #24, #102, .T. ) ;
#14 = ADVANCED_FACE ( 'NONE', ( #103 ), #57, .T. ) ;
#15 = ORIENTED_EDGE ( 'NONE', *, *, #23, .F. ) ;
#16 = EDGE_LOOP ( 'NONE', ( #8, #17 ) ) ;
#17 = ORIENTED_EDGE ( 'NONE', *, *, #11, .T. ) ;
#18 = EDGE_CURVE ( 'NONE', #7, #5, #77, .T. ) ;
#19 = EDGE_LOOP ( 'NONE', ( #20, #9, #15 ) ) ;
#20 = ORIENTED_EDGE ( 'NONE', *, *, #18, .F. ) ;
#21 = MANIFOLD_SOLID_BREP ( 'NONE', #40 ) ;
#22 = EDGE_LOOP ( 'NONE', ( #6, #25, #28, #3 ) ) ;
#23 = EDGE_CURVE ( 'NONE', #5, #24, #54, .T. ) ;
#24 = VERTEX_POINT ( 'NONE', #62 ) ;
#25 = ORIENTED_EDGE ( 'NONE', *, *, #26, .T. ) ;
#26 = EDGE_CURVE ( 'NONE', #24, #27, #61, .T. ) ;
#27 = VERTEX_POINT ( 'NONE', #97 ) ;
#28 = ORIENTED_EDGE ( 'NONE', *, *, #29, .F. ) ;
#29 = EDGE_CURVE ( 'NONE', #30, #27, #96, .T. ) ;
#30 = VERTEX_POINT ( 'NONE', #68 ) ;
#31 = ORIENTED_EDGE ( 'NONE', *, *, #37, .T. ) ;
#32 = ORIENTED_EDGE ( 'NONE', *, *, #4, .T. ) ;
#33 = ORIENTED_EDGE ( 'NONE', *, *, #11, .F. ) ;
#34 = ADVANCED_FACE ( 'NONE', ( #67 ), #109, .T. ) ;
#35 = EDGE_LOOP ( 'NONE', ( #12, #36, #38 ) ) ;
#36 = ORIENTED_EDGE ( 'NONE', *, *, #18, .T. ) ;
#37 = EDGE_CURVE ( 'NONE', #24, #5, #105, .T. ) ;
#38 = ORIENTED_EDGE ( 'NONE', *, *, #37, .F. ) ;
#39 = EDGE_LOOP ( 'NONE', ( #41, #31, #32, #33 ) ) ;
#40 = CLOSED_SHELL ( 'NONE', ( #2, #1, #14, #34, #10 ) ) ;
#41 = ORIENTED_EDGE ( 'NONE', *, *, #26, .F. ) ;
#42 = CARTESIAN_POINT ( 'NONE',  ( 0.0000000000000000000, 4.065693094690292100E-016, -1.085000000000000000 ) ) ;
#43 = DIRECTION ( 'NONE',  ( 0.0000000000000000000, 1.000000000000000000, 3.073328992872298300E-016 ) ) ;
#44 = CARTESIAN_POINT ( 'NONE',  ( 0.0000000000000000000, -1.497203728183239500E-014, 1.085000000000169200 ) ) ;
#45 = FACE_OUTER_BOUND ( 'NONE', #39, .T. ) ;
#46 = VECTOR ( 'NONE', #49, 1000.000000000000000 ) ;
#47 = CARTESIAN_POINT ( 'NONE',  ( 0.0000000000000000000, 6.349999999999995200, -1.084999999999998000 ) ) ;
#48 = CARTESIAN_POINT ( 'NONE',  ( 0.0000000000000000000, 6.349999999999997900, 0.9170889929414062200 ) ) ;
#49 = DIRECTION ( 'NONE',  ( 0.0000000000000000000, 3.061515884555943100E-016, -1.000000000000000000 ) ) ;
#50 = DIRECTION ( 'NONE',  ( 1.000000000000000000, 0.0000000000000000000, 0.0000000000000000000 ) ) ;
#51 = CARTESIAN_POINT ( 'NONE',  ( 0.0000000000000000000, 0.0000000000000000000, 0.0000000000000000000 ) ) ;
#52 = AXIS2_PLACEMENT_3D ( 'NONE', #51, #106, #50 ) ;
#53 = AXIS2_PLACEMENT_3D ( 'NONE', #78, #64, #63 ) ;
#54 = CIRCLE ( 'NONE', #53, 6.349999999999991700 ) ;
#55 = DIRECTION ( 'NONE',  ( 0.0000000000000000000, 0.0000000000000000000, 1.000000000000000000 ) ) ;
#56 = SPHERICAL_SURFACE ( 'NONE', #73, 120.1549999999999600 ) ;
#57 = PLANE ( 'NONE',  #113 ) ;
#58 = DIRECTION ( 'NONE',  ( -1.224606353822377300E-016, 1.000000000000000000, 0.0000000000000000000 ) ) ;
#59 = DIRECTION ( 'NONE',  ( 1.000000000000000000, 0.0000000000000000000, 0.0000000000000000000 ) ) ;
#60 = CARTESIAN_POINT ( 'NONE',  ( 7.776250346772089500E-016, -6.349999999999995200, -1.085000000000002000 ) ) ;
#61 = LINE ( 'NONE', #60, #99 ) ;
#62 = CARTESIAN_POINT ( 'NONE',  ( 7.776250346772094400E-016, -6.350000000000021000, 0.9170889929414042200 ) ) ;
#63 = DIRECTION ( 'NONE',  ( 0.0000000000000000000, 1.000000000000000000, 3.073328992872300300E-016 ) ) ;
#64 = DIRECTION ( 'NONE',  ( 0.0000000000000000000, 3.061515884555943100E-016, -1.000000000000000000 ) ) ;
#65 = CARTESIAN_POINT ( 'NONE',  ( 0.0000000000000000000, 1.445647800687314200E-014, -119.0699999999997900 ) ) ;
#66 = DIRECTION ( 'NONE',  ( 1.000000000000000000, 0.0000000000000000000, 0.0000000000000000000 ) ) ;
#67 = FACE_OUTER_BOUND ( 'NONE', #35, .T. ) ;
#68 = CARTESIAN_POINT ( 'NONE',  ( 0.0000000000000000000, 6.349999999999999600, -1.085000000000000000 ) ) ;
#69 = DIRECTION ( 'NONE',  ( 0.0000000000000000000, 1.000000000000000000, 3.073328992872296400E-016 ) ) ;
#70 = DIRECTION ( 'NONE',  ( 0.0000000000000000000, 3.061515884555943100E-016, -1.000000000000000000 ) ) ;
#71 = CARTESIAN_POINT ( 'NONE',  ( 0.0000000000000000000, 4.065693094690298000E-016, -1.085000000000002000 ) ) ;
#72 = AXIS2_PLACEMENT_3D ( 'NONE', #71, #70, #69 ) ;
#73 = AXIS2_PLACEMENT_3D ( 'NONE', #116, #59, #122 ) ;
#74 = DIRECTION ( 'NONE',  ( -1.000000000000000000, 0.0000000000000000000, 0.0000000000000000000 ) ) ;
#75 = CARTESIAN_POINT ( 'NONE',  ( 0.0000000000000000000, 1.445647800687314200E-014, -119.0699999999997900 ) ) ;
#76 = AXIS2_PLACEMENT_3D ( 'NONE', #75, #74, #55 ) ;
#77 = CIRCLE ( 'NONE', #76, 120.1549999999999600 ) ;
#78 = CARTESIAN_POINT ( 'NONE',  ( 0.0000000000000000000, -2.063734159494428800E-016, 0.9170889929414043400 ) ) ;
#79 = CARTESIAN_POINT ( 'NONE',  ( 0.0000000000000000000, 4.065693094690292100E-016, -1.085000000000000000 ) ) ;
#80 = AXIS2_PLACEMENT_3D ( 'NONE', #79, #85, #84 ) ;
#81 = LINE ( 'NONE', #47, #46 ) ;
#82 = FACE_OUTER_BOUND ( 'NONE', #19, .T. ) ;
#83 = CIRCLE ( 'NONE', #123, 6.349999999999999600 ) ;
#84 = DIRECTION ( 'NONE',  ( 0.0000000000000000000, 1.000000000000000000, 3.073328992872298300E-016 ) ) ;
#85 = DIRECTION ( 'NONE',  ( 0.0000000000000000000, 3.061515884555943100E-016, -1.000000000000000000 ) ) ;
#86 = FACE_OUTER_BOUND ( 'NONE', #22, .T. ) ;
#87 = AXIS2_PLACEMENT_3D ( 'NONE', #42, #117, #43 ) ;
#88 =( NAMED_UNIT ( * ) PLANE_ANGLE_UNIT ( ) SI_UNIT ( $, .RADIAN. ) );
#89 =( LENGTH_UNIT ( ) NAMED_UNIT ( * ) SI_UNIT ( .MILLI., .METRE. ) );
#90 = DIRECTION ( 'NONE',  ( 0.0000000000000000000, 1.000000000000000000, 3.073328992872300300E-016 ) ) ;
#91 = DIRECTION ( 'NONE',  ( 0.0000000000000000000, 3.061515884555943100E-016, -1.000000000000000000 ) ) ;
#92 = CARTESIAN_POINT ( 'NONE',  ( 0.0000000000000000000, -2.063734159494428800E-016, 0.9170889929414043400 ) ) ;
#93 = DIRECTION ( 'NONE',  ( 0.0000000000000000000, 1.000000000000000000, 3.073328992872296400E-016 ) ) ;
#94 = DIRECTION ( 'NONE',  ( 0.0000000000000000000, 3.061515884555943100E-016, -1.000000000000000000 ) ) ;
#95 = CARTESIAN_POINT ( 'NONE',  ( 0.0000000000000000000, 4.065693094690298000E-016, -1.085000000000002000 ) ) ;
#96 = CIRCLE ( 'NONE', #72, 6.349999999999999600 ) ;
#97 = CARTESIAN_POINT ( 'NONE',  ( 7.776250346772094400E-016, -6.349999999999999600, -1.085000000000004000 ) ) ;
#98 = DIRECTION ( 'NONE',  ( 0.0000000000000000000, 3.061515884555943100E-016, -1.000000000000000000 ) ) ;
#99 = VECTOR ( 'NONE', #98, 1000.000000000000000 ) ;
#100 = DIRECTION ( 'NONE',  ( 1.000000000000000000, 1.224606353822377300E-016, 3.749151804555343600E-032 ) ) ;
#101 = AXIS2_PLACEMENT_3D ( 'NONE', #124, #100, #58 ) ;
#102 = CIRCLE ( 'NONE', #101, 120.1549999999999600 ) ;
#103 = FACE_OUTER_BOUND ( 'NONE', #16, .T. ) ;
#104 = AXIS2_PLACEMENT_3D ( 'NONE', #92, #91, #90 ) ;
#105 = CIRCLE ( 'NONE', #104, 6.349999999999991700 ) ;
#106 = DIRECTION ( 'NONE',  ( 0.0000000000000000000, 0.0000000000000000000, 1.000000000000000000 ) ) ;
#107 = DIRECTION ( 'NONE',  ( 0.0000000000000000000, 1.000000000000000000, 3.464971363941857100E-016 ) ) ;
#108 = AXIS2_PLACEMENT_3D ( 'NONE', #65, #66, #107 ) ;
#109 = SPHERICAL_SURFACE ( 'NONE', #108, 120.1549999999999600 ) ;
#110 = DIRECTION ( 'NONE',  ( 0.0000000000000000000, 1.000000000000000000, 3.061515884555943100E-016 ) ) ;
#111 = DIRECTION ( 'NONE',  ( 0.0000000000000000000, 3.061515884555943100E-016, -1.000000000000000000 ) ) ;
#112 = CARTESIAN_POINT ( 'NONE',  ( 0.0000000000000000000, 4.065693094690295000E-016, -1.085000000000000900 ) ) ;
#113 = AXIS2_PLACEMENT_3D ( 'NONE', #112, #111, #110 ) ;
#114 = CYLINDRICAL_SURFACE ( 'NONE', #87, 6.349999999999995200 ) ;
#115 = CYLINDRICAL_SURFACE ( 'NONE', #80, 6.349999999999995200 ) ;
#116 = CARTESIAN_POINT ( 'NONE',  ( 0.0000000000000000000, 1.445647800687314200E-014, -119.0699999999997900 ) ) ;
#117 = DIRECTION ( 'NONE',  ( 0.0000000000000000000, 3.061515884555943100E-016, -1.000000000000000000 ) ) ;
#118 = ADVANCED_BREP_SHAPE_REPRESENTATION ( '20115-E0W', ( #21, #52 ), #119 ) ;
#119 =( GEOMETRIC_REPRESENTATION_CONTEXT ( 3 ) GLOBAL_UNCERTAINTY_ASSIGNED_CONTEXT ( ( #120 ) ) GLOBAL_UNIT_ASSIGNED_CONTEXT ( ( #89, #88, #121 ) ) REPRESENTATION_CONTEXT ( 'NONE', 'WORKASPACE' ) );
#120 = UNCERTAINTY_MEASURE_WITH_UNIT (LENGTH_MEASURE( 1.000000000000000100E-005 ), #89, 'distance_accuracy_value', 'NONE');
#121 =( NAMED_UNIT ( * ) SI_UNIT ( $, .STERADIAN. ) SOLID_ANGLE_UNIT ( ) );
#122 = DIRECTION ( 'NONE',  ( 0.0000000000000000000, 1.000000000000000000, 3.464971363941857100E-016 ) ) ;
#123 = AXIS2_PLACEMENT_3D ( 'NONE', #95, #94, #93 ) ;
#124 = CARTESIAN_POINT ( 'NONE',  ( 0.0000000000000000000, 1.445647800687314200E-014, -119.0699999999997900 ) ) ;
#125 = APPROVAL_ROLE ( '' ) ;
#126 = APPROVAL ( #127, 'UNSPECIFIED' ) ;
#127 = APPROVAL_STATUS ( 'not_yet_approved' ) ;
#128 = PERSON_AND_ORGANIZATION ( #199, #154 ) ;
#129 = PRODUCT_DEFINITION_FORMATION_WITH_SPECIFIED_SOURCE ( 'ANY', '', #197, .NOT_KNOWN. ) ;
#130 = CC_DESIGN_PERSON_AND_ORGANIZATION_ASSIGNMENT ( #188, #187, ( #185 ) ) ;
#131 = PRODUCT_DEFINITION_SHAPE ( 'NONE', 'NONE',  #185 ) ;
#132 = PRODUCT_RELATED_PRODUCT_CATEGORY ( 'detail', '', ( #197 ) ) ;
#133 = PERSON_AND_ORGANIZATION_ROLE ( 'classification_officer' ) ;
#134 = PERSON_AND_ORGANIZATION ( #199, #154 ) ;
#135 = SECURITY_CLASSIFICATION ( '', '', #138 ) ;
#136 = CC_DESIGN_DATE_AND_TIME_ASSIGNMENT ( #193, #192, ( #185 ) ) ;
#137 = SHAPE_DEFINITION_REPRESENTATION ( #131, #118 ) ;
#138 = SECURITY_CLASSIFICATION_LEVEL ( 'unclassified' ) ;
#139 = CC_DESIGN_PERSON_AND_ORGANIZATION_ASSIGNMENT ( #141, #140, ( #129 ) ) ;
#140 = PERSON_AND_ORGANIZATION_ROLE ( 'design_supplier' ) ;
#141 = PERSON_AND_ORGANIZATION ( #199, #154 ) ;
#142 = CC_DESIGN_PERSON_AND_ORGANIZATION_ASSIGNMENT ( #144, #143, ( #129 ) ) ;
#143 = PERSON_AND_ORGANIZATION_ROLE ( 'creator' ) ;
#144 = PERSON_AND_ORGANIZATION ( #199, #154 ) ;
#145 = PERSON_AND_ORGANIZATION ( #199, #154 ) ;
#146 = CC_DESIGN_DATE_AND_TIME_ASSIGNMENT ( #150, #147, ( #135 ) ) ;
#147 = DATE_TIME_ROLE ( 'classification_date' ) ;
#148 = CALENDAR_DATE ( 2009, 14, 9 ) ;
#149 = LOCAL_TIME ( 16, 28, 33.00000000000000000, #151 ) ;
#150 = DATE_AND_TIME ( #148, #149 ) ;
#151 = COORDINATED_UNIVERSAL_TIME_OFFSET ( 5, 0, .BEHIND. ) ;
#152 = CC_DESIGN_PERSON_AND_ORGANIZATION_ASSIGNMENT ( #134, #133, ( #135 ) ) ;
#153 = CC_DESIGN_PERSON_AND_ORGANIZATION_ASSIGNMENT ( #198, #201, ( #197 ) ) ;
#154 = ORGANIZATION ( 'UNSPECIFIED', 'UNSPECIFIED', '' ) ;
#155 = APPLICATION_PROTOCOL_DEFINITION ( 'international standard', 'config_control_design', 1994, #156 ) ;
#156 = APPLICATION_CONTEXT ( 'configuration controlled 3d designs of mechanical parts and assemblies' ) ;
#157 = PERSON_AND_ORGANIZATION ( #199, #154 ) ;
#158 = DESIGN_CONTEXT ( 'detailed design', #160, 'design' ) ;
#159 = APPLICATION_PROTOCOL_DEFINITION ( 'international standard', 'config_control_design', 1994, #160 ) ;
#160 = APPLICATION_CONTEXT ( 'configuration controlled 3d designs of mechanical parts and assemblies' ) ;
#161 = CC_DESIGN_APPROVAL ( #126, ( #129 ) ) ;
#162 = APPROVAL_DATE_TIME ( #177, #126 ) ;
#163 = DATE_AND_TIME ( #191, #164 ) ;
#164 = LOCAL_TIME ( 16, 28, 33.00000000000000000, #165 ) ;
#165 = COORDINATED_UNIVERSAL_TIME_OFFSET ( 5, 0, .BEHIND. ) ;
#166 = APPROVAL_PERSON_ORGANIZATION ( #157, #183, #182 ) ;
#167 = CC_DESIGN_APPROVAL ( #175, ( #135 ) ) ;
#168 = APPROVAL_DATE_TIME ( #169, #175 ) ;
#169 = DATE_AND_TIME ( #170, #171 ) ;
#170 = CALENDAR_DATE ( 2009, 14, 9 ) ;
#171 = LOCAL_TIME ( 16, 28, 33.00000000000000000, #172 ) ;
#172 = COORDINATED_UNIVERSAL_TIME_OFFSET ( 5, 0, .BEHIND. ) ;
#173 = APPROVAL_PERSON_ORGANIZATION ( #145, #175, #174 ) ;
#174 = APPROVAL_ROLE ( '' ) ;
#175 = APPROVAL ( #176, 'UNSPECIFIED' ) ;
#176 = APPROVAL_STATUS ( 'not_yet_approved' ) ;
#177 = DATE_AND_TIME ( #178, #179 ) ;
#178 = CALENDAR_DATE ( 2009, 14, 9 ) ;
#179 = LOCAL_TIME ( 16, 28, 33.00000000000000000, #180 ) ;
#180 = COORDINATED_UNIVERSAL_TIME_OFFSET ( 5, 0, .BEHIND. ) ;
#181 = APPROVAL_PERSON_ORGANIZATION ( #128, #126, #125 ) ;
#182 = APPROVAL_ROLE ( '' ) ;
#183 = APPROVAL ( #184, 'UNSPECIFIED' ) ;
#184 = APPROVAL_STATUS ( 'not_yet_approved' ) ;
#185 = PRODUCT_DEFINITION ( 'UNKNOWN', '', #129, #158 ) ;
#186 = MECHANICAL_CONTEXT ( 'NONE', #156, 'mechanical' ) ;
#187 = PERSON_AND_ORGANIZATION_ROLE ( 'creator' ) ;
#188 = PERSON_AND_ORGANIZATION ( #199, #154 ) ;
#189 = CC_DESIGN_APPROVAL ( #183, ( #185 ) ) ;
#190 = APPROVAL_DATE_TIME ( #163, #183 ) ;
#191 = CALENDAR_DATE ( 2009, 14, 9 ) ;
#192 = DATE_TIME_ROLE ( 'creation_date' ) ;
#193 = DATE_AND_TIME ( #194, #195 ) ;
#194 = CALENDAR_DATE ( 2009, 14, 9 ) ;
#195 = LOCAL_TIME ( 16, 28, 33.00000000000000000, #196 ) ;
#196 = COORDINATED_UNIVERSAL_TIME_OFFSET ( 5, 0, .BEHIND. ) ;
#197 = PRODUCT ( '20115-E0W', '20115-E0W', '', ( #186 ) ) ;
#198 = PERSON_AND_ORGANIZATION ( #199, #154 ) ;
#199 = PERSON ( 'UNSPECIFIED', 'UNSPECIFIED', 'UNSPECIFIED', ('UNSPECIFIED'), ('UNSPECIFIED'), ('UNSPECIFIED') ) ;
#200 = CC_DESIGN_SECURITY_CLASSIFICATION ( #135, ( #129 ) ) ;
#201 = PERSON_AND_ORGANIZATION_ROLE ( 'design_owner' ) ;
ENDSEC;
END-ISO-10303-21;
