ISO-10303-21;
HEADER;
FILE_DESCRIPTION (( 'STEP AP203' ),
    '1' );
FILE_NAME ('Web Model 20464_20491.step',
    '2022-06-06T20:39:25',
    ( 'WC' ),
    ( 'Windows Central' ),
    'SwSTEP 2.0',
    'SolidWorks 2021',
    '' );
FILE_SCHEMA (( 'CONFIG_CONTROL_DESIGN' ));
ENDSEC;

DATA;
#1 = EDGE_CURVE ( 'NONE', #130, #53, #62, .T. ) ;
#2 = SHAPE_DEFINITION_REPRESENTATION ( #162, #16 ) ;
#3 = DATE_TIME_ROLE ( 'classification_date' ) ;
#4 = PRODUCT_DEFINITION_FORMATION_WITH_SPECIFIED_SOURCE ( 'ANY', '', #113, .NOT_KNOWN. ) ;
#5 = EDGE_CURVE ( 'NONE', #37, #171, #31, .T. ) ;
#6 = PERSON_AND_ORGANIZATION_ROLE ( 'design_supplier' ) ;
#7 = DATE_AND_TIME ( #149, #126 ) ;
#8 = CARTESIAN_POINT ( 'NONE',  ( 6.250000000000000000, 7.654042494670957606E-16, 0.000000000000000000 ) ) ;
#9 = ORIENTED_EDGE ( 'NONE', *, *, #1, .F. ) ;
#10 = DIRECTION ( 'NONE',  ( 0.000000000000000000, 0.000000000000000000, 1.000000000000000000 ) ) ;
#11 = DIRECTION ( 'NONE',  ( 0.000000000000000000, 0.000000000000000000, 1.000000000000000000 ) ) ;
#12 = LOCAL_TIME ( 16, 39, 25.00000000000000000, #15 ) ;
#13 = CIRCLE ( 'NONE', #136, 6.250000000000000000 ) ;
#14 = AXIS2_PLACEMENT_3D ( 'NONE', #108, #141, #71 ) ;
#15 = COORDINATED_UNIVERSAL_TIME_OFFSET ( 5, 0, .BEHIND. ) ;
#16 = ADVANCED_BREP_SHAPE_REPRESENTATION ( 'Web Model 20464_20491', ( #116, #59 ), #159 ) ;
#17 = COORDINATED_UNIVERSAL_TIME_OFFSET ( 5, 0, .BEHIND. ) ;
#18 = PERSON_AND_ORGANIZATION ( #102, #106 ) ;
#19 = DESIGN_CONTEXT ( 'detailed design', #32, 'design' ) ;
#20 = FACE_OUTER_BOUND ( 'NONE', #22, .T. ) ;
#21 = ORIENTED_EDGE ( 'NONE', *, *, #1, .T. ) ;
#22 = EDGE_LOOP ( 'NONE', ( #55, #92 ) ) ;
#23 = AXIS2_PLACEMENT_3D ( 'NONE', #95, #143, #25 ) ;
#24 = DIRECTION ( 'NONE',  ( 0.000000000000000000, 0.000000000000000000, 1.000000000000000000 ) ) ;
#25 = DIRECTION ( 'NONE',  ( 1.000000000000000000, 0.000000000000000000, -0.000000000000000000 ) ) ;
#26 = DIRECTION ( 'NONE',  ( 1.000000000000000000, 0.000000000000000000, 0.000000000000000000 ) ) ;
#27 = APPROVAL_PERSON_ORGANIZATION ( #74, #82, #67 ) ;
#28 = APPROVAL ( #103, 'UNSPECIFIED' ) ;
#29 = VECTOR ( 'NONE', #120, 1000.000000000000000 ) ;
#30 = DATE_AND_TIME ( #135, #134 ) ;
#31 = CIRCLE ( 'NONE', #131, 6.250000000000000000 ) ;
#32 = APPLICATION_CONTEXT ( 'configuration controlled 3d designs of mechanical parts and assemblies' ) ;
#33 = ADVANCED_FACE ( 'NONE', ( #107 ), #155, .T. ) ;
#34 = APPROVAL_DATE_TIME ( #50, #82 ) ;
#35 = APPROVAL_STATUS ( 'not_yet_approved' ) ;
#36 = ORIENTED_EDGE ( 'NONE', *, *, #80, .T. ) ;
#37 = VERTEX_POINT ( 'NONE', #77 ) ;
#38 = PLANE ( 'NONE',  #14 ) ;
#39 = ORIENTED_EDGE ( 'NONE', *, *, #125, .F. ) ;
#40 = CARTESIAN_POINT ( 'NONE',  ( 0.000000000000000000, 0.000000000000000000, 1.000000000000000000 ) ) ;
#41 = DIRECTION ( 'NONE',  ( 0.000000000000000000, 0.000000000000000000, 1.000000000000000000 ) ) ;
#42 = ADVANCED_FACE ( 'NONE', ( #99 ), #69, .T. ) ;
#43 = PERSON_AND_ORGANIZATION ( #102, #106 ) ;
#44 = APPLICATION_PROTOCOL_DEFINITION ( 'international standard', 'config_control_design', 1994, #32 ) ;
#45 = APPROVAL_ROLE ( '' ) ;
#46 = COORDINATED_UNIVERSAL_TIME_OFFSET ( 5, 0, .BEHIND. ) ;
#47 = EDGE_CURVE ( 'NONE', #171, #37, #124, .T. ) ;
#48 = AXIS2_PLACEMENT_3D ( 'NONE', #133, #152, #132 ) ;
#49 = DATE_TIME_ROLE ( 'creation_date' ) ;
#50 = DATE_AND_TIME ( #84, #160 ) ;
#51 = CARTESIAN_POINT ( 'NONE',  ( 0.000000000000000000, 0.000000000000000000, 1.000000000000000000 ) ) ;
#52 = CARTESIAN_POINT ( 'NONE',  ( 6.250000000000000000, 7.654042494670957606E-16, 1.000000000000000000 ) ) ;
#53 = VERTEX_POINT ( 'NONE', #54 ) ;
#54 = CARTESIAN_POINT ( 'NONE',  ( 6.250000000000000000, 7.654042494670957606E-16, 1.000000000000000000 ) ) ;
#55 = ORIENTED_EDGE ( 'NONE', *, *, #5, .F. ) ;
#56 = ADVANCED_FACE ( 'NONE', ( #123 ), #72, .T. ) ;
#57 = MECHANICAL_CONTEXT ( 'NONE', #110, 'mechanical' ) ;
#58 = EDGE_LOOP ( 'NONE', ( #109, #90, #153, #118 ) ) ;
#59 = AXIS2_PLACEMENT_3D ( 'NONE', #169, #24, #144 ) ;
#60 = LINE ( 'NONE', #93, #29 ) ;
#61 = CC_DESIGN_PERSON_AND_ORGANIZATION_ASSIGNMENT ( #148, #6, ( #4 ) ) ;
#62 = CIRCLE ( 'NONE', #73, 6.250000000000000000 ) ;
#63 = APPROVAL_STATUS ( 'not_yet_approved' ) ;
#64 = SECURITY_CLASSIFICATION ( '', '', #83 ) ;
#65 = CC_DESIGN_DATE_AND_TIME_ASSIGNMENT ( #30, #3, ( #64 ) ) ;
#66 = PERSON_AND_ORGANIZATION ( #102, #106 ) ;
#67 = APPROVAL_ROLE ( '' ) ;
#68 = AXIS2_PLACEMENT_3D ( 'NONE', #97, #173, #139 ) ;
#69 = CYLINDRICAL_SURFACE ( 'NONE', #68, 6.250000000000000000 ) ;
#70 = DIRECTION ( 'NONE',  ( 1.000000000000000000, 0.000000000000000000, 0.000000000000000000 ) ) ;
#71 = DIRECTION ( 'NONE',  ( 1.000000000000000000, 0.000000000000000000, -0.000000000000000000 ) ) ;
#72 = CYLINDRICAL_SURFACE ( 'NONE', #94, 6.250000000000000000 ) ;
#73 = AXIS2_PLACEMENT_3D ( 'NONE', #51, #10, #140 ) ;
#74 = PERSON_AND_ORGANIZATION ( #102, #106 ) ;
#75 = APPROVAL_DATE_TIME ( #165, #28 ) ;
#76 =( LENGTH_UNIT ( ) NAMED_UNIT ( * ) SI_UNIT ( .MILLI., .METRE. ) );
#77 = CARTESIAN_POINT ( 'NONE',  ( -6.250000000000000000, 0.000000000000000000, 0.000000000000000000 ) ) ;
#78 = CC_DESIGN_PERSON_AND_ORGANIZATION_ASSIGNMENT ( #66, #115, ( #64 ) ) ;
#79 = CC_DESIGN_SECURITY_CLASSIFICATION ( #64, ( #4 ) ) ;
#80 = EDGE_CURVE ( 'NONE', #53, #130, #13, .T. ) ;
#81 = PERSON_AND_ORGANIZATION ( #102, #106 ) ;
#82 = APPROVAL ( #35, 'UNSPECIFIED' ) ;
#83 = SECURITY_CLASSIFICATION_LEVEL ( 'unclassified' ) ;
#84 = CALENDAR_DATE ( 2022, 6, 6 ) ;
#85 = CARTESIAN_POINT ( 'NONE',  ( 0.000000000000000000, 0.000000000000000000, 0.000000000000000000 ) ) ;
#86 = CC_DESIGN_APPROVAL ( #28, ( #4 ) ) ;
#87 = UNCERTAINTY_MEASURE_WITH_UNIT (LENGTH_MEASURE( 1.000000000000000082E-05 ), #76, 'distance_accuracy_value', 'NONE');
#88 = LOCAL_TIME ( 16, 39, 25.00000000000000000, #17 ) ;
#89 = CARTESIAN_POINT ( 'NONE',  ( 0.000000000000000000, 0.000000000000000000, 1.000000000000000000 ) ) ;
#90 = ORIENTED_EDGE ( 'NONE', *, *, #125, .T. ) ;
#91 = DIRECTION ( 'NONE',  ( -1.000000000000000000, 0.000000000000000000, 0.000000000000000000 ) ) ;
#92 = ORIENTED_EDGE ( 'NONE', *, *, #47, .F. ) ;
#93 = CARTESIAN_POINT ( 'NONE',  ( -6.250000000000000000, 0.000000000000000000, 1.000000000000000000 ) ) ;
#94 = AXIS2_PLACEMENT_3D ( 'NONE', #40, #154, #91 ) ;
#95 = CARTESIAN_POINT ( 'NONE',  ( 0.000000000000000000, 0.000000000000000000, 1.000000000000000000 ) ) ;
#96 = PERSON_AND_ORGANIZATION_ROLE ( 'design_owner' ) ;
#97 = CARTESIAN_POINT ( 'NONE',  ( 0.000000000000000000, 0.000000000000000000, 1.000000000000000000 ) ) ;
#98 = APPROVAL_PERSON_ORGANIZATION ( #81, #161, #45 ) ;
#99 = FACE_OUTER_BOUND ( 'NONE', #58, .T. ) ;
#100 = DATE_AND_TIME ( #147, #12 ) ;
#101 = PRODUCT_RELATED_PRODUCT_CATEGORY ( 'detail', '', ( #113 ) ) ;
#102 = PERSON ( 'UNSPECIFIED', 'UNSPECIFIED', 'UNSPECIFIED', ('UNSPECIFIED'), ('UNSPECIFIED'), ('UNSPECIFIED') ) ;
#103 = APPROVAL_STATUS ( 'not_yet_approved' ) ;
#104 = PERSON_AND_ORGANIZATION ( #102, #106 ) ;
#105 = ORIENTED_EDGE ( 'NONE', *, *, #122, .T. ) ;
#106 = ORGANIZATION ( 'UNSPECIFIED', 'UNSPECIFIED', '' ) ;
#107 = FACE_OUTER_BOUND ( 'NONE', #150, .T. ) ;
#108 = CARTESIAN_POINT ( 'NONE',  ( 0.000000000000000000, 0.000000000000000000, 0.000000000000000000 ) ) ;
#109 = ORIENTED_EDGE ( 'NONE', *, *, #80, .F. ) ;
#110 = APPLICATION_CONTEXT ( 'configuration controlled 3d designs of mechanical parts and assemblies' ) ;
#111 = CLOSED_SHELL ( 'NONE', ( #42, #56, #33, #158 ) ) ;
#112 = APPROVAL_DATE_TIME ( #100, #161 ) ;
#113 = PRODUCT ( 'Web Model 20464_20491', 'Web Model 20464_20491', '', ( #57 ) ) ;
#114 = CC_DESIGN_APPROVAL ( #161, ( #64 ) ) ;
#115 = PERSON_AND_ORGANIZATION_ROLE ( 'classification_officer' ) ;
#116 = MANIFOLD_SOLID_BREP ( 'Boss-Extrude1', #111 ) ;
#117 = COORDINATED_UNIVERSAL_TIME_OFFSET ( 5, 0, .BEHIND. ) ;
#118 = ORIENTED_EDGE ( 'NONE', *, *, #122, .F. ) ;
#119 = LINE ( 'NONE', #52, #163 ) ;
#120 = DIRECTION ( 'NONE',  ( -0.000000000000000000, -0.000000000000000000, -1.000000000000000000 ) ) ;
#121 = PRODUCT_DEFINITION ( 'UNKNOWN', '', #4, #19 ) ;
#122 = EDGE_CURVE ( 'NONE', #130, #37, #60, .T. ) ;
#123 = FACE_OUTER_BOUND ( 'NONE', #168, .T. ) ;
#124 = CIRCLE ( 'NONE', #48, 6.250000000000000000 ) ;
#125 = EDGE_CURVE ( 'NONE', #53, #171, #119, .T. ) ;
#126 = LOCAL_TIME ( 16, 39, 25.00000000000000000, #117 ) ;
#127 = CALENDAR_DATE ( 2022, 6, 6 ) ;
#128 = CC_DESIGN_PERSON_AND_ORGANIZATION_ASSIGNMENT ( #18, #129, ( #121 ) ) ;
#129 = PERSON_AND_ORGANIZATION_ROLE ( 'creator' ) ;
#130 = VERTEX_POINT ( 'NONE', #145 ) ;
#131 = AXIS2_PLACEMENT_3D ( 'NONE', #85, #41, #70 ) ;
#132 = DIRECTION ( 'NONE',  ( 1.000000000000000000, 0.000000000000000000, 0.000000000000000000 ) ) ;
#133 = CARTESIAN_POINT ( 'NONE',  ( 0.000000000000000000, 0.000000000000000000, 0.000000000000000000 ) ) ;
#134 = LOCAL_TIME ( 16, 39, 25.00000000000000000, #46 ) ;
#135 = CALENDAR_DATE ( 2022, 6, 6 ) ;
#136 = AXIS2_PLACEMENT_3D ( 'NONE', #89, #11, #26 ) ;
#137 = PERSON_AND_ORGANIZATION ( #102, #106 ) ;
#138 = COORDINATED_UNIVERSAL_TIME_OFFSET ( 5, 0, .BEHIND. ) ;
#139 = DIRECTION ( 'NONE',  ( -1.000000000000000000, 0.000000000000000000, 0.000000000000000000 ) ) ;
#140 = DIRECTION ( 'NONE',  ( 1.000000000000000000, 0.000000000000000000, 0.000000000000000000 ) ) ;
#141 = DIRECTION ( 'NONE',  ( 0.000000000000000000, 0.000000000000000000, 1.000000000000000000 ) ) ;
#142 = APPLICATION_PROTOCOL_DEFINITION ( 'international standard', 'config_control_design', 1994, #110 ) ;
#143 = DIRECTION ( 'NONE',  ( 0.000000000000000000, 0.000000000000000000, 1.000000000000000000 ) ) ;
#144 = DIRECTION ( 'NONE',  ( 1.000000000000000000, 0.000000000000000000, 0.000000000000000000 ) ) ;
#145 = CARTESIAN_POINT ( 'NONE',  ( -6.250000000000000000, 0.000000000000000000, 1.000000000000000000 ) ) ;
#146 = CC_DESIGN_PERSON_AND_ORGANIZATION_ASSIGNMENT ( #43, #96, ( #113 ) ) ;
#147 = CALENDAR_DATE ( 2022, 6, 6 ) ;
#148 = PERSON_AND_ORGANIZATION ( #102, #106 ) ;
#149 = CALENDAR_DATE ( 2022, 6, 6 ) ;
#150 = EDGE_LOOP ( 'NONE', ( #21, #36 ) ) ;
#151 = CC_DESIGN_APPROVAL ( #82, ( #121 ) ) ;
#152 = DIRECTION ( 'NONE',  ( 0.000000000000000000, 0.000000000000000000, 1.000000000000000000 ) ) ;
#153 = ORIENTED_EDGE ( 'NONE', *, *, #47, .T. ) ;
#154 = DIRECTION ( 'NONE',  ( -0.000000000000000000, -0.000000000000000000, -1.000000000000000000 ) ) ;
#155 = PLANE ( 'NONE',  #23 ) ;
#156 = DIRECTION ( 'NONE',  ( -0.000000000000000000, -0.000000000000000000, -1.000000000000000000 ) ) ;
#157 = CC_DESIGN_PERSON_AND_ORGANIZATION_ASSIGNMENT ( #104, #167, ( #4 ) ) ;
#158 = ADVANCED_FACE ( 'NONE', ( #20 ), #38, .F. ) ;
#159 =( GEOMETRIC_REPRESENTATION_CONTEXT ( 3 ) GLOBAL_UNCERTAINTY_ASSIGNED_CONTEXT ( ( #87 ) ) GLOBAL_UNIT_ASSIGNED_CONTEXT ( ( #76, #170, #172 ) ) REPRESENTATION_CONTEXT ( 'NONE', 'WORKASPACE' ) );
#160 = LOCAL_TIME ( 16, 39, 25.00000000000000000, #138 ) ;
#161 = APPROVAL ( #63, 'UNSPECIFIED' ) ;
#162 = PRODUCT_DEFINITION_SHAPE ( 'NONE', 'NONE',  #121 ) ;
#163 = VECTOR ( 'NONE', #156, 1000.000000000000000 ) ;
#164 = APPROVAL_ROLE ( '' ) ;
#165 = DATE_AND_TIME ( #127, #88 ) ;
#166 = ORIENTED_EDGE ( 'NONE', *, *, #5, .T. ) ;
#167 = PERSON_AND_ORGANIZATION_ROLE ( 'creator' ) ;
#168 = EDGE_LOOP ( 'NONE', ( #39, #9, #105, #166 ) ) ;
#169 = CARTESIAN_POINT ( 'NONE',  ( 0.000000000000000000, 0.000000000000000000, 0.000000000000000000 ) ) ;
#170 =( NAMED_UNIT ( * ) PLANE_ANGLE_UNIT ( ) SI_UNIT ( $, .RADIAN. ) );
#171 = VERTEX_POINT ( 'NONE', #8 ) ;
#172 =( NAMED_UNIT ( * ) SI_UNIT ( $, .STERADIAN. ) SOLID_ANGLE_UNIT ( ) );
#173 = DIRECTION ( 'NONE',  ( -0.000000000000000000, -0.000000000000000000, -1.000000000000000000 ) ) ;
#174 = CC_DESIGN_DATE_AND_TIME_ASSIGNMENT ( #7, #49, ( #121 ) ) ;
#175 = APPROVAL_PERSON_ORGANIZATION ( #137, #28, #164 ) ;
ENDSEC;
END-ISO-10303-21;
