ISO-10303-21;
HEADER;
FILE_DESCRIPTION (( 'STEP AP203' ),
    '1' );
FILE_NAME ('Web Model 15403_15403.step',
    '2020-09-02T13:04:43',
    ( '' ),
    ( '' ),
    'SwSTEP 2.0',
    'SolidWorks 2018',
    '' );
FILE_SCHEMA (( 'CONFIG_CONTROL_DESIGN' ));
ENDSEC;

DATA;
#1 = PERSON_AND_ORGANIZATION ( #154, #153 ) ;
#2 = AXIS2_PLACEMENT_3D ( 'NONE', #101, #77, #126 ) ;
#3 = LINE ( 'NONE', #62, #87 ) ;
#4 = CC_DESIGN_DATE_AND_TIME_ASSIGNMENT ( #139, #132, ( #59 ) ) ;
#5 = APPROVAL_PERSON_ORGANIZATION ( #32, #15, #173 ) ;
#6 =( NAMED_UNIT ( * ) PLANE_ANGLE_UNIT ( ) SI_UNIT ( $, .RADIAN. ) );
#7 = PLANE ( 'NONE',  #158 ) ;
#8 = APPROVAL_PERSON_ORGANIZATION ( #147, #70, #118 ) ;
#9 = CARTESIAN_POINT ( 'NONE',  ( 0.0000000000000000000, 0.0000000000000000000, 0.0000000000000000000 ) ) ;
#10 = CC_DESIGN_APPROVAL ( #151, ( #28 ) ) ;
#11 = CARTESIAN_POINT ( 'NONE',  ( -1.500000000000000000, 0.0000000000000000000, 12.69999999999999929 ) ) ;
#12 = CARTESIAN_POINT ( 'NONE',  ( 1.500000000000000000, 0.0000000000000000000, 0.0000000000000000000 ) ) ;
#13 =( GEOMETRIC_REPRESENTATION_CONTEXT ( 3 ) GLOBAL_UNCERTAINTY_ASSIGNED_CONTEXT ( ( #152 ) ) GLOBAL_UNIT_ASSIGNED_CONTEXT ( ( #115, #6, #143 ) ) REPRESENTATION_CONTEXT ( 'NONE', 'WORKASPACE' ) );
#14 = DATE_AND_TIME ( #86, #97 ) ;
#15 = APPROVAL ( #26, 'UNSPECIFIED' ) ;
#16 = EDGE_LOOP ( 'NONE', ( #164, #50 ) ) ;
#17 = SHAPE_DEFINITION_REPRESENTATION ( #68, #54 ) ;
#18 = ADVANCED_FACE ( 'NONE', ( #48 ), #40, .T. ) ;
#19 = DESIGN_CONTEXT ( 'detailed design', #116, 'design' ) ;
#20 = EDGE_LOOP ( 'NONE', ( #27, #135 ) ) ;
#21 = DIRECTION ( 'NONE',  ( 0.0000000000000000000, 0.0000000000000000000, 1.000000000000000000 ) ) ;
#22 = MECHANICAL_CONTEXT ( 'NONE', #171, 'mechanical' ) ;
#23 = FACE_OUTER_BOUND ( 'NONE', #73, .T. ) ;
#24 = AXIS2_PLACEMENT_3D ( 'NONE', #142, #90, #45 ) ;
#25 = PERSON_AND_ORGANIZATION ( #154, #153 ) ;
#26 = APPROVAL_STATUS ( 'not_yet_approved' ) ;
#27 = ORIENTED_EDGE ( 'NONE', *, *, #136, .T. ) ;
#28 = PRODUCT_DEFINITION_FORMATION_WITH_SPECIFIED_SOURCE ( 'ANY', '', #35, .NOT_KNOWN. ) ;
#29 = LOCAL_TIME ( 9, 4, 43.00000000000000000, #133 ) ;
#30 = ORIENTED_EDGE ( 'NONE', *, *, #123, .T. ) ;
#31 = AXIS2_PLACEMENT_3D ( 'NONE', #92, #141, #172 ) ;
#32 = PERSON_AND_ORGANIZATION ( #154, #153 ) ;
#33 = AXIS2_PLACEMENT_3D ( 'NONE', #12, #104, #21 ) ;
#34 = CC_DESIGN_DATE_AND_TIME_ASSIGNMENT ( #39, #37, ( #44 ) ) ;
#35 = PRODUCT ( 'Web Model 15403_15403', 'Web Model 15403_15403', '', ( #22 ) ) ;
#36 = EDGE_CURVE ( 'NONE', #82, #84, #58, .T. ) ;
#37 = DATE_TIME_ROLE ( 'classification_date' ) ;
#38 = PERSON_AND_ORGANIZATION_ROLE ( 'design_supplier' ) ;
#39 = DATE_AND_TIME ( #137, #69 ) ;
#40 = CYLINDRICAL_SURFACE ( 'NONE', #24, 12.69999999999999929 ) ;
#41 = AXIS2_PLACEMENT_3D ( 'NONE', #9, #103, #79 ) ;
#42 = ORIENTED_EDGE ( 'NONE', *, *, #74, .T. ) ;
#43 = CIRCLE ( 'NONE', #2, 12.69999999999999929 ) ;
#44 = SECURITY_CLASSIFICATION ( '', '', #52 ) ;
#45 = DIRECTION ( 'NONE',  ( 0.0000000000000000000, 0.0000000000000000000, 1.000000000000000000 ) ) ;
#46 = CARTESIAN_POINT ( 'NONE',  ( -1.500000000000000000, 0.0000000000000000000, 0.0000000000000000000 ) ) ;
#47 = LOCAL_TIME ( 9, 4, 43.00000000000000000, #111 ) ;
#48 = FACE_OUTER_BOUND ( 'NONE', #175, .T. ) ;
#49 = DIRECTION ( 'NONE',  ( 1.000000000000000000, 0.0000000000000000000, 0.0000000000000000000 ) ) ;
#50 = ORIENTED_EDGE ( 'NONE', *, *, #156, .F. ) ;
#51 = APPROVAL_STATUS ( 'not_yet_approved' ) ;
#52 = SECURITY_CLASSIFICATION_LEVEL ( 'unclassified' ) ;
#53 = FACE_OUTER_BOUND ( 'NONE', #20, .T. ) ;
#54 = ADVANCED_BREP_SHAPE_REPRESENTATION ( 'Web Model 15403_15403', ( #108, #41 ), #13 ) ;
#55 = CC_DESIGN_PERSON_AND_ORGANIZATION_ASSIGNMENT ( #166, #146, ( #44 ) ) ;
#56 = FACE_OUTER_BOUND ( 'NONE', #16, .T. ) ;
#57 = PERSON_AND_ORGANIZATION ( #154, #153 ) ;
#58 = CIRCLE ( 'NONE', #31, 12.69999999999999929 ) ;
#59 = PRODUCT_DEFINITION ( 'UNKNOWN', '', #28, #19 ) ;
#60 = APPROVAL_DATE_TIME ( #71, #15 ) ;
#61 = ADVANCED_FACE ( 'NONE', ( #56 ), #75, .F. ) ;
#62 = CARTESIAN_POINT ( 'NONE',  ( 1.500000000000000000, 1.555301434917138433E-15, -12.69999999999999929 ) ) ;
#63 = DIRECTION ( 'NONE',  ( 1.000000000000000000, 0.0000000000000000000, 0.0000000000000000000 ) ) ;
#64 = COORDINATED_UNIVERSAL_TIME_OFFSET ( 5, 0, .BEHIND. ) ;
#65 = CYLINDRICAL_SURFACE ( 'NONE', #33, 12.69999999999999929 ) ;
#66 = CARTESIAN_POINT ( 'NONE',  ( 1.500000000000000000, 0.0000000000000000000, 12.69999999999999929 ) ) ;
#67 = APPROVAL_STATUS ( 'not_yet_approved' ) ;
#68 = PRODUCT_DEFINITION_SHAPE ( 'NONE', 'NONE',  #59 ) ;
#69 = LOCAL_TIME ( 9, 4, 43.00000000000000000, #106 ) ;
#70 = APPROVAL ( #51, 'UNSPECIFIED' ) ;
#71 = DATE_AND_TIME ( #144, #109 ) ;
#72 = CALENDAR_DATE ( 2020, 2, 9 ) ;
#73 = EDGE_LOOP ( 'NONE', ( #121, #99, #30, #83 ) ) ;
#74 = EDGE_CURVE ( 'NONE', #82, #155, #3, .T. ) ;
#75 = PLANE ( 'NONE',  #95 ) ;
#76 = APPROVAL_PERSON_ORGANIZATION ( #163, #151, #94 ) ;
#77 = DIRECTION ( 'NONE',  ( 1.000000000000000000, 0.0000000000000000000, 0.0000000000000000000 ) ) ;
#78 = ORIENTED_EDGE ( 'NONE', *, *, #156, .T. ) ;
#79 = DIRECTION ( 'NONE',  ( 1.000000000000000000, 0.0000000000000000000, 0.0000000000000000000 ) ) ;
#80 = DIRECTION ( 'NONE',  ( 0.0000000000000000000, 0.0000000000000000000, -1.000000000000000000 ) ) ;
#81 = CC_DESIGN_SECURITY_CLASSIFICATION ( #44, ( #28 ) ) ;
#82 = VERTEX_POINT ( 'NONE', #124 ) ;
#83 = ORIENTED_EDGE ( 'NONE', *, *, #148, .T. ) ;
#84 = VERTEX_POINT ( 'NONE', #113 ) ;
#85 = ADVANCED_FACE ( 'NONE', ( #53 ), #7, .T. ) ;
#86 = CALENDAR_DATE ( 2020, 2, 9 ) ;
#87 = VECTOR ( 'NONE', #114, 1000.000000000000000 ) ;
#88 = CARTESIAN_POINT ( 'NONE',  ( -1.500000000000000000, 1.555301434917138433E-15, -12.69999999999999929 ) ) ;
#89 = APPLICATION_PROTOCOL_DEFINITION ( 'international standard', 'config_control_design', 1994, #171 ) ;
#90 = DIRECTION ( 'NONE',  ( -1.000000000000000000, -0.0000000000000000000, -0.0000000000000000000 ) ) ;
#91 = CC_DESIGN_PERSON_AND_ORGANIZATION_ASSIGNMENT ( #25, #130, ( #59 ) ) ;
#92 = CARTESIAN_POINT ( 'NONE',  ( 1.500000000000000000, 0.0000000000000000000, 0.0000000000000000000 ) ) ;
#93 = PERSON_AND_ORGANIZATION_ROLE ( 'creator' ) ;
#94 = APPROVAL_ROLE ( '' ) ;
#95 = AXIS2_PLACEMENT_3D ( 'NONE', #157, #49, #105 ) ;
#96 = CC_DESIGN_PERSON_AND_ORGANIZATION_ASSIGNMENT ( #57, #93, ( #28 ) ) ;
#97 = LOCAL_TIME ( 9, 4, 43.00000000000000000, #64 ) ;
#98 = APPROVAL_DATE_TIME ( #174, #70 ) ;
#99 = ORIENTED_EDGE ( 'NONE', *, *, #136, .F. ) ;
#100 = AXIS2_PLACEMENT_3D ( 'NONE', #46, #102, #170 ) ;
#101 = CARTESIAN_POINT ( 'NONE',  ( -1.500000000000000000, 0.0000000000000000000, 0.0000000000000000000 ) ) ;
#102 = DIRECTION ( 'NONE',  ( 1.000000000000000000, 0.0000000000000000000, 0.0000000000000000000 ) ) ;
#103 = DIRECTION ( 'NONE',  ( 0.0000000000000000000, 0.0000000000000000000, 1.000000000000000000 ) ) ;
#104 = DIRECTION ( 'NONE',  ( -1.000000000000000000, -0.0000000000000000000, -0.0000000000000000000 ) ) ;
#105 = DIRECTION ( 'NONE',  ( 0.0000000000000000000, 0.0000000000000000000, -1.000000000000000000 ) ) ;
#106 = COORDINATED_UNIVERSAL_TIME_OFFSET ( 5, 0, .BEHIND. ) ;
#107 = CLOSED_SHELL ( 'NONE', ( #18, #169, #85, #61 ) ) ;
#108 = MANIFOLD_SOLID_BREP ( 'Boss-Extrude1', #107 ) ;
#109 = LOCAL_TIME ( 9, 4, 43.00000000000000000, #119 ) ;
#110 = CC_DESIGN_APPROVAL ( #70, ( #59 ) ) ;
#111 = COORDINATED_UNIVERSAL_TIME_OFFSET ( 5, 0, .BEHIND. ) ;
#112 = CC_DESIGN_APPROVAL ( #15, ( #44 ) ) ;
#113 = CARTESIAN_POINT ( 'NONE',  ( 1.500000000000000000, 0.0000000000000000000, 12.69999999999999929 ) ) ;
#114 = DIRECTION ( 'NONE',  ( -1.000000000000000000, -0.0000000000000000000, -0.0000000000000000000 ) ) ;
#115 =( LENGTH_UNIT ( ) NAMED_UNIT ( * ) SI_UNIT ( .MILLI., .METRE. ) );
#116 = APPLICATION_CONTEXT ( 'configuration controlled 3d designs of mechanical parts and assemblies' ) ;
#117 = PRODUCT_RELATED_PRODUCT_CATEGORY ( 'detail', '', ( #35 ) ) ;
#118 = APPROVAL_ROLE ( '' ) ;
#119 = COORDINATED_UNIVERSAL_TIME_OFFSET ( 5, 0, .BEHIND. ) ;
#120 = VECTOR ( 'NONE', #168, 1000.000000000000000 ) ;
#121 = ORIENTED_EDGE ( 'NONE', *, *, #74, .F. ) ;
#122 = ORIENTED_EDGE ( 'NONE', *, *, #36, .F. ) ;
#123 = EDGE_CURVE ( 'NONE', #84, #161, #140, .T. ) ;
#124 = CARTESIAN_POINT ( 'NONE',  ( 1.500000000000000000, 1.555301434917138433E-15, -12.69999999999999929 ) ) ;
#125 = DIRECTION ( 'NONE',  ( 1.000000000000000000, 0.0000000000000000000, 0.0000000000000000000 ) ) ;
#126 = DIRECTION ( 'NONE',  ( 0.0000000000000000000, 0.0000000000000000000, -1.000000000000000000 ) ) ;
#127 = APPROVAL_DATE_TIME ( #14, #151 ) ;
#128 = CARTESIAN_POINT ( 'NONE',  ( 1.500000000000000000, 0.0000000000000000000, 0.0000000000000000000 ) ) ;
#129 = CIRCLE ( 'NONE', #162, 12.69999999999999929 ) ;
#130 = PERSON_AND_ORGANIZATION_ROLE ( 'creator' ) ;
#131 = APPLICATION_PROTOCOL_DEFINITION ( 'international standard', 'config_control_design', 1994, #116 ) ;
#132 = DATE_TIME_ROLE ( 'creation_date' ) ;
#133 = COORDINATED_UNIVERSAL_TIME_OFFSET ( 5, 0, .BEHIND. ) ;
#134 = PERSON_AND_ORGANIZATION ( #154, #153 ) ;
#135 = ORIENTED_EDGE ( 'NONE', *, *, #36, .T. ) ;
#136 = EDGE_CURVE ( 'NONE', #84, #82, #129, .T. ) ;
#137 = CALENDAR_DATE ( 2020, 2, 9 ) ;
#138 = CC_DESIGN_PERSON_AND_ORGANIZATION_ASSIGNMENT ( #134, #149, ( #35 ) ) ;
#139 = DATE_AND_TIME ( #72, #47 ) ;
#140 = LINE ( 'NONE', #66, #120 ) ;
#141 = DIRECTION ( 'NONE',  ( 1.000000000000000000, 0.0000000000000000000, 0.0000000000000000000 ) ) ;
#142 = CARTESIAN_POINT ( 'NONE',  ( 1.500000000000000000, 0.0000000000000000000, 0.0000000000000000000 ) ) ;
#143 =( NAMED_UNIT ( * ) SI_UNIT ( $, .STERADIAN. ) SOLID_ANGLE_UNIT ( ) );
#144 = CALENDAR_DATE ( 2020, 2, 9 ) ;
#145 = CARTESIAN_POINT ( 'NONE',  ( 1.500000000000000000, 0.0000000000000000000, 0.0000000000000000000 ) ) ;
#146 = PERSON_AND_ORGANIZATION_ROLE ( 'classification_officer' ) ;
#147 = PERSON_AND_ORGANIZATION ( #154, #153 ) ;
#148 = EDGE_CURVE ( 'NONE', #161, #155, #43, .T. ) ;
#149 = PERSON_AND_ORGANIZATION_ROLE ( 'design_owner' ) ;
#150 = CALENDAR_DATE ( 2020, 2, 9 ) ;
#151 = APPROVAL ( #67, 'UNSPECIFIED' ) ;
#152 = UNCERTAINTY_MEASURE_WITH_UNIT (LENGTH_MEASURE( 1.000000000000000082E-05 ), #115, 'distance_accuracy_value', 'NONE');
#153 = ORGANIZATION ( 'UNSPECIFIED', 'UNSPECIFIED', '' ) ;
#154 = PERSON ( 'UNSPECIFIED', 'UNSPECIFIED', 'UNSPECIFIED', ('UNSPECIFIED'), ('UNSPECIFIED'), ('UNSPECIFIED') ) ;
#155 = VERTEX_POINT ( 'NONE', #88 ) ;
#156 = EDGE_CURVE ( 'NONE', #155, #161, #160, .T. ) ;
#157 = CARTESIAN_POINT ( 'NONE',  ( -1.500000000000000000, 0.0000000000000000000, 0.0000000000000000000 ) ) ;
#158 = AXIS2_PLACEMENT_3D ( 'NONE', #145, #125, #80 ) ;
#159 = ORIENTED_EDGE ( 'NONE', *, *, #123, .F. ) ;
#160 = CIRCLE ( 'NONE', #100, 12.69999999999999929 ) ;
#161 = VERTEX_POINT ( 'NONE', #11 ) ;
#162 = AXIS2_PLACEMENT_3D ( 'NONE', #128, #63, #167 ) ;
#163 = PERSON_AND_ORGANIZATION ( #154, #153 ) ;
#164 = ORIENTED_EDGE ( 'NONE', *, *, #148, .F. ) ;
#165 = CC_DESIGN_PERSON_AND_ORGANIZATION_ASSIGNMENT ( #1, #38, ( #28 ) ) ;
#166 = PERSON_AND_ORGANIZATION ( #154, #153 ) ;
#167 = DIRECTION ( 'NONE',  ( 0.0000000000000000000, 0.0000000000000000000, -1.000000000000000000 ) ) ;
#168 = DIRECTION ( 'NONE',  ( -1.000000000000000000, -0.0000000000000000000, -0.0000000000000000000 ) ) ;
#169 = ADVANCED_FACE ( 'NONE', ( #23 ), #65, .T. ) ;
#170 = DIRECTION ( 'NONE',  ( 0.0000000000000000000, 0.0000000000000000000, -1.000000000000000000 ) ) ;
#171 = APPLICATION_CONTEXT ( 'configuration controlled 3d designs of mechanical parts and assemblies' ) ;
#172 = DIRECTION ( 'NONE',  ( 0.0000000000000000000, 0.0000000000000000000, -1.000000000000000000 ) ) ;
#173 = APPROVAL_ROLE ( '' ) ;
#174 = DATE_AND_TIME ( #150, #29 ) ;
#175 = EDGE_LOOP ( 'NONE', ( #122, #42, #78, #159 ) ) ;
ENDSEC;
END-ISO-10303-21;
