ISO-10303-21;
HEADER;
FILE_DESCRIPTION (( 'STEP AP203' ),
    '1' );
FILE_NAME ('Web Model 64397MX_43744.step',
    '2017-10-30T13:00:17',
    ( '' ),
    ( '' ),
    'SwSTEP 2.0',
    'SolidWorks 2016',
    '' );
FILE_SCHEMA (( 'CONFIG_CONTROL_DESIGN' ));
ENDSEC;

DATA;
#1 = CC_DESIGN_PERSON_AND_ORGANIZATION_ASSIGNMENT ( #30, #178, ( #146 ) ) ;
#2 = VERTEX_POINT ( 'NONE', #202 ) ;
#3 = EDGE_CURVE ( 'NONE', #185, #2, #91, .T. ) ;
#4 = PERSON_AND_ORGANIZATION_ROLE ( 'classification_officer' ) ;
#5 = APPROVAL_PERSON_ORGANIZATION ( #59, #166, #57 ) ;
#6 = CARTESIAN_POINT ( 'NONE',  ( -6.350000000000000500, 6.349999999999998800, 3.000000000000000000 ) ) ;
#7 = MANIFOLD_SOLID_BREP ( 'Boss-Extrude1', #80 ) ;
#8 = APPROVAL_DATE_TIME ( #62, #156 ) ;
#9 = ORIENTED_EDGE ( 'NONE', *, *, #3, .T. ) ;
#10 = LOCAL_TIME ( 9, 0, 17.00000000000000000, #236 ) ;
#11 = LINE ( 'NONE', #26, #79 ) ;
#12 = PLANE ( 'NONE',  #92 ) ;
#13 = SECURITY_CLASSIFICATION ( '', '', #183 ) ;
#14 = DIRECTION ( 'NONE',  ( 0.0000000000000000000, -0.0000000000000000000, 1.000000000000000000 ) ) ;
#15 = DIRECTION ( 'NONE',  ( 0.0000000000000000000, 1.000000000000000000, 0.0000000000000000000 ) ) ;
#16 = VECTOR ( 'NONE', #97, 1000.000000000000000 ) ;
#17 = ORIENTED_EDGE ( 'NONE', *, *, #55, .T. ) ;
#18 = DIRECTION ( 'NONE',  ( 1.000000000000000000, 0.0000000000000000000, 0.0000000000000000000 ) ) ;
#19 = APPLICATION_CONTEXT ( 'configuration controlled 3d designs of mechanical parts and assemblies' ) ;
#20 = APPROVAL_PERSON_ORGANIZATION ( #21, #156, #145 ) ;
#21 = PERSON_AND_ORGANIZATION ( #235, #68 ) ;
#22 = AXIS2_PLACEMENT_3D ( 'NONE', #104, #141, #32 ) ;
#23 = VERTEX_POINT ( 'NONE', #201 ) ;
#24 = CC_DESIGN_DATE_AND_TIME_ASSIGNMENT ( #163, #29, ( #13 ) ) ;
#25 = FACE_OUTER_BOUND ( 'NONE', #180, .T. ) ;
#26 = CARTESIAN_POINT ( 'NONE',  ( 6.349999999999998800, -6.349999999999998800, -3.000000000000000000 ) ) ;
#27 = FACE_OUTER_BOUND ( 'NONE', #75, .T. ) ;
#28 = ORIENTED_EDGE ( 'NONE', *, *, #215, .T. ) ;
#29 = DATE_TIME_ROLE ( 'classification_date' ) ;
#30 = PERSON_AND_ORGANIZATION ( #235, #68 ) ;
#31 = ADVANCED_BREP_SHAPE_REPRESENTATION ( 'Web Model 64397MX_43744', ( #7, #42 ), #121 ) ;
#32 = DIRECTION ( 'NONE',  ( -1.000000000000000000, -1.365923996832131600E-016, 0.0000000000000000000 ) ) ;
#33 = EDGE_LOOP ( 'NONE', ( #186, #85, #138, #169 ) ) ;
#34 = EDGE_CURVE ( 'NONE', #2, #46, #38, .T. ) ;
#35 = CARTESIAN_POINT ( 'NONE',  ( 0.0000000000000000000, 0.0000000000000000000, 0.0000000000000000000 ) ) ;
#36 = CARTESIAN_POINT ( 'NONE',  ( 6.349999999999998800, -6.349999999999998800, 3.000000000000000000 ) ) ;
#37 = PLANE ( 'NONE',  #115 ) ;
#38 = LINE ( 'NONE', #182, #67 ) ;
#39 = APPROVAL_STATUS ( 'not_yet_approved' ) ;
#40 = VECTOR ( 'NONE', #176, 1000.000000000000000 ) ;
#41 = CC_DESIGN_SECURITY_CLASSIFICATION ( #13, ( #146 ) ) ;
#42 = AXIS2_PLACEMENT_3D ( 'NONE', #35, #161, #132 ) ;
#43 = COORDINATED_UNIVERSAL_TIME_OFFSET ( 5, 0, .BEHIND. ) ;
#44 = CARTESIAN_POINT ( 'NONE',  ( 6.349999999999998800, -6.349999999999998800, 3.000000000000000000 ) ) ;
#45 = AXIS2_PLACEMENT_3D ( 'NONE', #53, #18, #123 ) ;
#46 = VERTEX_POINT ( 'NONE', #220 ) ;
#47 = EDGE_CURVE ( 'NONE', #96, #54, #103, .T. ) ;
#48 = CALENDAR_DATE ( 2017, 30, 10 ) ;
#49 = ORIENTED_EDGE ( 'NONE', *, *, #168, .F. ) ;
#50 = DIRECTION ( 'NONE',  ( 1.000000000000000000, 1.365923996832131600E-016, -0.0000000000000000000 ) ) ;
#51 = CARTESIAN_POINT ( 'NONE',  ( 6.349999999999998800, 6.350000000000000500, 3.000000000000000000 ) ) ;
#52 = PRODUCT ( 'Web Model 64397MX_43744', 'Web Model 64397MX_43744', '', ( #197 ) ) ;
#53 = CARTESIAN_POINT ( 'NONE',  ( -6.350000000000000500, -6.350000000000000500, 3.000000000000000000 ) ) ;
#54 = VERTEX_POINT ( 'NONE', #118 ) ;
#55 = EDGE_CURVE ( 'NONE', #23, #125, #217, .T. ) ;
#56 = CARTESIAN_POINT ( 'NONE',  ( -6.350000000000000500, 6.349999999999998800, 3.000000000000000000 ) ) ;
#57 = APPROVAL_ROLE ( '' ) ;
#58 = APPROVAL_PERSON_ORGANIZATION ( #216, #126, #151 ) ;
#59 = PERSON_AND_ORGANIZATION ( #235, #68 ) ;
#60 = ORIENTED_EDGE ( 'NONE', *, *, #215, .F. ) ;
#61 = EDGE_CURVE ( 'NONE', #125, #2, #11, .T. ) ;
#62 = DATE_AND_TIME ( #106, #172 ) ;
#63 = ORIENTED_EDGE ( 'NONE', *, *, #47, .F. ) ;
#64 = PRODUCT_DEFINITION_SHAPE ( 'NONE', 'NONE',  #150 ) ;
#65 = LINE ( 'NONE', #120, #147 ) ;
#66 = CARTESIAN_POINT ( 'NONE',  ( -6.350000000000000500, -6.350000000000000500, 3.000000000000000000 ) ) ;
#67 = VECTOR ( 'NONE', #78, 1000.000000000000000 ) ;
#68 = ORGANIZATION ( 'UNSPECIFIED', 'UNSPECIFIED', '' ) ;
#69 = LINE ( 'NONE', #71, #203 ) ;
#70 = DIRECTION ( 'NONE',  ( 1.365923996832131600E-016, -1.000000000000000000, 0.0000000000000000000 ) ) ;
#71 = CARTESIAN_POINT ( 'NONE',  ( 6.349999999999998800, 6.350000000000000500, -3.000000000000000000 ) ) ;
#72 = DATE_TIME_ROLE ( 'creation_date' ) ;
#73 = EDGE_CURVE ( 'NONE', #96, #23, #65, .T. ) ;
#74 = LINE ( 'NONE', #227, #113 ) ;
#75 = EDGE_LOOP ( 'NONE', ( #149, #63, #177, #218 ) ) ;
#76 = APPROVAL_DATE_TIME ( #87, #126 ) ;
#77 = LINE ( 'NONE', #129, #207 ) ;
#78 = DIRECTION ( 'NONE',  ( 0.0000000000000000000, 1.000000000000000000, 0.0000000000000000000 ) ) ;
#79 = VECTOR ( 'NONE', #152, 1000.000000000000000 ) ;
#80 = CLOSED_SHELL ( 'NONE', ( #81, #82, #205, #223, #102, #187 ) ) ;
#81 = ADVANCED_FACE ( 'NONE', ( #199 ), #196, .F. ) ;
#82 = ADVANCED_FACE ( 'NONE', ( #119 ), #228, .F. ) ;
#83 = COORDINATED_UNIVERSAL_TIME_OFFSET ( 5, 0, .BEHIND. ) ;
#84 = PLANE ( 'NONE',  #130 ) ;
#85 = ORIENTED_EDGE ( 'NONE', *, *, #100, .F. ) ;
#86 = CARTESIAN_POINT ( 'NONE',  ( 6.349999999999998800, -6.349999999999998800, 3.000000000000000000 ) ) ;
#87 = DATE_AND_TIME ( #89, #10 ) ;
#88 =( NAMED_UNIT ( * ) PLANE_ANGLE_UNIT ( ) SI_UNIT ( $, .RADIAN. ) );
#89 = CALENDAR_DATE ( 2017, 30, 10 ) ;
#90 = DATE_AND_TIME ( #101, #184 ) ;
#91 = LINE ( 'NONE', #44, #209 ) ;
#92 = AXIS2_PLACEMENT_3D ( 'NONE', #128, #14, #211 ) ;
#93 = PERSON_AND_ORGANIZATION ( #235, #68 ) ;
#94 = EDGE_LOOP ( 'NONE', ( #230, #144, #189, #148 ) ) ;
#95 = CC_DESIGN_PERSON_AND_ORGANIZATION_ASSIGNMENT ( #200, #212, ( #52 ) ) ;
#96 = VERTEX_POINT ( 'NONE', #56 ) ;
#97 = DIRECTION ( 'NONE',  ( -0.0000000000000000000, -0.0000000000000000000, -1.000000000000000000 ) ) ;
#98 = VECTOR ( 'NONE', #154, 1000.000000000000000 ) ;
#99 = ORIENTED_EDGE ( 'NONE', *, *, #61, .T. ) ;
#100 = EDGE_CURVE ( 'NONE', #46, #54, #69, .T. ) ;
#101 = CALENDAR_DATE ( 2017, 30, 10 ) ;
#102 = ADVANCED_FACE ( 'NONE', ( #155 ), #12, .T. ) ;
#103 = LINE ( 'NONE', #6, #16 ) ;
#104 = CARTESIAN_POINT ( 'NONE',  ( 6.349999999999998800, -6.349999999999998800, 3.000000000000000000 ) ) ;
#105 = DESIGN_CONTEXT ( 'detailed design', #19, 'design' ) ;
#106 = CALENDAR_DATE ( 2017, 30, 10 ) ;
#107 = CARTESIAN_POINT ( 'NONE',  ( -6.350000000000000500, -6.350000000000000500, -3.000000000000000000 ) ) ;
#108 = ORIENTED_EDGE ( 'NONE', *, *, #191, .T. ) ;
#109 = UNCERTAINTY_MEASURE_WITH_UNIT (LENGTH_MEASURE( 1.000000000000000100E-005 ), #159, 'distance_accuracy_value', 'NONE');
#110 = DIRECTION ( 'NONE',  ( -1.000000000000000000, -1.365923996832131600E-016, 0.0000000000000000000 ) ) ;
#111 = APPLICATION_CONTEXT ( 'configuration controlled 3d designs of mechanical parts and assemblies' ) ;
#112 = CC_DESIGN_APPROVAL ( #126, ( #13 ) ) ;
#113 = VECTOR ( 'NONE', #110, 1000.000000000000000 ) ;
#114 = CC_DESIGN_APPROVAL ( #156, ( #150 ) ) ;
#115 = AXIS2_PLACEMENT_3D ( 'NONE', #175, #143, #195 ) ;
#116 = COORDINATED_UNIVERSAL_TIME_OFFSET ( 5, 0, .BEHIND. ) ;
#117 = APPROVAL_STATUS ( 'not_yet_approved' ) ;
#118 = CARTESIAN_POINT ( 'NONE',  ( -6.350000000000000500, 6.349999999999998800, -3.000000000000000000 ) ) ;
#119 = FACE_OUTER_BOUND ( 'NONE', #173, .T. ) ;
#120 = CARTESIAN_POINT ( 'NONE',  ( -6.350000000000000500, -6.350000000000000500, 3.000000000000000000 ) ) ;
#121 =( GEOMETRIC_REPRESENTATION_CONTEXT ( 3 ) GLOBAL_UNCERTAINTY_ASSIGNED_CONTEXT ( ( #109 ) ) GLOBAL_UNIT_ASSIGNED_CONTEXT ( ( #159, #88, #214 ) ) REPRESENTATION_CONTEXT ( 'NONE', 'WORKASPACE' ) );
#122 = CC_DESIGN_PERSON_AND_ORGANIZATION_ASSIGNMENT ( #157, #131, ( #150 ) ) ;
#123 = DIRECTION ( 'NONE',  ( 0.0000000000000000000, 0.0000000000000000000, -1.000000000000000000 ) ) ;
#124 = SHAPE_DEFINITION_REPRESENTATION ( #64, #31 ) ;
#125 = VERTEX_POINT ( 'NONE', #140 ) ;
#126 = APPROVAL ( #117, 'UNSPECIFIED' ) ;
#127 = DIRECTION ( 'NONE',  ( -0.0000000000000000000, -0.0000000000000000000, -1.000000000000000000 ) ) ;
#128 = CARTESIAN_POINT ( 'NONE',  ( 0.0000000000000000000, 0.0000000000000000000, 3.000000000000000000 ) ) ;
#129 = CARTESIAN_POINT ( 'NONE',  ( 6.349999999999998800, -6.349999999999998800, 3.000000000000000000 ) ) ;
#130 = AXIS2_PLACEMENT_3D ( 'NONE', #51, #70, #193 ) ;
#131 = PERSON_AND_ORGANIZATION_ROLE ( 'creator' ) ;
#132 = DIRECTION ( 'NONE',  ( 1.000000000000000000, 0.0000000000000000000, 0.0000000000000000000 ) ) ;
#133 = CALENDAR_DATE ( 2017, 30, 10 ) ;
#134 = LOCAL_TIME ( 9, 0, 17.00000000000000000, #188 ) ;
#135 = ORIENTED_EDGE ( 'NONE', *, *, #3, .F. ) ;
#136 = CC_DESIGN_DATE_AND_TIME_ASSIGNMENT ( #90, #72, ( #150 ) ) ;
#137 = FACE_OUTER_BOUND ( 'NONE', #33, .T. ) ;
#138 = ORIENTED_EDGE ( 'NONE', *, *, #34, .F. ) ;
#139 = DATE_AND_TIME ( #48, #134 ) ;
#140 = CARTESIAN_POINT ( 'NONE',  ( -6.350000000000000500, -6.350000000000000500, -3.000000000000000000 ) ) ;
#141 = DIRECTION ( 'NONE',  ( -1.365923996832131600E-016, 1.000000000000000000, 0.0000000000000000000 ) ) ;
#142 = DIRECTION ( 'NONE',  ( 0.0000000000000000000, 0.0000000000000000000, 1.000000000000000000 ) ) ;
#143 = DIRECTION ( 'NONE',  ( 0.0000000000000000000, -0.0000000000000000000, 1.000000000000000000 ) ) ;
#144 = ORIENTED_EDGE ( 'NONE', *, *, #55, .F. ) ;
#145 = APPROVAL_ROLE ( '' ) ;
#146 = PRODUCT_DEFINITION_FORMATION_WITH_SPECIFIED_SOURCE ( 'ANY', '', #52, .NOT_KNOWN. ) ;
#147 = VECTOR ( 'NONE', #170, 1000.000000000000000 ) ;
#148 = ORIENTED_EDGE ( 'NONE', *, *, #47, .T. ) ;
#149 = ORIENTED_EDGE ( 'NONE', *, *, #100, .T. ) ;
#150 = PRODUCT_DEFINITION ( 'UNKNOWN', '', #146, #105 ) ;
#151 = APPROVAL_ROLE ( '' ) ;
#152 = DIRECTION ( 'NONE',  ( 1.000000000000000000, 1.365923996832131600E-016, -0.0000000000000000000 ) ) ;
#153 = PERSON_AND_ORGANIZATION_ROLE ( 'design_supplier' ) ;
#154 = DIRECTION ( 'NONE',  ( -0.0000000000000000000, -0.0000000000000000000, -1.000000000000000000 ) ) ;
#155 = FACE_OUTER_BOUND ( 'NONE', #225, .T. ) ;
#156 = APPROVAL ( #162, 'UNSPECIFIED' ) ;
#157 = PERSON_AND_ORGANIZATION ( #235, #68 ) ;
#158 = EDGE_CURVE ( 'NONE', #54, #125, #206, .T. ) ;
#159 =( LENGTH_UNIT ( ) NAMED_UNIT ( * ) SI_UNIT ( .MILLI., .METRE. ) );
#160 = ORIENTED_EDGE ( 'NONE', *, *, #34, .T. ) ;
#161 = DIRECTION ( 'NONE',  ( 0.0000000000000000000, 0.0000000000000000000, 1.000000000000000000 ) ) ;
#162 = APPROVAL_STATUS ( 'not_yet_approved' ) ;
#163 = DATE_AND_TIME ( #133, #222 ) ;
#164 = VECTOR ( 'NONE', #127, 1000.000000000000000 ) ;
#165 = CC_DESIGN_PERSON_AND_ORGANIZATION_ASSIGNMENT ( #171, #153, ( #146 ) ) ;
#166 = APPROVAL ( #39, 'UNSPECIFIED' ) ;
#167 = DIRECTION ( 'NONE',  ( -0.0000000000000000000, -0.0000000000000000000, -1.000000000000000000 ) ) ;
#168 = EDGE_CURVE ( 'NONE', #237, #46, #198, .T. ) ;
#169 = ORIENTED_EDGE ( 'NONE', *, *, #61, .F. ) ;
#170 = DIRECTION ( 'NONE',  ( -0.0000000000000000000, -1.000000000000000000, -0.0000000000000000000 ) ) ;
#171 = PERSON_AND_ORGANIZATION ( #235, #68 ) ;
#172 = LOCAL_TIME ( 9, 0, 17.00000000000000000, #43 ) ;
#173 = EDGE_LOOP ( 'NONE', ( #99, #135, #194, #17 ) ) ;
#174 = CARTESIAN_POINT ( 'NONE',  ( 6.349999999999998800, -6.349999999999998800, 3.000000000000000000 ) ) ;
#175 = CARTESIAN_POINT ( 'NONE',  ( 0.0000000000000000000, 0.0000000000000000000, -3.000000000000000000 ) ) ;
#176 = DIRECTION ( 'NONE',  ( -0.0000000000000000000, -1.000000000000000000, -0.0000000000000000000 ) ) ;
#177 = ORIENTED_EDGE ( 'NONE', *, *, #210, .F. ) ;
#178 = PERSON_AND_ORGANIZATION_ROLE ( 'creator' ) ;
#179 = VECTOR ( 'NONE', #15, 1000.000000000000000 ) ;
#180 = EDGE_LOOP ( 'NONE', ( #160, #49, #60, #9 ) ) ;
#181 = ORIENTED_EDGE ( 'NONE', *, *, #210, .T. ) ;
#182 = CARTESIAN_POINT ( 'NONE',  ( 6.349999999999998800, -6.349999999999998800, -3.000000000000000000 ) ) ;
#183 = SECURITY_CLASSIFICATION_LEVEL ( 'unclassified' ) ;
#184 = LOCAL_TIME ( 9, 0, 17.00000000000000000, #83 ) ;
#185 = VERTEX_POINT ( 'NONE', #86 ) ;
#186 = ORIENTED_EDGE ( 'NONE', *, *, #158, .F. ) ;
#187 = ADVANCED_FACE ( 'NONE', ( #137 ), #37, .F. ) ;
#188 = COORDINATED_UNIVERSAL_TIME_OFFSET ( 5, 0, .BEHIND. ) ;
#189 = ORIENTED_EDGE ( 'NONE', *, *, #73, .F. ) ;
#190 = DIRECTION ( 'NONE',  ( -1.000000000000000000, 0.0000000000000000000, 0.0000000000000000000 ) ) ;
#191 = EDGE_CURVE ( 'NONE', #23, #185, #77, .T. ) ;
#192 = CARTESIAN_POINT ( 'NONE',  ( 6.349999999999998800, 6.350000000000000500, 3.000000000000000000 ) ) ;
#193 = DIRECTION ( 'NONE',  ( 1.000000000000000000, 1.365923996832131600E-016, 0.0000000000000000000 ) ) ;
#194 = ORIENTED_EDGE ( 'NONE', *, *, #191, .F. ) ;
#195 = DIRECTION ( 'NONE',  ( 1.000000000000000000, 0.0000000000000000000, -0.0000000000000000000 ) ) ;
#196 = PLANE ( 'NONE',  #45 ) ;
#197 = MECHANICAL_CONTEXT ( 'NONE', #111, 'mechanical' ) ;
#198 = LINE ( 'NONE', #192, #164 ) ;
#199 = FACE_OUTER_BOUND ( 'NONE', #94, .T. ) ;
#200 = PERSON_AND_ORGANIZATION ( #235, #68 ) ;
#201 = CARTESIAN_POINT ( 'NONE',  ( -6.350000000000000500, -6.350000000000000500, 3.000000000000000000 ) ) ;
#202 = CARTESIAN_POINT ( 'NONE',  ( 6.349999999999998800, -6.349999999999998800, -3.000000000000000000 ) ) ;
#203 = VECTOR ( 'NONE', #226, 1000.000000000000000 ) ;
#204 = ORIENTED_EDGE ( 'NONE', *, *, #73, .T. ) ;
#205 = ADVANCED_FACE ( 'NONE', ( #25 ), #208, .F. ) ;
#206 = LINE ( 'NONE', #107, #40 ) ;
#207 = VECTOR ( 'NONE', #50, 1000.000000000000000 ) ;
#208 = PLANE ( 'NONE',  #233 ) ;
#209 = VECTOR ( 'NONE', #167, 1000.000000000000000 ) ;
#210 = EDGE_CURVE ( 'NONE', #237, #96, #74, .T. ) ;
#211 = DIRECTION ( 'NONE',  ( 1.000000000000000000, 0.0000000000000000000, -0.0000000000000000000 ) ) ;
#212 = PERSON_AND_ORGANIZATION_ROLE ( 'design_owner' ) ;
#213 = LINE ( 'NONE', #36, #179 ) ;
#214 =( NAMED_UNIT ( * ) SI_UNIT ( $, .STERADIAN. ) SOLID_ANGLE_UNIT ( ) );
#215 = EDGE_CURVE ( 'NONE', #185, #237, #213, .T. ) ;
#216 = PERSON_AND_ORGANIZATION ( #235, #68 ) ;
#217 = LINE ( 'NONE', #66, #98 ) ;
#218 = ORIENTED_EDGE ( 'NONE', *, *, #168, .T. ) ;
#219 = PRODUCT_RELATED_PRODUCT_CATEGORY ( 'detail', '', ( #52 ) ) ;
#220 = CARTESIAN_POINT ( 'NONE',  ( 6.349999999999998800, 6.350000000000000500, -3.000000000000000000 ) ) ;
#221 = CC_DESIGN_APPROVAL ( #166, ( #146 ) ) ;
#222 = LOCAL_TIME ( 9, 0, 17.00000000000000000, #116 ) ;
#223 = ADVANCED_FACE ( 'NONE', ( #27 ), #84, .F. ) ;
#224 = APPROVAL_DATE_TIME ( #139, #166 ) ;
#225 = EDGE_LOOP ( 'NONE', ( #204, #108, #28, #181 ) ) ;
#226 = DIRECTION ( 'NONE',  ( -1.000000000000000000, -1.365923996832131600E-016, 0.0000000000000000000 ) ) ;
#227 = CARTESIAN_POINT ( 'NONE',  ( 6.349999999999998800, 6.350000000000000500, 3.000000000000000000 ) ) ;
#228 = PLANE ( 'NONE',  #22 ) ;
#229 = CARTESIAN_POINT ( 'NONE',  ( 6.349999999999998800, 6.350000000000000500, 3.000000000000000000 ) ) ;
#230 = ORIENTED_EDGE ( 'NONE', *, *, #158, .T. ) ;
#231 = CC_DESIGN_PERSON_AND_ORGANIZATION_ASSIGNMENT ( #93, #4, ( #13 ) ) ;
#232 = APPLICATION_PROTOCOL_DEFINITION ( 'international standard', 'config_control_design', 1994, #19 ) ;
#233 = AXIS2_PLACEMENT_3D ( 'NONE', #174, #190, #142 ) ;
#234 = APPLICATION_PROTOCOL_DEFINITION ( 'international standard', 'config_control_design', 1994, #111 ) ;
#235 = PERSON ( 'UNSPECIFIED', 'UNSPECIFIED', 'UNSPECIFIED', ('UNSPECIFIED'), ('UNSPECIFIED'), ('UNSPECIFIED') ) ;
#236 = COORDINATED_UNIVERSAL_TIME_OFFSET ( 5, 0, .BEHIND. ) ;
#237 = VERTEX_POINT ( 'NONE', #229 ) ;
ENDSEC;
END-ISO-10303-21;
