ISO-10303-21;
HEADER;
FILE_DESCRIPTION (( 'STEP AP214' ),
    '1' );
FILE_NAME ('3372-E0W.STEP',
    '2009-12-21T16:58:12',
    ( ' ' ),
    ( ' ' ),
    'SwSTEP 2.0',
    'SolidWorks 2009',
    '' );
FILE_SCHEMA (( 'AUTOMOTIVE_DESIGN' ));
ENDSEC;

DATA;
#1 = CARTESIAN_POINT ( 'NONE',  ( 0.0000000000000000000, -6.274098110942214900E-015, 6.491000388932064000 ) ) ;
#2 = AXIS2_PLACEMENT_3D ( 'NONE', #1, #101, #100 ) ;
#3 = CYLINDRICAL_SURFACE ( 'NONE', #2, 12.70000000000000600 ) ;
#4 = CIRCLE ( 'NONE', #81, 12.70000000000000800 ) ;
#5 = CARTESIAN_POINT ( 'NONE',  ( -1.555250069354235300E-015, -12.69999999999856400, -0.9982865478491047600 ) ) ;
#6 = DIRECTION ( 'NONE',  ( -1.224606353822377000E-016, -1.000000000000000000, 0.0000000000000000000 ) ) ;
#7 = DIRECTION ( 'NONE',  ( -1.000000000000000000, 1.224606353822377300E-016, 0.0000000000000000000 ) ) ;
#8 = AXIS2_PLACEMENT_3D ( 'NONE', #123, #7, #6 ) ;
#9 = EDGE_CURVE ( 'NONE', #134, #105, #155, .T. ) ;
#10 = EDGE_CURVE ( 'NONE', #129, #144, #94, .T. ) ;
#11 = ORIENTED_EDGE ( 'NONE', *, *, #26, .F. ) ;
#12 = ORIENTED_EDGE ( 'NONE', *, *, #104, .F. ) ;
#13 = EDGE_CURVE ( 'NONE', #120, #128, #23, .T. ) ;
#14 = ORIENTED_EDGE ( 'NONE', *, *, #43, .F. ) ;
#15 = ORIENTED_EDGE ( 'NONE', *, *, #16, .F. ) ;
#16 = EDGE_CURVE ( 'NONE', #145, #105, #32, .T. ) ;
#17 = CLOSED_SHELL ( 'NONE', ( #154, #119, #122, #46, #38, #150 ) ) ;
#18 = EDGE_LOOP ( 'NONE', ( #83, #42, #103, #102 ) ) ;
#19 = DIRECTION ( 'NONE',  ( 0.0000000000000000000, 0.0000000000000000000, -1.000000000000000000 ) ) ;
#20 = DIRECTION ( 'NONE',  ( 1.000000000000000000, 0.0000000000000000000, 0.0000000000000000000 ) ) ;
#21 = CARTESIAN_POINT ( 'NONE',  ( 0.0000000000000000000, -6.303746933931085800E-014, 513.5249999999997500 ) ) ;
#22 = AXIS2_PLACEMENT_3D ( 'NONE', #21, #20, #19 ) ;
#23 = CIRCLE ( 'NONE', #22, 514.6799999999998400 ) ;
#24 = EDGE_LOOP ( 'NONE', ( #25, #136, #137, #135, #15, #138 ) ) ;
#25 = ORIENTED_EDGE ( 'NONE', *, *, #10, .F. ) ;
#26 = EDGE_CURVE ( 'NONE', #27, #144, #148, .T. ) ;
#27 = VERTEX_POINT ( 'NONE', #125 ) ;
#28 = DIRECTION ( 'NONE',  ( 1.000000000000000000, 0.0000000000000000000, 0.0000000000000000000 ) ) ;
#29 = DIRECTION ( 'NONE',  ( -0.0000000000000000000, -0.0000000000000000000, 1.000000000000000000 ) ) ;
#30 = CARTESIAN_POINT ( 'NONE',  ( 0.0000000000000000000, -6.274098110942214900E-015, 0.9982865478490587900 ) ) ;
#31 = AXIS2_PLACEMENT_3D ( 'NONE', #30, #29, #28 ) ;
#32 = CIRCLE ( 'NONE', #31, 12.70000000000000500 ) ;
#33 = CARTESIAN_POINT ( 'NONE',  ( 0.0000000000000000000, -6.274098110942214900E-015, 0.9982865478490587900 ) ) ;
#34 = EDGE_CURVE ( 'NONE', #120, #35, #124, .T. ) ;
#35 = VERTEX_POINT ( 'NONE', #5 ) ;
#36 = ORIENTED_EDGE ( 'NONE', *, *, #44, .F. ) ;
#37 = EDGE_CURVE ( 'NONE', #35, #134, #4, .T. ) ;
#38 = ADVANCED_FACE ( 'NONE', ( #82 ), #3, .T. ) ;
#39 =( GEOMETRIC_REPRESENTATION_CONTEXT ( 3 ) GLOBAL_UNCERTAINTY_ASSIGNED_CONTEXT ( ( #40 ) ) GLOBAL_UNIT_ASSIGNED_CONTEXT ( ( #153, #152, #41 ) ) REPRESENTATION_CONTEXT ( 'NONE', 'WORKASPACE' ) );
#40 = UNCERTAINTY_MEASURE_WITH_UNIT (LENGTH_MEASURE( 1.000000000000000100E-005 ), #153, 'distance_accuracy_value', 'NONE');
#41 =( NAMED_UNIT ( * ) SI_UNIT ( $, .STERADIAN. ) SOLID_ANGLE_UNIT ( ) );
#42 = ORIENTED_EDGE ( 'NONE', *, *, #43, .T. ) ;
#43 = EDGE_CURVE ( 'NONE', #145, #156, #99, .T. ) ;
#44 = EDGE_CURVE ( 'NONE', #129, #35, #73, .T. ) ;
#45 = ORIENTED_EDGE ( 'NONE', *, *, #90, .F. ) ;
#46 = ADVANCED_FACE ( 'NONE', ( #74 ), #53, .T. ) ;
#47 = DIRECTION ( 'NONE',  ( -0.0000000000000000000, -0.0000000000000000000, 1.000000000000000000 ) ) ;
#48 = VECTOR ( 'NONE', #47, 1000.000000000000000 ) ;
#49 = CARTESIAN_POINT ( 'NONE',  ( 12.70000000000000600, -6.274098110942214900E-015, 6.491000388932064000 ) ) ;
#50 = AXIS2_PLACEMENT_3D ( 'NONE', #165, #195, #178 ) ;
#51 = AXIS2_PLACEMENT_3D ( 'NONE', #161, #302, #246 ) ;
#52 = CIRCLE ( 'NONE', #51, 12.70000000000000500 ) ;
#53 = SPHERICAL_SURFACE ( 'NONE', #50, 514.6799999999998400 ) ;
#54 =( GEOMETRIC_REPRESENTATION_CONTEXT ( 3 ) GLOBAL_UNCERTAINTY_ASSIGNED_CONTEXT ( ( #55 ) ) GLOBAL_UNIT_ASSIGNED_CONTEXT ( ( #58, #57, #56 ) ) REPRESENTATION_CONTEXT ( 'NONE', 'WORKASPACE' ) );
#55 = UNCERTAINTY_MEASURE_WITH_UNIT (LENGTH_MEASURE( 1.000000000000000100E-005 ), #58, 'distance_accuracy_value', 'NONE');
#56 =( NAMED_UNIT ( * ) SI_UNIT ( $, .STERADIAN. ) SOLID_ANGLE_UNIT ( ) );
#57 =( NAMED_UNIT ( * ) PLANE_ANGLE_UNIT ( ) SI_UNIT ( $, .RADIAN. ) );
#58 =( LENGTH_UNIT ( ) NAMED_UNIT ( * ) SI_UNIT ( .MILLI., .METRE. ) );
#59 = MECHANICAL_DESIGN_GEOMETRIC_PRESENTATION_REPRESENTATION (  '', ( #61 ), #54 ) ;
#60 = PRESENTATION_LAYER_ASSIGNMENT (  '', '', ( #61 ) ) ;
#61 = STYLED_ITEM ( 'NONE', ( #62 ), #46 ) ;
#62 = PRESENTATION_STYLE_ASSIGNMENT (( #63 ) ) ;
#63 = SURFACE_STYLE_USAGE ( .BOTH. , #64 ) ;
#64 = SURFACE_SIDE_STYLE ('',( #65 ) ) ;
#65 = SURFACE_STYLE_FILL_AREA ( #66 ) ;
#66 = FILL_AREA_STYLE ('',( #67 ) ) ;
#67 = FILL_AREA_STYLE_COLOUR ( '', #68 ) ;
#68 = COLOUR_RGB ( '',0.9568627450980391500, 0.9490196078431372100, 0.9607843137254902200 ) ;
#69 = DIRECTION ( 'NONE',  ( 1.000000000000000000, 0.0000000000000000000, 0.0000000000000000000 ) ) ;
#70 = DIRECTION ( 'NONE',  ( -0.0000000000000000000, -0.0000000000000000000, 1.000000000000000000 ) ) ;
#71 = CARTESIAN_POINT ( 'NONE',  ( 0.0000000000000000000, -6.274098110942214900E-015, -0.9982865478491507200 ) ) ;
#72 = AXIS2_PLACEMENT_3D ( 'NONE', #71, #70, #69 ) ;
#73 = CIRCLE ( 'NONE', #72, 12.70000000000000800 ) ;
#74 = FACE_OUTER_BOUND ( 'NONE', #107, .T. ) ;
#75 = MANIFOLD_SOLID_BREP ( 'NONE', #17 ) ;
#76 = FILL_AREA_STYLE_COLOUR ( '', #77 ) ;
#77 = COLOUR_RGB ( '',0.9568627450980391500, 0.9490196078431372100, 0.9607843137254902200 ) ;
#78 = DIRECTION ( 'NONE',  ( 1.000000000000000000, 0.0000000000000000000, 0.0000000000000000000 ) ) ;
#79 = DIRECTION ( 'NONE',  ( -0.0000000000000000000, -0.0000000000000000000, 1.000000000000000000 ) ) ;
#80 = CARTESIAN_POINT ( 'NONE',  ( 0.0000000000000000000, -6.274098110942214900E-015, -0.9982865478491507200 ) ) ;
#81 = AXIS2_PLACEMENT_3D ( 'NONE', #80, #79, #78 ) ;
#82 = FACE_OUTER_BOUND ( 'NONE', #24, .T. ) ;
#83 = ORIENTED_EDGE ( 'NONE', *, *, #84, .T. ) ;
#84 = EDGE_CURVE ( 'NONE', #144, #145, #192, .T. ) ;
#85 = ORIENTED_EDGE ( 'NONE', *, *, #86, .T. ) ;
#86 = EDGE_CURVE ( 'NONE', #134, #128, #173, .T. ) ;
#87 = EDGE_LOOP ( 'NONE', ( #118, #121, #36, #45 ) ) ;
#88 = EDGE_CURVE ( 'NONE', #27, #156, #167, .T. ) ;
#89 = ORIENTED_EDGE ( 'NONE', *, *, #90, .T. ) ;
#90 = EDGE_CURVE ( 'NONE', #128, #129, #160, .T. ) ;
#91 = DIRECTION ( 'NONE',  ( -0.0000000000000000000, -0.0000000000000000000, 1.000000000000000000 ) ) ;
#92 = VECTOR ( 'NONE', #91, 1000.000000000000000 ) ;
#93 = CARTESIAN_POINT ( 'NONE',  ( -12.70000000000000600, -4.718848041587794900E-015, 6.491000388932064000 ) ) ;
#94 = LINE ( 'NONE', #93, #92 ) ;
#95 = DIRECTION ( 'NONE',  ( -1.224606353822377000E-016, -1.000000000000000000, 0.0000000000000000000 ) ) ;
#96 = DIRECTION ( 'NONE',  ( -1.000000000000000000, 1.224606353822377300E-016, 0.0000000000000000000 ) ) ;
#97 = CARTESIAN_POINT ( 'NONE',  ( 0.0000000000000000000, 6.273988016711803900E-014, -513.5249999999997500 ) ) ;
#98 = AXIS2_PLACEMENT_3D ( 'NONE', #97, #96, #95 ) ;
#99 = CIRCLE ( 'NONE', #98, 514.6799999999998400 ) ;
#100 = DIRECTION ( 'NONE',  ( 1.000000000000000000, 0.0000000000000000000, 0.0000000000000000000 ) ) ;
#101 = DIRECTION ( 'NONE',  ( -0.0000000000000000000, -0.0000000000000000000, 1.000000000000000000 ) ) ;
#102 = ORIENTED_EDGE ( 'NONE', *, *, #26, .T. ) ;
#103 = ORIENTED_EDGE ( 'NONE', *, *, #88, .F. ) ;
#104 = EDGE_CURVE ( 'NONE', #105, #27, #52, .T. ) ;
#105 = VERTEX_POINT ( 'NONE', #273 ) ;
#106 = ORIENTED_EDGE ( 'NONE', *, *, #9, .F. ) ;
#107 = EDGE_LOOP ( 'NONE', ( #108, #131, #132, #133 ) ) ;
#108 = ORIENTED_EDGE ( 'NONE', *, *, #34, .F. ) ;
#109 = ORIENTED_EDGE ( 'NONE', *, *, #16, .T. ) ;
#110 = MECHANICAL_DESIGN_GEOMETRIC_PRESENTATION_REPRESENTATION (  '', ( #112 ), #39 ) ;
#111 = PRESENTATION_LAYER_ASSIGNMENT (  '', '', ( #112 ) ) ;
#112 = STYLED_ITEM ( 'NONE', ( #113 ), #38 ) ;
#113 = PRESENTATION_STYLE_ASSIGNMENT (( #114 ) ) ;
#114 = SURFACE_STYLE_USAGE ( .BOTH. , #115 ) ;
#115 = SURFACE_SIDE_STYLE ('',( #116 ) ) ;
#116 = SURFACE_STYLE_FILL_AREA ( #117 ) ;
#117 = FILL_AREA_STYLE ('',( #76 ) ) ;
#118 = ORIENTED_EDGE ( 'NONE', *, *, #13, .F. ) ;
#119 = ADVANCED_FACE ( 'NONE', ( #242 ), #228, .T. ) ;
#120 = VERTEX_POINT ( 'NONE', #301 ) ;
#121 = ORIENTED_EDGE ( 'NONE', *, *, #34, .T. ) ;
#122 = ADVANCED_FACE ( 'NONE', ( #205 ), #197, .T. ) ;
#123 = CARTESIAN_POINT ( 'NONE',  ( 0.0000000000000000000, -6.303746933931085800E-014, 513.5249999999997500 ) ) ;
#124 = CIRCLE ( 'NONE', #8, 514.6799999999998400 ) ;
#125 = CARTESIAN_POINT ( 'NONE',  ( 0.0000000000000000000, 12.70000000000074000, 0.9982865478490032800 ) ) ;
#126 = DIRECTION ( 'NONE',  ( 1.000000000000000000, 0.0000000000000000000, 0.0000000000000000000 ) ) ;
#127 = EDGE_LOOP ( 'NONE', ( #89, #130, #11, #12, #106, #85 ) ) ;
#128 = VERTEX_POINT ( 'NONE', #310 ) ;
#129 = VERTEX_POINT ( 'NONE', #257 ) ;
#130 = ORIENTED_EDGE ( 'NONE', *, *, #10, .T. ) ;
#131 = ORIENTED_EDGE ( 'NONE', *, *, #13, .T. ) ;
#132 = ORIENTED_EDGE ( 'NONE', *, *, #86, .F. ) ;
#133 = ORIENTED_EDGE ( 'NONE', *, *, #37, .F. ) ;
#134 = VERTEX_POINT ( 'NONE', #256 ) ;
#135 = ORIENTED_EDGE ( 'NONE', *, *, #9, .T. ) ;
#136 = ORIENTED_EDGE ( 'NONE', *, *, #44, .T. ) ;
#137 = ORIENTED_EDGE ( 'NONE', *, *, #37, .T. ) ;
#138 = ORIENTED_EDGE ( 'NONE', *, *, #84, .F. ) ;
#139 = ORIENTED_EDGE ( 'NONE', *, *, #88, .T. ) ;
#140 = DIRECTION ( 'NONE',  ( 1.000000000000000000, 0.0000000000000000000, 0.0000000000000000000 ) ) ;
#141 = DIRECTION ( 'NONE',  ( 0.0000000000000000000, 0.0000000000000000000, 1.000000000000000000 ) ) ;
#142 = CARTESIAN_POINT ( 'NONE',  ( 0.0000000000000000000, 0.0000000000000000000, 0.0000000000000000000 ) ) ;
#143 = AXIS2_PLACEMENT_3D ( 'NONE', #142, #141, #140 ) ;
#144 = VERTEX_POINT ( 'NONE', #255 ) ;
#145 = VERTEX_POINT ( 'NONE', #265 ) ;
#146 = DIRECTION ( 'NONE',  ( -0.0000000000000000000, -0.0000000000000000000, 1.000000000000000000 ) ) ;
#147 = AXIS2_PLACEMENT_3D ( 'NONE', #33, #146, #126 ) ;
#148 = CIRCLE ( 'NONE', #147, 12.70000000000000500 ) ;
#149 = ORIENTED_EDGE ( 'NONE', *, *, #104, .T. ) ;
#150 = ADVANCED_FACE ( 'NONE', ( #264 ), #272, .T. ) ;
#151 = EDGE_LOOP ( 'NONE', ( #14, #109, #149, #139 ) ) ;
#152 =( NAMED_UNIT ( * ) PLANE_ANGLE_UNIT ( ) SI_UNIT ( $, .RADIAN. ) );
#153 =( LENGTH_UNIT ( ) NAMED_UNIT ( * ) SI_UNIT ( .MILLI., .METRE. ) );
#154 = ADVANCED_FACE ( 'NONE', ( #270 ), #295, .T. ) ;
#155 = LINE ( 'NONE', #49, #48 ) ;
#156 = VERTEX_POINT ( 'NONE', #207 ) ;
#157 = DIRECTION ( 'NONE',  ( 1.000000000000000000, 0.0000000000000000000, 0.0000000000000000000 ) ) ;
#158 = DIRECTION ( 'NONE',  ( -0.0000000000000000000, -0.0000000000000000000, 1.000000000000000000 ) ) ;
#159 = AXIS2_PLACEMENT_3D ( 'NONE', #168, #158, #157 ) ;
#160 = CIRCLE ( 'NONE', #159, 12.70000000000000800 ) ;
#161 = CARTESIAN_POINT ( 'NONE',  ( 0.0000000000000000000, -6.274098110942214900E-015, 0.9982865478490587900 ) ) ;
#162 = DIRECTION ( 'NONE',  ( 0.0000000000000000000, 0.0000000000000000000, -1.000000000000000000 ) ) ;
#163 = DIRECTION ( 'NONE',  ( 1.000000000000000000, 0.0000000000000000000, 0.0000000000000000000 ) ) ;
#164 = AXIS2_PLACEMENT_3D ( 'NONE', #174, #163, #162 ) ;
#165 = CARTESIAN_POINT ( 'NONE',  ( 0.0000000000000000000, -6.303746933931085800E-014, 513.5249999999997500 ) ) ;
#166 =( NAMED_UNIT ( * ) SI_UNIT ( $, .STERADIAN. ) SOLID_ANGLE_UNIT ( ) );
#167 = CIRCLE ( 'NONE', #164, 514.6799999999998400 ) ;
#168 = CARTESIAN_POINT ( 'NONE',  ( 0.0000000000000000000, -6.274098110942214900E-015, -0.9982865478491507200 ) ) ;
#169 = DIRECTION ( 'NONE',  ( 1.000000000000000000, 0.0000000000000000000, 0.0000000000000000000 ) ) ;
#170 = DIRECTION ( 'NONE',  ( -0.0000000000000000000, -0.0000000000000000000, 1.000000000000000000 ) ) ;
#171 = CARTESIAN_POINT ( 'NONE',  ( 0.0000000000000000000, -6.274098110942214900E-015, -0.9982865478491507200 ) ) ;
#172 = AXIS2_PLACEMENT_3D ( 'NONE', #171, #170, #169 ) ;
#173 = CIRCLE ( 'NONE', #172, 12.70000000000000800 ) ;
#174 = CARTESIAN_POINT ( 'NONE',  ( 0.0000000000000000000, 6.273988016711803900E-014, -513.5249999999997500 ) ) ;
#175 = MECHANICAL_DESIGN_GEOMETRIC_PRESENTATION_REPRESENTATION (  '', ( #186 ), #193 ) ;
#176 =( LENGTH_UNIT ( ) NAMED_UNIT ( * ) SI_UNIT ( .MILLI., .METRE. ) );
#177 = SURFACE_STYLE_FILL_AREA ( #180 ) ;
#178 = DIRECTION ( 'NONE',  ( 0.0000000000000000000, 1.000000000000000000, 0.0000000000000000000 ) ) ;
#179 = PRESENTATION_LAYER_ASSIGNMENT (  '', '', ( #186 ) ) ;
#180 = FILL_AREA_STYLE ('',( #183 ) ) ;
#181 = SURFACE_SIDE_STYLE ('',( #177 ) ) ;
#182 = UNCERTAINTY_MEASURE_WITH_UNIT (LENGTH_MEASURE( 1.000000000000000100E-005 ), #176, 'distance_accuracy_value', 'NONE');
#183 = FILL_AREA_STYLE_COLOUR ( '', #184 ) ;
#184 = COLOUR_RGB ( '',0.7960784313725489700, 0.8235294117647058400, 0.9372549019607843100 ) ;
#185 = PRESENTATION_STYLE_ASSIGNMENT (( #187 ) ) ;
#186 = STYLED_ITEM ( 'NONE', ( #185 ), #75 ) ;
#187 = SURFACE_STYLE_USAGE ( .BOTH. , #181 ) ;
#188 = DIRECTION ( 'NONE',  ( 1.000000000000000000, 0.0000000000000000000, 0.0000000000000000000 ) ) ;
#189 = DIRECTION ( 'NONE',  ( -0.0000000000000000000, -0.0000000000000000000, 1.000000000000000000 ) ) ;
#190 = CARTESIAN_POINT ( 'NONE',  ( 0.0000000000000000000, -6.274098110942214900E-015, 0.9982865478490587900 ) ) ;
#191 = AXIS2_PLACEMENT_3D ( 'NONE', #190, #189, #188 ) ;
#192 = CIRCLE ( 'NONE', #191, 12.70000000000000500 ) ;
#193 =( GEOMETRIC_REPRESENTATION_CONTEXT ( 3 ) GLOBAL_UNCERTAINTY_ASSIGNED_CONTEXT ( ( #182 ) ) GLOBAL_UNIT_ASSIGNED_CONTEXT ( ( #176, #194, #166 ) ) REPRESENTATION_CONTEXT ( 'NONE', 'WORKASPACE' ) );
#194 =( NAMED_UNIT ( * ) PLANE_ANGLE_UNIT ( ) SI_UNIT ( $, .RADIAN. ) );
#195 = DIRECTION ( 'NONE',  ( -1.000000000000000000, 0.0000000000000000000, 0.0000000000000000000 ) ) ;
#196 =( NAMED_UNIT ( * ) SI_UNIT ( $, .STERADIAN. ) SOLID_ANGLE_UNIT ( ) );
#197 = SPHERICAL_SURFACE ( 'NONE', #309, 514.6799999999998400 ) ;
#198 = PRESENTATION_STYLE_ASSIGNMENT (( #199 ) ) ;
#199 = SURFACE_STYLE_USAGE ( .BOTH. , #200 ) ;
#200 = SURFACE_SIDE_STYLE ('',( #201 ) ) ;
#201 = SURFACE_STYLE_FILL_AREA ( #202 ) ;
#202 = FILL_AREA_STYLE ('',( #203 ) ) ;
#203 = FILL_AREA_STYLE_COLOUR ( '', #204 ) ;
#204 = COLOUR_RGB ( '',0.9568627450980391500, 0.9490196078431372100, 0.9607843137254902200 ) ;
#205 = FACE_OUTER_BOUND ( 'NONE', #87, .T. ) ;
#206 =( LENGTH_UNIT ( ) NAMED_UNIT ( * ) SI_UNIT ( .MILLI., .METRE. ) );
#207 = CARTESIAN_POINT ( 'NONE',  ( 0.0000000000000000000, 9.425390007638308600E-014, 1.155000000000017100 ) ) ;
#208 = DIRECTION ( 'NONE',  ( 0.0000000000000000000, 1.000000000000000000, 0.0000000000000000000 ) ) ;
#209 = DIRECTION ( 'NONE',  ( -1.000000000000000000, 0.0000000000000000000, 0.0000000000000000000 ) ) ;
#210 =( NAMED_UNIT ( * ) SI_UNIT ( $, .STERADIAN. ) SOLID_ANGLE_UNIT ( ) );
#211 =( NAMED_UNIT ( * ) PLANE_ANGLE_UNIT ( ) SI_UNIT ( $, .RADIAN. ) );
#212 = SURFACE_SIDE_STYLE ('',( #213 ) ) ;
#213 = SURFACE_STYLE_FILL_AREA ( #214 ) ;
#214 = FILL_AREA_STYLE ('',( #271 ) ) ;
#215 = COLOUR_RGB ( '',0.9568627450980391500, 0.9490196078431372100, 0.9607843137254902200 ) ;
#216 = DIRECTION ( 'NONE',  ( 0.0000000000000000000, 1.000000000000000000, 0.0000000000000000000 ) ) ;
#217 = DIRECTION ( 'NONE',  ( -1.000000000000000000, 0.0000000000000000000, 0.0000000000000000000 ) ) ;
#218 = CARTESIAN_POINT ( 'NONE',  ( 0.0000000000000000000, 6.273988016711803900E-014, -513.5249999999997500 ) ) ;
#219 = AXIS2_PLACEMENT_3D ( 'NONE', #218, #217, #216 ) ;
#220 = UNCERTAINTY_MEASURE_WITH_UNIT (LENGTH_MEASURE( 1.000000000000000100E-005 ), #222, 'distance_accuracy_value', 'NONE');
#221 = PRESENTATION_LAYER_ASSIGNMENT (  '', '', ( #241 ) ) ;
#222 =( LENGTH_UNIT ( ) NAMED_UNIT ( * ) SI_UNIT ( .MILLI., .METRE. ) );
#223 =( LENGTH_UNIT ( ) NAMED_UNIT ( * ) SI_UNIT ( .MILLI., .METRE. ) );
#224 =( NAMED_UNIT ( * ) PLANE_ANGLE_UNIT ( ) SI_UNIT ( $, .RADIAN. ) );
#225 =( LENGTH_UNIT ( ) NAMED_UNIT ( * ) SI_UNIT ( .MILLI., .METRE. ) );
#226 = SURFACE_SIDE_STYLE ('',( #247 ) ) ;
#227 =( GEOMETRIC_REPRESENTATION_CONTEXT ( 3 ) GLOBAL_UNCERTAINTY_ASSIGNED_CONTEXT ( ( #220 ) ) GLOBAL_UNIT_ASSIGNED_CONTEXT ( ( #222, #266, #196 ) ) REPRESENTATION_CONTEXT ( 'NONE', 'WORKASPACE' ) );
#228 = CYLINDRICAL_SURFACE ( 'NONE', #229, 12.70000000000000600 ) ;
#229 = AXIS2_PLACEMENT_3D ( 'NONE', #300, #232, #231 ) ;
#230 =( NAMED_UNIT ( * ) PLANE_ANGLE_UNIT ( ) SI_UNIT ( $, .RADIAN. ) );
#231 = DIRECTION ( 'NONE',  ( 1.000000000000000000, 0.0000000000000000000, 0.0000000000000000000 ) ) ;
#232 = DIRECTION ( 'NONE',  ( -0.0000000000000000000, -0.0000000000000000000, 1.000000000000000000 ) ) ;
#233 = SURFACE_STYLE_FILL_AREA ( #234 ) ;
#234 = FILL_AREA_STYLE ('',( #235 ) ) ;
#235 = FILL_AREA_STYLE_COLOUR ( '', #236 ) ;
#236 = COLOUR_RGB ( '',0.7960784313725489700, 0.8235294117647058400, 0.9372549019607843100 ) ;
#237 = ADVANCED_BREP_SHAPE_REPRESENTATION ( '3372-E0W', ( #75, #143 ), #250 ) ;
#238 =( GEOMETRIC_REPRESENTATION_CONTEXT ( 3 ) GLOBAL_UNCERTAINTY_ASSIGNED_CONTEXT ( ( #239 ) ) GLOBAL_UNIT_ASSIGNED_CONTEXT ( ( #275, #274, #240 ) ) REPRESENTATION_CONTEXT ( 'NONE', 'WORKASPACE' ) );
#239 = UNCERTAINTY_MEASURE_WITH_UNIT (LENGTH_MEASURE( 1.000000000000000100E-005 ), #275, 'distance_accuracy_value', 'NONE');
#240 =( NAMED_UNIT ( * ) SI_UNIT ( $, .STERADIAN. ) SOLID_ANGLE_UNIT ( ) );
#241 = STYLED_ITEM ( 'NONE', ( #303 ), #119 ) ;
#242 = FACE_OUTER_BOUND ( 'NONE', #127, .T. ) ;
#243 = UNCERTAINTY_MEASURE_WITH_UNIT (LENGTH_MEASURE( 1.000000000000000100E-005 ), #225, 'distance_accuracy_value', 'NONE');
#244 =( NAMED_UNIT ( * ) SI_UNIT ( $, .STERADIAN. ) SOLID_ANGLE_UNIT ( ) );
#245 =( NAMED_UNIT ( * ) SI_UNIT ( $, .STERADIAN. ) SOLID_ANGLE_UNIT ( ) );
#246 = DIRECTION ( 'NONE',  ( 1.000000000000000000, 0.0000000000000000000, 0.0000000000000000000 ) ) ;
#247 = SURFACE_STYLE_FILL_AREA ( #298 ) ;
#248 = UNCERTAINTY_MEASURE_WITH_UNIT (LENGTH_MEASURE( 1.000000000000000100E-005 ), #288, 'distance_accuracy_value', 'NONE');
#249 =( NAMED_UNIT ( * ) SI_UNIT ( $, .STERADIAN. ) SOLID_ANGLE_UNIT ( ) );
#250 =( GEOMETRIC_REPRESENTATION_CONTEXT ( 3 ) GLOBAL_UNCERTAINTY_ASSIGNED_CONTEXT ( ( #251 ) ) GLOBAL_UNIT_ASSIGNED_CONTEXT ( ( #206, #211, #210 ) ) REPRESENTATION_CONTEXT ( 'NONE', 'WORKASPACE' ) );
#251 = UNCERTAINTY_MEASURE_WITH_UNIT (LENGTH_MEASURE( 1.000000000000000100E-005 ), #206, 'distance_accuracy_value', 'NONE');
#252 =( GEOMETRIC_REPRESENTATION_CONTEXT ( 3 ) GLOBAL_UNCERTAINTY_ASSIGNED_CONTEXT ( ( #243 ) ) GLOBAL_UNIT_ASSIGNED_CONTEXT ( ( #225, #224, #244 ) ) REPRESENTATION_CONTEXT ( 'NONE', 'WORKASPACE' ) );
#253 = UNCERTAINTY_MEASURE_WITH_UNIT (LENGTH_MEASURE( 1.000000000000000100E-005 ), #223, 'distance_accuracy_value', 'NONE');
#254 = FILL_AREA_STYLE_COLOUR ( '', #263 ) ;
#255 = CARTESIAN_POINT ( 'NONE',  ( -12.70000000000000500, -4.718848041587794900E-015, 0.9982865478490587900 ) ) ;
#256 = CARTESIAN_POINT ( 'NONE',  ( 12.70000000000001000, -6.274098110942214900E-015, -0.9982865478491507200 ) ) ;
#257 = CARTESIAN_POINT ( 'NONE',  ( -12.70000000000001000, -4.718848041587794100E-015, -0.9982865478491507200 ) ) ;
#258 = PRESENTATION_STYLE_ASSIGNMENT (( #259 ) ) ;
#259 = SURFACE_STYLE_USAGE ( .BOTH. , #260 ) ;
#260 = SURFACE_SIDE_STYLE ('',( #261 ) ) ;
#261 = SURFACE_STYLE_FILL_AREA ( #262 ) ;
#262 = FILL_AREA_STYLE ('',( #254 ) ) ;
#263 = COLOUR_RGB ( '',0.9568627450980391500, 0.9490196078431372100, 0.9607843137254902200 ) ;
#264 = FACE_OUTER_BOUND ( 'NONE', #151, .T. ) ;
#265 = CARTESIAN_POINT ( 'NONE',  ( -1.555250069354510600E-015, -12.70000000000068500, 0.9982865478490032800 ) ) ;
#266 =( NAMED_UNIT ( * ) PLANE_ANGLE_UNIT ( ) SI_UNIT ( $, .RADIAN. ) );
#267 = MECHANICAL_DESIGN_GEOMETRIC_PRESENTATION_REPRESENTATION (  '', ( #269 ), #296 ) ;
#268 = PRESENTATION_LAYER_ASSIGNMENT (  '', '', ( #269 ) ) ;
#269 = STYLED_ITEM ( 'NONE', ( #198 ), #122 ) ;
#270 = FACE_OUTER_BOUND ( 'NONE', #18, .T. ) ;
#271 = FILL_AREA_STYLE_COLOUR ( '', #215 ) ;
#272 = SPHERICAL_SURFACE ( 'NONE', #219, 514.6799999999998400 ) ;
#273 = CARTESIAN_POINT ( 'NONE',  ( 12.70000000000000500, -6.274098110942214900E-015, 0.9982865478490587900 ) ) ;
#274 =( NAMED_UNIT ( * ) PLANE_ANGLE_UNIT ( ) SI_UNIT ( $, .RADIAN. ) );
#275 =( LENGTH_UNIT ( ) NAMED_UNIT ( * ) SI_UNIT ( .MILLI., .METRE. ) );
#276 = MECHANICAL_DESIGN_GEOMETRIC_PRESENTATION_REPRESENTATION (  '', ( #278 ), #238 ) ;
#277 = PRESENTATION_LAYER_ASSIGNMENT (  '', '', ( #278 ) ) ;
#278 = STYLED_ITEM ( 'NONE', ( #279 ), #237 ) ;
#279 = PRESENTATION_STYLE_ASSIGNMENT (( #280 ) ) ;
#280 = SURFACE_STYLE_USAGE ( .BOTH. , #281 ) ;
#281 = SURFACE_SIDE_STYLE ('',( #233 ) ) ;
#282 = MECHANICAL_DESIGN_GEOMETRIC_PRESENTATION_REPRESENTATION (  '', ( #284 ), #252 ) ;
#283 = PRESENTATION_LAYER_ASSIGNMENT (  '', '', ( #284 ) ) ;
#284 = STYLED_ITEM ( 'NONE', ( #285 ), #154 ) ;
#285 = PRESENTATION_STYLE_ASSIGNMENT (( #286 ) ) ;
#286 = SURFACE_STYLE_USAGE ( .BOTH. , #212 ) ;
#287 = FILL_AREA_STYLE_COLOUR ( '', #305 ) ;
#288 =( LENGTH_UNIT ( ) NAMED_UNIT ( * ) SI_UNIT ( .MILLI., .METRE. ) );
#289 = MECHANICAL_DESIGN_GEOMETRIC_PRESENTATION_REPRESENTATION (  '', ( #291 ), #299 ) ;
#290 = PRESENTATION_LAYER_ASSIGNMENT (  '', '', ( #291 ) ) ;
#291 = STYLED_ITEM ( 'NONE', ( #258 ), #150 ) ;
#292 =( NAMED_UNIT ( * ) PLANE_ANGLE_UNIT ( ) SI_UNIT ( $, .RADIAN. ) );
#293 = AXIS2_PLACEMENT_3D ( 'NONE', #294, #209, #208 ) ;
#294 = CARTESIAN_POINT ( 'NONE',  ( 0.0000000000000000000, 6.273988016711803900E-014, -513.5249999999997500 ) ) ;
#295 = SPHERICAL_SURFACE ( 'NONE', #293, 514.6799999999998400 ) ;
#296 =( GEOMETRIC_REPRESENTATION_CONTEXT ( 3 ) GLOBAL_UNCERTAINTY_ASSIGNED_CONTEXT ( ( #253 ) ) GLOBAL_UNIT_ASSIGNED_CONTEXT ( ( #223, #230, #245 ) ) REPRESENTATION_CONTEXT ( 'NONE', 'WORKASPACE' ) );
#297 = SURFACE_STYLE_USAGE ( .BOTH. , #226 ) ;
#298 = FILL_AREA_STYLE ('',( #287 ) ) ;
#299 =( GEOMETRIC_REPRESENTATION_CONTEXT ( 3 ) GLOBAL_UNCERTAINTY_ASSIGNED_CONTEXT ( ( #248 ) ) GLOBAL_UNIT_ASSIGNED_CONTEXT ( ( #288, #292, #249 ) ) REPRESENTATION_CONTEXT ( 'NONE', 'WORKASPACE' ) );
#300 = CARTESIAN_POINT ( 'NONE',  ( 0.0000000000000000000, -6.274098110942214900E-015, 6.491000388932064000 ) ) ;
#301 = CARTESIAN_POINT ( 'NONE',  ( 0.0000000000000000000, -3.152344943004581700E-014, -1.155000000000017100 ) ) ;
#302 = DIRECTION ( 'NONE',  ( -0.0000000000000000000, -0.0000000000000000000, 1.000000000000000000 ) ) ;
#303 = PRESENTATION_STYLE_ASSIGNMENT (( #297 ) ) ;
#304 = MECHANICAL_DESIGN_GEOMETRIC_PRESENTATION_REPRESENTATION (  '', ( #241 ), #227 ) ;
#305 = COLOUR_RGB ( '',0.9568627450980391500, 0.9490196078431372100, 0.9607843137254902200 ) ;
#306 = DIRECTION ( 'NONE',  ( 0.0000000000000000000, 1.000000000000000000, 0.0000000000000000000 ) ) ;
#307 = DIRECTION ( 'NONE',  ( -1.000000000000000000, 0.0000000000000000000, 0.0000000000000000000 ) ) ;
#308 = CARTESIAN_POINT ( 'NONE',  ( 0.0000000000000000000, -6.303746933931085800E-014, 513.5249999999997500 ) ) ;
#309 = AXIS2_PLACEMENT_3D ( 'NONE', #308, #307, #306 ) ;
#310 = CARTESIAN_POINT ( 'NONE',  ( 0.0000000000000000000, 12.69999999999849300, -0.9982865478491047600 ) ) ;
#311 = PRODUCT_DEFINITION ( 'UNKNOWN', '', #318, #312 ) ;
#312 = PRODUCT_DEFINITION_CONTEXT ( 'detailed design', #314, 'design' ) ;
#313 = APPLICATION_PROTOCOL_DEFINITION ( 'draft international standard', 'automotive_design', 1998, #314 ) ;
#314 = APPLICATION_CONTEXT ( 'automotive_design' ) ;
#315 = PRODUCT_DEFINITION_SHAPE ( 'NONE', 'NONE',  #311 ) ;
#316 = SHAPE_DEFINITION_REPRESENTATION ( #315, #237 ) ;
#317 = PRODUCT_RELATED_PRODUCT_CATEGORY ( 'part', '', ( #319 ) ) ;
#318 = PRODUCT_DEFINITION_FORMATION_WITH_SPECIFIED_SOURCE ( 'ANY', '', #319, .NOT_KNOWN. ) ;
#319 = PRODUCT ( '3372-E0W', '3372-E0W', '', ( #320 ) ) ;
#320 = PRODUCT_CONTEXT ( 'NONE', #322, 'mechanical' ) ;
#321 = APPLICATION_PROTOCOL_DEFINITION ( 'draft international standard', 'automotive_design', 1998, #322 ) ;
#322 = APPLICATION_CONTEXT ( 'automotive_design' ) ;
ENDSEC;
END-ISO-10303-21;
