ISO-10303-21;
HEADER;
FILE_DESCRIPTION (( 'STEP AP203' ),
    '1' );
FILE_NAME ('Web Model 63207_14804.step',
    '2020-10-07T17:34:06',
    ( '' ),
    ( '' ),
    'SwSTEP 2.0',
    'SolidWorks 2018',
    '' );
FILE_SCHEMA (( 'CONFIG_CONTROL_DESIGN' ));
ENDSEC;

DATA;
#1 = DIRECTION ( 'NONE',  ( 1.000000000000000000, 0.0000000000000000000, 0.0000000000000000000 ) ) ;
#2 =( GEOMETRIC_REPRESENTATION_CONTEXT ( 3 ) GLOBAL_UNCERTAINTY_ASSIGNED_CONTEXT ( ( #139 ) ) GLOBAL_UNIT_ASSIGNED_CONTEXT ( ( #134, #26, #119 ) ) REPRESENTATION_CONTEXT ( 'NONE', 'WORKASPACE' ) );
#3 = APPROVAL_STATUS ( 'not_yet_approved' ) ;
#4 = DIRECTION ( 'NONE',  ( -0.0000000000000000000, -0.0000000000000000000, -1.000000000000000000 ) ) ;
#5 = DIRECTION ( 'NONE',  ( 0.0000000000000000000, 0.0000000000000000000, 1.000000000000000000 ) ) ;
#6 = PERSON_AND_ORGANIZATION ( #94, #110 ) ;
#7 = FACE_OUTER_BOUND ( 'NONE', #76, .T. ) ;
#8 = CARTESIAN_POINT ( 'NONE',  ( 0.0000000000000000000, 0.0000000000000000000, 2.000000000000000000 ) ) ;
#9 = PERSON_AND_ORGANIZATION ( #94, #110 ) ;
#10 = CARTESIAN_POINT ( 'NONE',  ( 0.0000000000000000000, 0.0000000000000000000, 0.0000000000000000000 ) ) ;
#11 = APPROVAL_ROLE ( '' ) ;
#12 = DIRECTION ( 'NONE',  ( 1.000000000000000000, 0.0000000000000000000, 0.0000000000000000000 ) ) ;
#13 = DATE_AND_TIME ( #125, #164 ) ;
#14 = ORIENTED_EDGE ( 'NONE', *, *, #86, .F. ) ;
#15 = APPROVAL_STATUS ( 'not_yet_approved' ) ;
#16 = FACE_OUTER_BOUND ( 'NONE', #82, .T. ) ;
#17 = CIRCLE ( 'NONE', #102, 10.00000000000000000 ) ;
#18 = CIRCLE ( 'NONE', #127, 10.00000000000000000 ) ;
#19 = EDGE_CURVE ( 'NONE', #37, #67, #84, .T. ) ;
#20 = PERSON_AND_ORGANIZATION ( #94, #110 ) ;
#21 = ADVANCED_BREP_SHAPE_REPRESENTATION ( 'Web Model 63207_14804', ( #78, #51 ), #2 ) ;
#22 = CARTESIAN_POINT ( 'NONE',  ( -10.00000000000000000, 0.0000000000000000000, 2.000000000000000000 ) ) ;
#23 = CARTESIAN_POINT ( 'NONE',  ( 0.0000000000000000000, 0.0000000000000000000, 2.000000000000000000 ) ) ;
#24 = APPROVAL_PERSON_ORGANIZATION ( #20, #90, #11 ) ;
#25 = DIRECTION ( 'NONE',  ( -1.000000000000000000, 0.0000000000000000000, 0.0000000000000000000 ) ) ;
#26 =( NAMED_UNIT ( * ) PLANE_ANGLE_UNIT ( ) SI_UNIT ( $, .RADIAN. ) );
#27 = LOCAL_TIME ( 13, 34, 6.000000000000000000, #80 ) ;
#28 = LINE ( 'NONE', #22, #169 ) ;
#29 = LOCAL_TIME ( 13, 34, 6.000000000000000000, #162 ) ;
#30 = AXIS2_PLACEMENT_3D ( 'NONE', #69, #145, #81 ) ;
#31 = FACE_OUTER_BOUND ( 'NONE', #153, .T. ) ;
#32 = AXIS2_PLACEMENT_3D ( 'NONE', #101, #57, #39 ) ;
#33 = COORDINATED_UNIVERSAL_TIME_OFFSET ( 5, 0, .BEHIND. ) ;
#34 = PRODUCT_DEFINITION_FORMATION_WITH_SPECIFIED_SOURCE ( 'ANY', '', #113, .NOT_KNOWN. ) ;
#35 = LOCAL_TIME ( 13, 34, 6.000000000000000000, #64 ) ;
#36 = CC_DESIGN_APPROVAL ( #41, ( #34 ) ) ;
#37 = VERTEX_POINT ( 'NONE', #172 ) ;
#38 = CARTESIAN_POINT ( 'NONE',  ( 0.0000000000000000000, 0.0000000000000000000, 0.0000000000000000000 ) ) ;
#39 = DIRECTION ( 'NONE',  ( 1.000000000000000000, 0.0000000000000000000, 0.0000000000000000000 ) ) ;
#40 = DIRECTION ( 'NONE',  ( 0.0000000000000000000, 0.0000000000000000000, 1.000000000000000000 ) ) ;
#41 = APPROVAL ( #15, 'UNSPECIFIED' ) ;
#42 = PRODUCT_DEFINITION_SHAPE ( 'NONE', 'NONE',  #56 ) ;
#43 = DATE_TIME_ROLE ( 'classification_date' ) ;
#44 = MECHANICAL_CONTEXT ( 'NONE', #77, 'mechanical' ) ;
#45 = PERSON_AND_ORGANIZATION_ROLE ( 'design_supplier' ) ;
#46 = DATE_AND_TIME ( #136, #35 ) ;
#47 = ORIENTED_EDGE ( 'NONE', *, *, #117, .T. ) ;
#48 = CARTESIAN_POINT ( 'NONE',  ( 10.00000000000000000, 1.224646799147353256E-15, 2.000000000000000000 ) ) ;
#49 = CIRCLE ( 'NONE', #32, 10.00000000000000000 ) ;
#50 = ADVANCED_FACE ( 'NONE', ( #97 ), #53, .F. ) ;
#51 = AXIS2_PLACEMENT_3D ( 'NONE', #38, #40, #132 ) ;
#52 = CALENDAR_DATE ( 2020, 7, 10 ) ;
#53 = PLANE ( 'NONE',  #30 ) ;
#54 = DATE_AND_TIME ( #142, #168 ) ;
#55 = DIRECTION ( 'NONE',  ( -0.0000000000000000000, -0.0000000000000000000, -1.000000000000000000 ) ) ;
#56 = PRODUCT_DEFINITION ( 'UNKNOWN', '', #34, #99 ) ;
#57 = DIRECTION ( 'NONE',  ( 0.0000000000000000000, 0.0000000000000000000, 1.000000000000000000 ) ) ;
#58 = APPROVAL_ROLE ( '' ) ;
#59 = DATE_TIME_ROLE ( 'creation_date' ) ;
#60 = DATE_AND_TIME ( #79, #27 ) ;
#61 = ADVANCED_FACE ( 'NONE', ( #7 ), #96, .T. ) ;
#62 = PERSON_AND_ORGANIZATION ( #94, #110 ) ;
#63 = CC_DESIGN_PERSON_AND_ORGANIZATION_ASSIGNMENT ( #158, #45, ( #34 ) ) ;
#64 = COORDINATED_UNIVERSAL_TIME_OFFSET ( 5, 0, .BEHIND. ) ;
#65 = ORIENTED_EDGE ( 'NONE', *, *, #140, .T. ) ;
#66 = SECURITY_CLASSIFICATION ( '', '', #71 ) ;
#67 = VERTEX_POINT ( 'NONE', #131 ) ;
#68 = ORIENTED_EDGE ( 'NONE', *, *, #146, .F. ) ;
#69 = CARTESIAN_POINT ( 'NONE',  ( 0.0000000000000000000, 0.0000000000000000000, 0.0000000000000000000 ) ) ;
#70 = AXIS2_PLACEMENT_3D ( 'NONE', #23, #5, #150 ) ;
#71 = SECURITY_CLASSIFICATION_LEVEL ( 'unclassified' ) ;
#72 = AXIS2_PLACEMENT_3D ( 'NONE', #148, #105, #25 ) ;
#73 = APPLICATION_PROTOCOL_DEFINITION ( 'international standard', 'config_control_design', 1994, #77 ) ;
#74 = PERSON_AND_ORGANIZATION_ROLE ( 'classification_officer' ) ;
#75 = DIRECTION ( 'NONE',  ( -0.0000000000000000000, -0.0000000000000000000, -1.000000000000000000 ) ) ;
#76 = EDGE_LOOP ( 'NONE', ( #112, #165, #130, #108 ) ) ;
#77 = APPLICATION_CONTEXT ( 'configuration controlled 3d designs of mechanical parts and assemblies' ) ;
#78 = MANIFOLD_SOLID_BREP ( 'Extrude1', #122 ) ;
#79 = CALENDAR_DATE ( 2020, 7, 10 ) ;
#80 = COORDINATED_UNIVERSAL_TIME_OFFSET ( 5, 0, .BEHIND. ) ;
#81 = DIRECTION ( 'NONE',  ( 1.000000000000000000, 0.0000000000000000000, -0.0000000000000000000 ) ) ;
#82 = EDGE_LOOP ( 'NONE', ( #14, #91, #47, #109 ) ) ;
#83 = CYLINDRICAL_SURFACE ( 'NONE', #72, 10.00000000000000000 ) ;
#84 = CIRCLE ( 'NONE', #149, 10.00000000000000000 ) ;
#85 = CC_DESIGN_SECURITY_CLASSIFICATION ( #66, ( #34 ) ) ;
#86 = EDGE_CURVE ( 'NONE', #93, #67, #174, .T. ) ;
#87 = APPROVAL_STATUS ( 'not_yet_approved' ) ;
#88 = CARTESIAN_POINT ( 'NONE',  ( 0.0000000000000000000, 0.0000000000000000000, 2.000000000000000000 ) ) ;
#89 = PERSON_AND_ORGANIZATION_ROLE ( 'design_owner' ) ;
#90 = APPROVAL ( #87, 'UNSPECIFIED' ) ;
#91 = ORIENTED_EDGE ( 'NONE', *, *, #140, .F. ) ;
#92 = APPROVAL_DATE_TIME ( #157, #90 ) ;
#93 = VERTEX_POINT ( 'NONE', #103 ) ;
#94 = PERSON ( 'UNSPECIFIED', 'UNSPECIFIED', 'UNSPECIFIED', ('UNSPECIFIED'), ('UNSPECIFIED'), ('UNSPECIFIED') ) ;
#95 = PERSON_AND_ORGANIZATION ( #94, #110 ) ;
#96 = CYLINDRICAL_SURFACE ( 'NONE', #138, 10.00000000000000000 ) ;
#97 = FACE_OUTER_BOUND ( 'NONE', #155, .T. ) ;
#98 = CC_DESIGN_PERSON_AND_ORGANIZATION_ASSIGNMENT ( #107, #133, ( #56 ) ) ;
#99 = DESIGN_CONTEXT ( 'detailed design', #160, 'design' ) ;
#100 = APPROVAL_DATE_TIME ( #13, #41 ) ;
#101 = CARTESIAN_POINT ( 'NONE',  ( 0.0000000000000000000, 0.0000000000000000000, 2.000000000000000000 ) ) ;
#102 = AXIS2_PLACEMENT_3D ( 'NONE', #151, #123, #1 ) ;
#103 = CARTESIAN_POINT ( 'NONE',  ( 10.00000000000000000, 1.224646799147353256E-15, 2.000000000000000000 ) ) ;
#104 = CC_DESIGN_PERSON_AND_ORGANIZATION_ASSIGNMENT ( #173, #161, ( #34 ) ) ;
#105 = DIRECTION ( 'NONE',  ( -0.0000000000000000000, -0.0000000000000000000, -1.000000000000000000 ) ) ;
#106 = APPROVAL_ROLE ( '' ) ;
#107 = PERSON_AND_ORGANIZATION ( #94, #110 ) ;
#108 = ORIENTED_EDGE ( 'NONE', *, *, #117, .F. ) ;
#109 = ORIENTED_EDGE ( 'NONE', *, *, #19, .T. ) ;
#110 = ORGANIZATION ( 'UNSPECIFIED', 'UNSPECIFIED', '' ) ;
#111 = ORIENTED_EDGE ( 'NONE', *, *, #135, .T. ) ;
#112 = ORIENTED_EDGE ( 'NONE', *, *, #135, .F. ) ;
#113 = PRODUCT ( 'Web Model 63207_14804', 'Web Model 63207_14804', '', ( #44 ) ) ;
#114 = DIRECTION ( 'NONE',  ( -1.000000000000000000, 0.0000000000000000000, 0.0000000000000000000 ) ) ;
#115 = CC_DESIGN_DATE_AND_TIME_ASSIGNMENT ( #54, #43, ( #66 ) ) ;
#116 = ORIENTED_EDGE ( 'NONE', *, *, #19, .F. ) ;
#117 = EDGE_CURVE ( 'NONE', #159, #37, #28, .T. ) ;
#118 = PLANE ( 'NONE',  #70 ) ;
#119 =( NAMED_UNIT ( * ) SI_UNIT ( $, .STERADIAN. ) SOLID_ANGLE_UNIT ( ) );
#120 = APPLICATION_PROTOCOL_DEFINITION ( 'international standard', 'config_control_design', 1994, #160 ) ;
#121 = SHAPE_DEFINITION_REPRESENTATION ( #42, #21 ) ;
#122 = CLOSED_SHELL ( 'NONE', ( #61, #166, #141, #50 ) ) ;
#123 = DIRECTION ( 'NONE',  ( 0.0000000000000000000, 0.0000000000000000000, 1.000000000000000000 ) ) ;
#124 = CC_DESIGN_DATE_AND_TIME_ASSIGNMENT ( #46, #59, ( #56 ) ) ;
#125 = CALENDAR_DATE ( 2020, 7, 10 ) ;
#126 = COORDINATED_UNIVERSAL_TIME_OFFSET ( 5, 0, .BEHIND. ) ;
#127 = AXIS2_PLACEMENT_3D ( 'NONE', #88, #175, #12 ) ;
#128 = PRODUCT_RELATED_PRODUCT_CATEGORY ( 'detail', '', ( #113 ) ) ;
#129 = APPROVAL_DATE_TIME ( #60, #167 ) ;
#130 = ORIENTED_EDGE ( 'NONE', *, *, #146, .T. ) ;
#131 = CARTESIAN_POINT ( 'NONE',  ( 10.00000000000000000, 1.224646799147353256E-15, 0.0000000000000000000 ) ) ;
#132 = DIRECTION ( 'NONE',  ( 1.000000000000000000, 0.0000000000000000000, 0.0000000000000000000 ) ) ;
#133 = PERSON_AND_ORGANIZATION_ROLE ( 'creator' ) ;
#134 =( LENGTH_UNIT ( ) NAMED_UNIT ( * ) SI_UNIT ( .MILLI., .METRE. ) );
#135 = EDGE_CURVE ( 'NONE', #93, #159, #49, .T. ) ;
#136 = CALENDAR_DATE ( 2020, 7, 10 ) ;
#137 = VECTOR ( 'NONE', #75, 1000.000000000000000 ) ;
#138 = AXIS2_PLACEMENT_3D ( 'NONE', #8, #55, #114 ) ;
#139 = UNCERTAINTY_MEASURE_WITH_UNIT (LENGTH_MEASURE( 1.000000000000000082E-05 ), #134, 'distance_accuracy_value', 'NONE');
#140 = EDGE_CURVE ( 'NONE', #159, #93, #18, .T. ) ;
#141 = ADVANCED_FACE ( 'NONE', ( #31 ), #118, .T. ) ;
#142 = CALENDAR_DATE ( 2020, 7, 10 ) ;
#143 = CC_DESIGN_PERSON_AND_ORGANIZATION_ASSIGNMENT ( #9, #89, ( #113 ) ) ;
#144 = CC_DESIGN_APPROVAL ( #90, ( #56 ) ) ;
#145 = DIRECTION ( 'NONE',  ( 0.0000000000000000000, 0.0000000000000000000, 1.000000000000000000 ) ) ;
#146 = EDGE_CURVE ( 'NONE', #67, #37, #17, .T. ) ;
#147 = DIRECTION ( 'NONE',  ( 0.0000000000000000000, 0.0000000000000000000, 1.000000000000000000 ) ) ;
#148 = CARTESIAN_POINT ( 'NONE',  ( 0.0000000000000000000, 0.0000000000000000000, 2.000000000000000000 ) ) ;
#149 = AXIS2_PLACEMENT_3D ( 'NONE', #10, #147, #156 ) ;
#150 = DIRECTION ( 'NONE',  ( 1.000000000000000000, 0.0000000000000000000, -0.0000000000000000000 ) ) ;
#151 = CARTESIAN_POINT ( 'NONE',  ( 0.0000000000000000000, 0.0000000000000000000, 0.0000000000000000000 ) ) ;
#152 = CC_DESIGN_APPROVAL ( #167, ( #66 ) ) ;
#153 = EDGE_LOOP ( 'NONE', ( #65, #111 ) ) ;
#154 = APPROVAL_PERSON_ORGANIZATION ( #62, #167, #58 ) ;
#155 = EDGE_LOOP ( 'NONE', ( #116, #68 ) ) ;
#156 = DIRECTION ( 'NONE',  ( 1.000000000000000000, 0.0000000000000000000, 0.0000000000000000000 ) ) ;
#157 = DATE_AND_TIME ( #52, #29 ) ;
#158 = PERSON_AND_ORGANIZATION ( #94, #110 ) ;
#159 = VERTEX_POINT ( 'NONE', #163 ) ;
#160 = APPLICATION_CONTEXT ( 'configuration controlled 3d designs of mechanical parts and assemblies' ) ;
#161 = PERSON_AND_ORGANIZATION_ROLE ( 'creator' ) ;
#162 = COORDINATED_UNIVERSAL_TIME_OFFSET ( 5, 0, .BEHIND. ) ;
#163 = CARTESIAN_POINT ( 'NONE',  ( -10.00000000000000000, 0.0000000000000000000, 2.000000000000000000 ) ) ;
#164 = LOCAL_TIME ( 13, 34, 6.000000000000000000, #126 ) ;
#165 = ORIENTED_EDGE ( 'NONE', *, *, #86, .T. ) ;
#166 = ADVANCED_FACE ( 'NONE', ( #16 ), #83, .T. ) ;
#167 = APPROVAL ( #3, 'UNSPECIFIED' ) ;
#168 = LOCAL_TIME ( 13, 34, 6.000000000000000000, #33 ) ;
#169 = VECTOR ( 'NONE', #4, 1000.000000000000000 ) ;
#170 = CC_DESIGN_PERSON_AND_ORGANIZATION_ASSIGNMENT ( #6, #74, ( #66 ) ) ;
#171 = APPROVAL_PERSON_ORGANIZATION ( #95, #41, #106 ) ;
#172 = CARTESIAN_POINT ( 'NONE',  ( -10.00000000000000000, 0.0000000000000000000, 0.0000000000000000000 ) ) ;
#173 = PERSON_AND_ORGANIZATION ( #94, #110 ) ;
#174 = LINE ( 'NONE', #48, #137 ) ;
#175 = DIRECTION ( 'NONE',  ( 0.0000000000000000000, 0.0000000000000000000, 1.000000000000000000 ) ) ;
ENDSEC;
END-ISO-10303-21;
