ISO-10303-21;
HEADER;
FILE_DESCRIPTION (( 'STEP AP203' ),
    '1' );
FILE_NAME ('Web Model 68412.STEP',
    '2017-01-31T19:59:21',
    ( '' ),
    ( '' ),
    'SwSTEP 2.0',
    'SolidWorks 2016',
    '' );
FILE_SCHEMA (( 'CONFIG_CONTROL_DESIGN' ));
ENDSEC;

DATA;
#1 = DIRECTION ( 'NONE',  ( 0.0000000000000000000, 0.0000000000000000000, -1.000000000000000000 ) ) ;
#2 = DIRECTION ( 'NONE',  ( -0.0000000000000000000, -0.0000000000000000000, -1.000000000000000000 ) ) ;
#3 = EDGE_CURVE ( 'NONE', #31, #34, #236, .T. ) ;
#4 = CARTESIAN_POINT ( 'NONE',  ( -24.99999999999999300, -25.00000000000000000, 3.000000000000000000 ) ) ;
#5 = ORIENTED_EDGE ( 'NONE', *, *, #68, .F. ) ;
#6 =( LENGTH_UNIT ( ) NAMED_UNIT ( * ) SI_UNIT ( .MILLI., .METRE. ) );
#7 = ADVANCED_FACE ( 'NONE', ( #23 ), #219, .F. ) ;
#8 = CARTESIAN_POINT ( 'NONE',  ( 25.00000000000000700, -24.99999999999999300, 0.0000000000000000000 ) ) ;
#9 = COORDINATED_UNIVERSAL_TIME_OFFSET ( 5, 0, .BEHIND. ) ;
#10 = APPROVAL ( #82, 'UNSPECIFIED' ) ;
#11 = VECTOR ( 'NONE', #2, 1000.000000000000000 ) ;
#12 = CC_DESIGN_PERSON_AND_ORGANIZATION_ASSIGNMENT ( #146, #53, ( #183 ) ) ;
#13 = EDGE_CURVE ( 'NONE', #142, #31, #69, .T. ) ;
#14 = COORDINATED_UNIVERSAL_TIME_OFFSET ( 5, 0, .BEHIND. ) ;
#15 = ORIENTED_EDGE ( 'NONE', *, *, #43, .F. ) ;
#16 = MANIFOLD_SOLID_BREP ( 'Extrude1', #210 ) ;
#17 = CARTESIAN_POINT ( 'NONE',  ( 25.00000000000000700, -24.99999999999999300, 0.0000000000000000000 ) ) ;
#18 = EDGE_LOOP ( 'NONE', ( #65, #38, #160, #169 ) ) ;
#19 = PLANE ( 'NONE',  #176 ) ;
#20 = CARTESIAN_POINT ( 'NONE',  ( 25.00000000000000700, -24.99999999999999300, 3.000000000000000000 ) ) ;
#21 = DATE_AND_TIME ( #136, #88 ) ;
#22 = CARTESIAN_POINT ( 'NONE',  ( -25.00000000000000000, 25.00000000000000400, 3.000000000000000000 ) ) ;
#23 = FACE_OUTER_BOUND ( 'NONE', #71, .T. ) ;
#24 = CC_DESIGN_PERSON_AND_ORGANIZATION_ASSIGNMENT ( #216, #193, ( #66 ) ) ;
#25 = ADVANCED_FACE ( 'NONE', ( #114 ), #19, .T. ) ;
#26 = CARTESIAN_POINT ( 'NONE',  ( 24.99999999999999600, 25.00000000000001100, 3.000000000000000000 ) ) ;
#27 = ORIENTED_EDGE ( 'NONE', *, *, #214, .F. ) ;
#28 = DIRECTION ( 'NONE',  ( 1.000000000000000000, 1.387778780781445400E-016, 0.0000000000000000000 ) ) ;
#29 = AXIS2_PLACEMENT_3D ( 'NONE', #22, #144, #166 ) ;
#30 = LINE ( 'NONE', #115, #127 ) ;
#31 = VERTEX_POINT ( 'NONE', #125 ) ;
#32 = APPROVAL_ROLE ( '' ) ;
#33 = CC_DESIGN_APPROVAL ( #235, ( #197 ) ) ;
#34 = VERTEX_POINT ( 'NONE', #93 ) ;
#35 = ADVANCED_BREP_SHAPE_REPRESENTATION ( 'Web Model 68412', ( #16, #237 ), #119 ) ;
#36 = EDGE_CURVE ( 'NONE', #139, #31, #99, .T. ) ;
#37 = DATE_AND_TIME ( #198, #49 ) ;
#38 = ORIENTED_EDGE ( 'NONE', *, *, #81, .F. ) ;
#39 = ORIENTED_EDGE ( 'NONE', *, *, #214, .T. ) ;
#40 = CC_DESIGN_PERSON_AND_ORGANIZATION_ASSIGNMENT ( #208, #173, ( #197 ) ) ;
#41 = CARTESIAN_POINT ( 'NONE',  ( -24.99999999999999300, -25.00000000000000000, 0.0000000000000000000 ) ) ;
#42 = APPROVAL_DATE_TIME ( #86, #235 ) ;
#43 = EDGE_CURVE ( 'NONE', #142, #80, #148, .T. ) ;
#44 = DIRECTION ( 'NONE',  ( -1.000000000000000000, 0.0000000000000000000, -0.0000000000000000000 ) ) ;
#45 = CARTESIAN_POINT ( 'NONE',  ( -25.00000000000000000, 25.00000000000000400, 3.000000000000000000 ) ) ;
#46 = VERTEX_POINT ( 'NONE', #17 ) ;
#47 = DIRECTION ( 'NONE',  ( -0.0000000000000000000, -0.0000000000000000000, -1.000000000000000000 ) ) ;
#48 = CARTESIAN_POINT ( 'NONE',  ( 25.00000000000000700, -24.99999999999999300, 3.000000000000000000 ) ) ;
#49 = LOCAL_TIME ( 14, 59, 21.00000000000000000, #117 ) ;
#50 = FACE_OUTER_BOUND ( 'NONE', #221, .T. ) ;
#51 = SECURITY_CLASSIFICATION_LEVEL ( 'unclassified' ) ;
#52 = PRODUCT ( 'Web Model 68412', 'Web Model 68412', '', ( #207 ) ) ;
#53 = PERSON_AND_ORGANIZATION_ROLE ( 'creator' ) ;
#54 = LOCAL_TIME ( 14, 59, 21.00000000000000000, #14 ) ;
#55 = PERSON_AND_ORGANIZATION ( #87, #92 ) ;
#56 = ORIENTED_EDGE ( 'NONE', *, *, #13, .T. ) ;
#57 = DIRECTION ( 'NONE',  ( 1.387778780781445700E-016, -1.000000000000000000, 0.0000000000000000000 ) ) ;
#58 = VECTOR ( 'NONE', #189, 1000.000000000000000 ) ;
#59 = CARTESIAN_POINT ( 'NONE',  ( 25.00000000000000700, -24.99999999999999300, 3.000000000000000000 ) ) ;
#60 = EDGE_LOOP ( 'NONE', ( #227, #122, #195, #163 ) ) ;
#61 = DIRECTION ( 'NONE',  ( -1.000000000000000000, -2.081668171172168300E-016, 0.0000000000000000000 ) ) ;
#62 = CARTESIAN_POINT ( 'NONE',  ( 0.0000000000000000000, 0.0000000000000000000, 0.0000000000000000000 ) ) ;
#63 = DATE_AND_TIME ( #126, #145 ) ;
#64 = DIRECTION ( 'NONE',  ( -1.387778780781445400E-016, 1.000000000000000000, 0.0000000000000000000 ) ) ;
#65 = ORIENTED_EDGE ( 'NONE', *, *, #234, .T. ) ;
#66 = SECURITY_CLASSIFICATION ( '', '', #51 ) ;
#67 = CARTESIAN_POINT ( 'NONE',  ( 24.99999999999999600, 25.00000000000001100, 3.000000000000000000 ) ) ;
#68 = EDGE_CURVE ( 'NONE', #80, #215, #180, .T. ) ;
#69 = LINE ( 'NONE', #129, #11 ) ;
#70 = COORDINATED_UNIVERSAL_TIME_OFFSET ( 5, 0, .BEHIND. ) ;
#71 = EDGE_LOOP ( 'NONE', ( #128, #201, #120, #165 ) ) ;
#72 = ORIENTED_EDGE ( 'NONE', *, *, #231, .T. ) ;
#73 = CARTESIAN_POINT ( 'NONE',  ( -25.00000000000000000, 25.00000000000000400, 3.000000000000000000 ) ) ;
#74 = ORIENTED_EDGE ( 'NONE', *, *, #234, .F. ) ;
#75 = ADVANCED_FACE ( 'NONE', ( #89 ), #94, .F. ) ;
#76 = DIRECTION ( 'NONE',  ( 1.000000000000000000, 1.387778780781445700E-016, -0.0000000000000000000 ) ) ;
#77 = LINE ( 'NONE', #202, #105 ) ;
#78 = CARTESIAN_POINT ( 'NONE',  ( 24.99999999999999600, 25.00000000000001100, 3.000000000000000000 ) ) ;
#79 = UNCERTAINTY_MEASURE_WITH_UNIT (LENGTH_MEASURE( 1.000000000000000100E-005 ), #6, 'distance_accuracy_value', 'NONE');
#80 = VERTEX_POINT ( 'NONE', #184 ) ;
#81 = EDGE_CURVE ( 'NONE', #178, #139, #77, .T. ) ;
#82 = APPROVAL_STATUS ( 'not_yet_approved' ) ;
#83 = VECTOR ( 'NONE', #133, 1000.000000000000000 ) ;
#84 = APPROVAL_STATUS ( 'not_yet_approved' ) ;
#85 = CC_DESIGN_DATE_AND_TIME_ASSIGNMENT ( #63, #155, ( #66 ) ) ;
#86 = DATE_AND_TIME ( #204, #54 ) ;
#87 = PERSON ( 'UNSPECIFIED', 'UNSPECIFIED', 'UNSPECIFIED', ('UNSPECIFIED'), ('UNSPECIFIED'), ('UNSPECIFIED') ) ;
#88 = LOCAL_TIME ( 14, 59, 21.00000000000000000, #70 ) ;
#89 = FACE_OUTER_BOUND ( 'NONE', #132, .T. ) ;
#90 = DIRECTION ( 'NONE',  ( -1.000000000000000000, 0.0000000000000000000, -0.0000000000000000000 ) ) ;
#91 = PERSON_AND_ORGANIZATION ( #87, #92 ) ;
#92 = ORGANIZATION ( 'UNSPECIFIED', 'UNSPECIFIED', '' ) ;
#93 = CARTESIAN_POINT ( 'NONE',  ( -24.99999999999999300, -25.00000000000000000, 0.0000000000000000000 ) ) ;
#94 = PLANE ( 'NONE',  #29 ) ;
#95 = EDGE_CURVE ( 'NONE', #215, #46, #174, .T. ) ;
#96 = CC_DESIGN_APPROVAL ( #200, ( #183 ) ) ;
#97 = APPROVAL_PERSON_ORGANIZATION ( #220, #200, #32 ) ;
#98 = DIRECTION ( 'NONE',  ( 1.000000000000000000, 0.0000000000000000000, 0.0000000000000000000 ) ) ;
#99 = LINE ( 'NONE', #124, #233 ) ;
#100 = DIRECTION ( 'NONE',  ( -2.081668171172168500E-016, 1.000000000000000000, -0.0000000000000000000 ) ) ;
#101 = CC_DESIGN_SECURITY_CLASSIFICATION ( #66, ( #197 ) ) ;
#102 = APPROVAL_PERSON_ORGANIZATION ( #131, #235, #211 ) ;
#103 = CARTESIAN_POINT ( 'NONE',  ( 24.99999999999999600, 25.00000000000001100, 0.0000000000000000000 ) ) ;
#104 = AXIS2_PLACEMENT_3D ( 'NONE', #130, #150, #28 ) ;
#105 = VECTOR ( 'NONE', #224, 1000.000000000000000 ) ;
#106 = VECTOR ( 'NONE', #205, 1000.000000000000000 ) ;
#107 = VECTOR ( 'NONE', #76, 1000.000000000000000 ) ;
#108 = FACE_OUTER_BOUND ( 'NONE', #18, .T. ) ;
#109 = CARTESIAN_POINT ( 'NONE',  ( -25.00000000000000000, 25.00000000000000400, 0.0000000000000000000 ) ) ;
#110 = DATE_AND_TIME ( #232, #141 ) ;
#111 = VECTOR ( 'NONE', #57, 1000.000000000000000 ) ;
#112 = PLANE ( 'NONE',  #222 ) ;
#113 = PERSON_AND_ORGANIZATION_ROLE ( 'design_owner' ) ;
#114 = FACE_OUTER_BOUND ( 'NONE', #158, .T. ) ;
#115 = CARTESIAN_POINT ( 'NONE',  ( 24.99999999999999600, 25.00000000000001100, 0.0000000000000000000 ) ) ;
#116 = APPLICATION_CONTEXT ( 'configuration controlled 3d designs of mechanical parts and assemblies' ) ;
#117 = COORDINATED_UNIVERSAL_TIME_OFFSET ( 5, 0, .BEHIND. ) ;
#118 = ORIENTED_EDGE ( 'NONE', *, *, #36, .F. ) ;
#119 =( GEOMETRIC_REPRESENTATION_CONTEXT ( 3 ) GLOBAL_UNCERTAINTY_ASSIGNED_CONTEXT ( ( #79 ) ) GLOBAL_UNIT_ASSIGNED_CONTEXT ( ( #6, #185, #154 ) ) REPRESENTATION_CONTEXT ( 'NONE', 'WORKASPACE' ) );
#120 = ORIENTED_EDGE ( 'NONE', *, *, #228, .T. ) ;
#121 = PRODUCT_RELATED_PRODUCT_CATEGORY ( 'detail', '', ( #52 ) ) ;
#122 = ORIENTED_EDGE ( 'NONE', *, *, #13, .F. ) ;
#123 = APPROVAL_DATE_TIME ( #37, #10 ) ;
#124 = CARTESIAN_POINT ( 'NONE',  ( 24.99999999999999600, 25.00000000000001100, 0.0000000000000000000 ) ) ;
#125 = CARTESIAN_POINT ( 'NONE',  ( -25.00000000000000000, 25.00000000000000400, 0.0000000000000000000 ) ) ;
#126 = CALENDAR_DATE ( 2017, 31, 1 ) ;
#127 = VECTOR ( 'NONE', #191, 1000.000000000000000 ) ;
#128 = ORIENTED_EDGE ( 'NONE', *, *, #43, .T. ) ;
#129 = CARTESIAN_POINT ( 'NONE',  ( -25.00000000000000000, 25.00000000000000400, 3.000000000000000000 ) ) ;
#130 = CARTESIAN_POINT ( 'NONE',  ( 24.99999999999999600, 25.00000000000001100, 3.000000000000000000 ) ) ;
#131 = PERSON_AND_ORGANIZATION ( #87, #92 ) ;
#132 = EDGE_LOOP ( 'NONE', ( #217, #213, #15, #56 ) ) ;
#133 = DIRECTION ( 'NONE',  ( -1.000000000000000000, -1.387778780781445700E-016, 0.0000000000000000000 ) ) ;
#134 = ADVANCED_FACE ( 'NONE', ( #187 ), #167, .F. ) ;
#135 = CARTESIAN_POINT ( 'NONE',  ( -24.99999999999999300, -25.00000000000000000, 3.000000000000000000 ) ) ;
#136 = CALENDAR_DATE ( 2017, 31, 1 ) ;
#137 = AXIS2_PLACEMENT_3D ( 'NONE', #78, #61, #226 ) ;
#138 = APPROVAL_ROLE ( '' ) ;
#139 = VERTEX_POINT ( 'NONE', #103 ) ;
#140 = EDGE_CURVE ( 'NONE', #178, #142, #157, .T. ) ;
#141 = LOCAL_TIME ( 14, 59, 21.00000000000000000, #9 ) ;
#142 = VERTEX_POINT ( 'NONE', #45 ) ;
#143 = DIRECTION ( 'NONE',  ( 1.000000000000000000, 1.387778780781445700E-016, -0.0000000000000000000 ) ) ;
#144 = DIRECTION ( 'NONE',  ( 1.000000000000000000, 1.387778780781445400E-016, -0.0000000000000000000 ) ) ;
#145 = LOCAL_TIME ( 14, 59, 21.00000000000000000, #152 ) ;
#146 = PERSON_AND_ORGANIZATION ( #87, #92 ) ;
#147 = PLANE ( 'NONE',  #137 ) ;
#148 = LINE ( 'NONE', #73, #106 ) ;
#149 = PRODUCT_DEFINITION_SHAPE ( 'NONE', 'NONE',  #183 ) ;
#150 = DIRECTION ( 'NONE',  ( 1.387778780781445400E-016, -1.000000000000000000, 0.0000000000000000000 ) ) ;
#151 = ADVANCED_FACE ( 'NONE', ( #50 ), #112, .F. ) ;
#152 = COORDINATED_UNIVERSAL_TIME_OFFSET ( 5, 0, .BEHIND. ) ;
#153 = LINE ( 'NONE', #8, #107 ) ;
#154 =( NAMED_UNIT ( * ) SI_UNIT ( $, .STERADIAN. ) SOLID_ANGLE_UNIT ( ) );
#155 = DATE_TIME_ROLE ( 'classification_date' ) ;
#156 = DATE_TIME_ROLE ( 'creation_date' ) ;
#157 = LINE ( 'NONE', #67, #83 ) ;
#158 = EDGE_LOOP ( 'NONE', ( #171, #118, #74, #27 ) ) ;
#159 = APPROVAL_PERSON_ORGANIZATION ( #203, #10, #138 ) ;
#160 = ORIENTED_EDGE ( 'NONE', *, *, #228, .F. ) ;
#161 = APPROVAL_DATE_TIME ( #21, #200 ) ;
#162 = ORIENTED_EDGE ( 'NONE', *, *, #95, .F. ) ;
#163 = ORIENTED_EDGE ( 'NONE', *, *, #81, .T. ) ;
#164 = VECTOR ( 'NONE', #100, 1000.000000000000000 ) ;
#165 = ORIENTED_EDGE ( 'NONE', *, *, #140, .T. ) ;
#166 = DIRECTION ( 'NONE',  ( -1.387778780781445400E-016, 1.000000000000000000, 0.0000000000000000000 ) ) ;
#167 = PLANE ( 'NONE',  #104 ) ;
#168 = APPLICATION_CONTEXT ( 'configuration controlled 3d designs of mechanical parts and assemblies' ) ;
#169 = ORIENTED_EDGE ( 'NONE', *, *, #95, .T. ) ;
#170 = CARTESIAN_POINT ( 'NONE',  ( 25.00000000000000700, -24.99999999999999300, 3.000000000000000000 ) ) ;
#171 = ORIENTED_EDGE ( 'NONE', *, *, #3, .F. ) ;
#172 = APPLICATION_PROTOCOL_DEFINITION ( 'international standard', 'config_control_design', 1994, #116 ) ;
#173 = PERSON_AND_ORGANIZATION_ROLE ( 'design_supplier' ) ;
#174 = LINE ( 'NONE', #59, #177 ) ;
#175 = CC_DESIGN_PERSON_AND_ORGANIZATION_ASSIGNMENT ( #55, #113, ( #52 ) ) ;
#176 = AXIS2_PLACEMENT_3D ( 'NONE', #41, #218, #44 ) ;
#177 = VECTOR ( 'NONE', #47, 1000.000000000000000 ) ;
#178 = VERTEX_POINT ( 'NONE', #229 ) ;
#179 = CC_DESIGN_PERSON_AND_ORGANIZATION_ASSIGNMENT ( #91, #212, ( #197 ) ) ;
#180 = LINE ( 'NONE', #20, #199 ) ;
#181 = DIRECTION ( 'NONE',  ( -1.000000000000000000, -1.387778780781445700E-016, 0.0000000000000000000 ) ) ;
#182 = LINE ( 'NONE', #135, #58 ) ;
#183 = PRODUCT_DEFINITION ( 'UNKNOWN', '', #197, #225 ) ;
#184 = CARTESIAN_POINT ( 'NONE',  ( -24.99999999999999300, -25.00000000000000000, 3.000000000000000000 ) ) ;
#185 =( NAMED_UNIT ( * ) PLANE_ANGLE_UNIT ( ) SI_UNIT ( $, .RADIAN. ) );
#186 = ADVANCED_FACE ( 'NONE', ( #108 ), #147, .F. ) ;
#187 = FACE_OUTER_BOUND ( 'NONE', #60, .T. ) ;
#188 = DIRECTION ( 'NONE',  ( 0.0000000000000000000, 0.0000000000000000000, 1.000000000000000000 ) ) ;
#189 = DIRECTION ( 'NONE',  ( -0.0000000000000000000, -0.0000000000000000000, -1.000000000000000000 ) ) ;
#190 = AXIS2_PLACEMENT_3D ( 'NONE', #4, #1, #90 ) ;
#191 = DIRECTION ( 'NONE',  ( -2.081668171172168500E-016, 1.000000000000000000, -0.0000000000000000000 ) ) ;
#192 = LINE ( 'NONE', #26, #164 ) ;
#193 = PERSON_AND_ORGANIZATION_ROLE ( 'classification_officer' ) ;
#194 = SHAPE_DEFINITION_REPRESENTATION ( #149, #35 ) ;
#195 = ORIENTED_EDGE ( 'NONE', *, *, #140, .F. ) ;
#196 = CC_DESIGN_APPROVAL ( #10, ( #66 ) ) ;
#197 = PRODUCT_DEFINITION_FORMATION_WITH_SPECIFIED_SOURCE ( 'ANY', '', #52, .NOT_KNOWN. ) ;
#198 = CALENDAR_DATE ( 2017, 31, 1 ) ;
#199 = VECTOR ( 'NONE', #143, 1000.000000000000000 ) ;
#200 = APPROVAL ( #84, 'UNSPECIFIED' ) ;
#201 = ORIENTED_EDGE ( 'NONE', *, *, #68, .T. ) ;
#202 = CARTESIAN_POINT ( 'NONE',  ( 24.99999999999999600, 25.00000000000001100, 3.000000000000000000 ) ) ;
#203 = PERSON_AND_ORGANIZATION ( #87, #92 ) ;
#204 = CALENDAR_DATE ( 2017, 31, 1 ) ;
#205 = DIRECTION ( 'NONE',  ( 1.387778780781445700E-016, -1.000000000000000000, 0.0000000000000000000 ) ) ;
#206 = DIRECTION ( 'NONE',  ( -1.000000000000000000, -1.387778780781445400E-016, 0.0000000000000000000 ) ) ;
#207 = MECHANICAL_CONTEXT ( 'NONE', #168, 'mechanical' ) ;
#208 = PERSON_AND_ORGANIZATION ( #87, #92 ) ;
#209 = APPLICATION_PROTOCOL_DEFINITION ( 'international standard', 'config_control_design', 1994, #168 ) ;
#210 = CLOSED_SHELL ( 'NONE', ( #75, #151, #186, #134, #7, #25 ) ) ;
#211 = APPROVAL_ROLE ( '' ) ;
#212 = PERSON_AND_ORGANIZATION_ROLE ( 'creator' ) ;
#213 = ORIENTED_EDGE ( 'NONE', *, *, #231, .F. ) ;
#214 = EDGE_CURVE ( 'NONE', #34, #46, #153, .T. ) ;
#215 = VERTEX_POINT ( 'NONE', #48 ) ;
#216 = PERSON_AND_ORGANIZATION ( #87, #92 ) ;
#217 = ORIENTED_EDGE ( 'NONE', *, *, #3, .T. ) ;
#218 = DIRECTION ( 'NONE',  ( 0.0000000000000000000, 0.0000000000000000000, -1.000000000000000000 ) ) ;
#219 = PLANE ( 'NONE',  #190 ) ;
#220 = PERSON_AND_ORGANIZATION ( #87, #92 ) ;
#221 = EDGE_LOOP ( 'NONE', ( #39, #162, #5, #72 ) ) ;
#222 = AXIS2_PLACEMENT_3D ( 'NONE', #170, #64, #206 ) ;
#223 = CC_DESIGN_DATE_AND_TIME_ASSIGNMENT ( #110, #156, ( #183 ) ) ;
#224 = DIRECTION ( 'NONE',  ( -0.0000000000000000000, -0.0000000000000000000, -1.000000000000000000 ) ) ;
#225 = DESIGN_CONTEXT ( 'detailed design', #116, 'design' ) ;
#226 = DIRECTION ( 'NONE',  ( 2.081668171172168300E-016, -1.000000000000000000, 0.0000000000000000000 ) ) ;
#227 = ORIENTED_EDGE ( 'NONE', *, *, #36, .T. ) ;
#228 = EDGE_CURVE ( 'NONE', #215, #178, #192, .T. ) ;
#229 = CARTESIAN_POINT ( 'NONE',  ( 24.99999999999999600, 25.00000000000001100, 3.000000000000000000 ) ) ;
#230 = APPROVAL_STATUS ( 'not_yet_approved' ) ;
#231 = EDGE_CURVE ( 'NONE', #80, #34, #182, .T. ) ;
#232 = CALENDAR_DATE ( 2017, 31, 1 ) ;
#233 = VECTOR ( 'NONE', #181, 1000.000000000000000 ) ;
#234 = EDGE_CURVE ( 'NONE', #46, #139, #30, .T. ) ;
#235 = APPROVAL ( #230, 'UNSPECIFIED' ) ;
#236 = LINE ( 'NONE', #109, #111 ) ;
#237 = AXIS2_PLACEMENT_3D ( 'NONE', #62, #188, #98 ) ;
ENDSEC;
END-ISO-10303-21;
