ISO-10303-21;
HEADER;
FILE_DESCRIPTION (( 'STEP AP203' ),
    '1' );
FILE_NAME ('Web Model 55257MX_46075.step',
    '2017-10-30T13:16:55',
    ( '' ),
    ( '' ),
    'SwSTEP 2.0',
    'SolidWorks 2016',
    '' );
FILE_SCHEMA (( 'CONFIG_CONTROL_DESIGN' ));
ENDSEC;

DATA;
#1 = AXIS2_PLACEMENT_3D ( 'NONE', #18, #193, #189 ) ;
#2 = LINE ( 'NONE', #74, #228 ) ;
#3 = VECTOR ( 'NONE', #184, 1000.000000000000000 ) ;
#4 = EDGE_LOOP ( 'NONE', ( #32, #197, #45, #173 ) ) ;
#5 = DIRECTION ( 'NONE',  ( 1.000000000000000000, 0.0000000000000000000, 0.0000000000000000000 ) ) ;
#6 = SHAPE_DEFINITION_REPRESENTATION ( #102, #40 ) ;
#7 = COORDINATED_UNIVERSAL_TIME_OFFSET ( 5, 0, .BEHIND. ) ;
#8 = ORIENTED_EDGE ( 'NONE', *, *, #104, .T. ) ;
#9 = APPROVAL_PERSON_ORGANIZATION ( #101, #209, #215 ) ;
#10 = PERSON_AND_ORGANIZATION_ROLE ( 'design_supplier' ) ;
#11 = CARTESIAN_POINT ( 'NONE',  ( -15.00000000000000000, 14.99999999999999800, 4.750000000000000000 ) ) ;
#12 = MANIFOLD_SOLID_BREP ( 'Boss-Extrude1', #214 ) ;
#13 = FACE_OUTER_BOUND ( 'NONE', #168, .T. ) ;
#14 = ORIENTED_EDGE ( 'NONE', *, *, #39, .T. ) ;
#15 = CARTESIAN_POINT ( 'NONE',  ( -15.00000000000000000, -15.00000000000000400, -4.750000000000000000 ) ) ;
#16 = DIRECTION ( 'NONE',  ( -0.0000000000000000000, -0.0000000000000000000, -1.000000000000000000 ) ) ;
#17 = CARTESIAN_POINT ( 'NONE',  ( 15.00000000000000400, -15.00000000000000000, 4.750000000000000000 ) ) ;
#18 = CARTESIAN_POINT ( 'NONE',  ( 15.00000000000000400, 15.00000000000000200, 4.750000000000000000 ) ) ;
#19 = VERTEX_POINT ( 'NONE', #217 ) ;
#20 = CARTESIAN_POINT ( 'NONE',  ( 15.00000000000000400, 15.00000000000000200, -4.750000000000000000 ) ) ;
#21 = DIRECTION ( 'NONE',  ( 0.0000000000000000000, 0.0000000000000000000, 1.000000000000000000 ) ) ;
#22 = EDGE_CURVE ( 'NONE', #19, #147, #95, .T. ) ;
#23 = MECHANICAL_CONTEXT ( 'NONE', #59, 'mechanical' ) ;
#24 = PERSON_AND_ORGANIZATION ( #174, #194 ) ;
#25 = EDGE_LOOP ( 'NONE', ( #131, #34, #88, #181 ) ) ;
#26 = DIRECTION ( 'NONE',  ( 1.000000000000000000, 0.0000000000000000000, 0.0000000000000000000 ) ) ;
#27 = PERSON_AND_ORGANIZATION_ROLE ( 'classification_officer' ) ;
#28 = PERSON_AND_ORGANIZATION_ROLE ( 'creator' ) ;
#29 = VECTOR ( 'NONE', #211, 1000.000000000000000 ) ;
#30 = ADVANCED_FACE ( 'NONE', ( #44 ), #142, .F. ) ;
#31 = PERSON_AND_ORGANIZATION ( #174, #194 ) ;
#32 = ORIENTED_EDGE ( 'NONE', *, *, #22, .T. ) ;
#33 = LINE ( 'NONE', #223, #160 ) ;
#34 = ORIENTED_EDGE ( 'NONE', *, *, #178, .F. ) ;
#35 = CARTESIAN_POINT ( 'NONE',  ( 15.00000000000000400, -15.00000000000000000, 4.750000000000000000 ) ) ;
#36 = CALENDAR_DATE ( 2017, 30, 10 ) ;
#37 = APPROVAL_PERSON_ORGANIZATION ( #31, #145, #82 ) ;
#38 = CARTESIAN_POINT ( 'NONE',  ( 15.00000000000000400, -15.00000000000000000, 4.750000000000000000 ) ) ;
#39 = EDGE_CURVE ( 'NONE', #96, #225, #180, .T. ) ;
#40 = ADVANCED_BREP_SHAPE_REPRESENTATION ( 'Web Model 55257MX_46075', ( #12, #186 ), #222 ) ;
#41 = PLANE ( 'NONE',  #1 ) ;
#42 = CARTESIAN_POINT ( 'NONE',  ( 15.00000000000000400, -15.00000000000000000, -4.750000000000000000 ) ) ;
#43 = VECTOR ( 'NONE', #54, 1000.000000000000000 ) ;
#44 = FACE_OUTER_BOUND ( 'NONE', #25, .T. ) ;
#45 = ORIENTED_EDGE ( 'NONE', *, *, #161, .F. ) ;
#46 = DESIGN_CONTEXT ( 'detailed design', #234, 'design' ) ;
#47 = FACE_OUTER_BOUND ( 'NONE', #140, .T. ) ;
#48 = EDGE_CURVE ( 'NONE', #204, #225, #49, .T. ) ;
#49 = LINE ( 'NONE', #119, #3 ) ;
#50 = PLANE ( 'NONE',  #113 ) ;
#51 = PERSON_AND_ORGANIZATION ( #174, #194 ) ;
#52 = LINE ( 'NONE', #129, #76 ) ;
#53 = ORIENTED_EDGE ( 'NONE', *, *, #106, .F. ) ;
#54 = DIRECTION ( 'NONE',  ( -1.000000000000000000, -1.156482317317871500E-016, 0.0000000000000000000 ) ) ;
#55 = DIRECTION ( 'NONE',  ( 0.0000000000000000000, -0.0000000000000000000, 1.000000000000000000 ) ) ;
#56 = DIRECTION ( 'NONE',  ( 1.000000000000000000, 0.0000000000000000000, -0.0000000000000000000 ) ) ;
#57 = CC_DESIGN_APPROVAL ( #209, ( #198 ) ) ;
#58 = EDGE_LOOP ( 'NONE', ( #163, #232, #61, #14 ) ) ;
#59 = APPLICATION_CONTEXT ( 'configuration controlled 3d designs of mechanical parts and assemblies' ) ;
#60 = DIRECTION ( 'NONE',  ( 0.0000000000000000000, 0.0000000000000000000, 1.000000000000000000 ) ) ;
#61 = ORIENTED_EDGE ( 'NONE', *, *, #104, .F. ) ;
#62 = ADVANCED_FACE ( 'NONE', ( #47 ), #50, .T. ) ;
#63 = APPROVAL_STATUS ( 'not_yet_approved' ) ;
#64 = FACE_OUTER_BOUND ( 'NONE', #58, .T. ) ;
#65 = DIRECTION ( 'NONE',  ( -0.0000000000000000000, -1.000000000000000000, -0.0000000000000000000 ) ) ;
#66 = DIRECTION ( 'NONE',  ( -1.156482317317871500E-016, 1.000000000000000000, 0.0000000000000000000 ) ) ;
#67 = COORDINATED_UNIVERSAL_TIME_OFFSET ( 5, 0, .BEHIND. ) ;
#68 = ORIENTED_EDGE ( 'NONE', *, *, #48, .F. ) ;
#69 = AXIS2_PLACEMENT_3D ( 'NONE', #210, #226, #56 ) ;
#70 = CC_DESIGN_APPROVAL ( #195, ( #118 ) ) ;
#71 = VECTOR ( 'NONE', #172, 1000.000000000000000 ) ;
#72 = CARTESIAN_POINT ( 'NONE',  ( -15.00000000000000000, -15.00000000000000400, -4.750000000000000000 ) ) ;
#73 = CALENDAR_DATE ( 2017, 30, 10 ) ;
#74 = CARTESIAN_POINT ( 'NONE',  ( -15.00000000000000000, -15.00000000000000400, 4.750000000000000000 ) ) ;
#75 = DIRECTION ( 'NONE',  ( 1.000000000000000000, 0.0000000000000000000, -0.0000000000000000000 ) ) ;
#76 = VECTOR ( 'NONE', #111, 1000.000000000000000 ) ;
#77 = VERTEX_POINT ( 'NONE', #11 ) ;
#78 = EDGE_CURVE ( 'NONE', #77, #19, #196, .T. ) ;
#79 = DATE_AND_TIME ( #85, #135 ) ;
#80 = PERSON_AND_ORGANIZATION_ROLE ( 'design_owner' ) ;
#81 = DATE_AND_TIME ( #144, #86 ) ;
#82 = APPROVAL_ROLE ( '' ) ;
#83 = VECTOR ( 'NONE', #94, 1000.000000000000000 ) ;
#84 = VERTEX_POINT ( 'NONE', #38 ) ;
#85 = CALENDAR_DATE ( 2017, 30, 10 ) ;
#86 = LOCAL_TIME ( 9, 16, 55.00000000000000000, #177 ) ;
#87 = ORIENTED_EDGE ( 'NONE', *, *, #178, .T. ) ;
#88 = ORIENTED_EDGE ( 'NONE', *, *, #133, .F. ) ;
#89 = VECTOR ( 'NONE', #159, 1000.000000000000000 ) ;
#90 = DIRECTION ( 'NONE',  ( -0.0000000000000000000, -1.000000000000000000, -0.0000000000000000000 ) ) ;
#91 = DIRECTION ( 'NONE',  ( -0.0000000000000000000, -0.0000000000000000000, -1.000000000000000000 ) ) ;
#92 = CC_DESIGN_PERSON_AND_ORGANIZATION_ASSIGNMENT ( #51, #155, ( #198 ) ) ;
#93 = LINE ( 'NONE', #125, #43 ) ;
#94 = DIRECTION ( 'NONE',  ( 1.000000000000000000, 1.156482317317871500E-016, -0.0000000000000000000 ) ) ;
#95 = LINE ( 'NONE', #15, #235 ) ;
#96 = VERTEX_POINT ( 'NONE', #192 ) ;
#97 =( NAMED_UNIT ( * ) SI_UNIT ( $, .STERADIAN. ) SOLID_ANGLE_UNIT ( ) );
#98 = EDGE_CURVE ( 'NONE', #122, #147, #33, .T. ) ;
#99 = APPROVAL_DATE_TIME ( #150, #209 ) ;
#100 = CC_DESIGN_PERSON_AND_ORGANIZATION_ASSIGNMENT ( #120, #28, ( #118 ) ) ;
#101 = PERSON_AND_ORGANIZATION ( #174, #194 ) ;
#102 = PRODUCT_DEFINITION_SHAPE ( 'NONE', 'NONE',  #198 ) ;
#103 = ADVANCED_FACE ( 'NONE', ( #237 ), #165, .F. ) ;
#104 = EDGE_CURVE ( 'NONE', #96, #77, #93, .T. ) ;
#105 = CC_DESIGN_PERSON_AND_ORGANIZATION_ASSIGNMENT ( #126, #10, ( #118 ) ) ;
#106 = EDGE_CURVE ( 'NONE', #147, #204, #190, .T. ) ;
#107 = LOCAL_TIME ( 9, 16, 55.00000000000000000, #7 ) ;
#108 = CARTESIAN_POINT ( 'NONE',  ( 15.00000000000000400, -15.00000000000000000, -4.750000000000000000 ) ) ;
#109 = CARTESIAN_POINT ( 'NONE',  ( -15.00000000000000000, -15.00000000000000400, 4.750000000000000000 ) ) ;
#110 = CC_DESIGN_PERSON_AND_ORGANIZATION_ASSIGNMENT ( #114, #27, ( #187 ) ) ;
#111 = DIRECTION ( 'NONE',  ( -1.000000000000000000, -1.156482317317871500E-016, 0.0000000000000000000 ) ) ;
#112 = LINE ( 'NONE', #169, #83 ) ;
#113 = AXIS2_PLACEMENT_3D ( 'NONE', #121, #55, #75 ) ;
#114 = PERSON_AND_ORGANIZATION ( #174, #194 ) ;
#115 = CC_DESIGN_DATE_AND_TIME_ASSIGNMENT ( #230, #141, ( #198 ) ) ;
#116 = ORIENTED_EDGE ( 'NONE', *, *, #133, .T. ) ;
#117 =( LENGTH_UNIT ( ) NAMED_UNIT ( * ) SI_UNIT ( .MILLI., .METRE. ) );
#118 = PRODUCT_DEFINITION_FORMATION_WITH_SPECIFIED_SOURCE ( 'ANY', '', #134, .NOT_KNOWN. ) ;
#119 = CARTESIAN_POINT ( 'NONE',  ( 15.00000000000000400, -15.00000000000000000, -4.750000000000000000 ) ) ;
#120 = PERSON_AND_ORGANIZATION ( #174, #194 ) ;
#121 = CARTESIAN_POINT ( 'NONE',  ( 0.0000000000000000000, 0.0000000000000000000, 4.750000000000000000 ) ) ;
#122 = VERTEX_POINT ( 'NONE', #109 ) ;
#123 = LINE ( 'NONE', #17, #29 ) ;
#124 = APPROVAL_DATE_TIME ( #81, #145 ) ;
#125 = CARTESIAN_POINT ( 'NONE',  ( 15.00000000000000400, 15.00000000000000200, 4.750000000000000000 ) ) ;
#126 = PERSON_AND_ORGANIZATION ( #174, #194 ) ;
#127 = CARTESIAN_POINT ( 'NONE',  ( -15.00000000000000000, -15.00000000000000400, 4.750000000000000000 ) ) ;
#128 = CC_DESIGN_APPROVAL ( #145, ( #187 ) ) ;
#129 = CARTESIAN_POINT ( 'NONE',  ( 15.00000000000000400, 15.00000000000000200, -4.750000000000000000 ) ) ;
#130 = DIRECTION ( 'NONE',  ( -1.000000000000000000, 0.0000000000000000000, 0.0000000000000000000 ) ) ;
#131 = ORIENTED_EDGE ( 'NONE', *, *, #106, .T. ) ;
#132 = CC_DESIGN_DATE_AND_TIME_ASSIGNMENT ( #79, #157, ( #187 ) ) ;
#133 = EDGE_CURVE ( 'NONE', #122, #84, #112, .T. ) ;
#134 = PRODUCT ( 'Web Model 55257MX_46075', 'Web Model 55257MX_46075', '', ( #23 ) ) ;
#135 = LOCAL_TIME ( 9, 16, 55.00000000000000000, #67 ) ;
#136 = ORIENTED_EDGE ( 'NONE', *, *, #39, .F. ) ;
#137 = ADVANCED_FACE ( 'NONE', ( #64 ), #41, .F. ) ;
#138 = AXIS2_PLACEMENT_3D ( 'NONE', #164, #66, #205 ) ;
#139 =( NAMED_UNIT ( * ) PLANE_ANGLE_UNIT ( ) SI_UNIT ( $, .RADIAN. ) );
#140 = EDGE_LOOP ( 'NONE', ( #229, #116, #185, #8 ) ) ;
#141 = DATE_TIME_ROLE ( 'creation_date' ) ;
#142 = PLANE ( 'NONE',  #138 ) ;
#143 = LOCAL_TIME ( 9, 16, 55.00000000000000000, #201 ) ;
#144 = CALENDAR_DATE ( 2017, 30, 10 ) ;
#145 = APPROVAL ( #156, 'UNSPECIFIED' ) ;
#146 = EDGE_CURVE ( 'NONE', #225, #19, #52, .T. ) ;
#147 = VERTEX_POINT ( 'NONE', #72 ) ;
#148 = DIRECTION ( 'NONE',  ( 0.0000000000000000000, 0.0000000000000000000, -1.000000000000000000 ) ) ;
#149 = PLANE ( 'NONE',  #69 ) ;
#150 = DATE_AND_TIME ( #206, #107 ) ;
#151 = CARTESIAN_POINT ( 'NONE',  ( -15.00000000000000000, 14.99999999999999800, 4.750000000000000000 ) ) ;
#152 = VECTOR ( 'NONE', #16, 1000.000000000000000 ) ;
#153 = APPROVAL_ROLE ( '' ) ;
#154 = CC_DESIGN_SECURITY_CLASSIFICATION ( #187, ( #118 ) ) ;
#155 = PERSON_AND_ORGANIZATION_ROLE ( 'creator' ) ;
#156 = APPROVAL_STATUS ( 'not_yet_approved' ) ;
#157 = DATE_TIME_ROLE ( 'classification_date' ) ;
#158 = EDGE_CURVE ( 'NONE', #84, #96, #162, .T. ) ;
#159 = DIRECTION ( 'NONE',  ( -0.0000000000000000000, -0.0000000000000000000, -1.000000000000000000 ) ) ;
#160 = VECTOR ( 'NONE', #91, 1000.000000000000000 ) ;
#161 = EDGE_CURVE ( 'NONE', #77, #122, #2, .T. ) ;
#162 = LINE ( 'NONE', #35, #71 ) ;
#163 = ORIENTED_EDGE ( 'NONE', *, *, #146, .T. ) ;
#164 = CARTESIAN_POINT ( 'NONE',  ( 15.00000000000000400, -15.00000000000000000, 4.750000000000000000 ) ) ;
#165 = PLANE ( 'NONE',  #166 ) ;
#166 = AXIS2_PLACEMENT_3D ( 'NONE', #127, #5, #148 ) ;
#167 = COORDINATED_UNIVERSAL_TIME_OFFSET ( 5, 0, .BEHIND. ) ;
#168 = EDGE_LOOP ( 'NONE', ( #220, #136, #203, #87 ) ) ;
#169 = CARTESIAN_POINT ( 'NONE',  ( 15.00000000000000400, -15.00000000000000000, 4.750000000000000000 ) ) ;
#170 = UNCERTAINTY_MEASURE_WITH_UNIT (LENGTH_MEASURE( 1.000000000000000100E-005 ), #117, 'distance_accuracy_value', 'NONE');
#171 = PLANE ( 'NONE',  #188 ) ;
#172 = DIRECTION ( 'NONE',  ( 0.0000000000000000000, 1.000000000000000000, 0.0000000000000000000 ) ) ;
#173 = ORIENTED_EDGE ( 'NONE', *, *, #78, .T. ) ;
#174 = PERSON ( 'UNSPECIFIED', 'UNSPECIFIED', 'UNSPECIFIED', ('UNSPECIFIED'), ('UNSPECIFIED'), ('UNSPECIFIED') ) ;
#175 = DATE_AND_TIME ( #36, #224 ) ;
#176 = APPLICATION_PROTOCOL_DEFINITION ( 'international standard', 'config_control_design', 1994, #59 ) ;
#177 = COORDINATED_UNIVERSAL_TIME_OFFSET ( 5, 0, .BEHIND. ) ;
#178 = EDGE_CURVE ( 'NONE', #84, #204, #123, .T. ) ;
#179 = ADVANCED_FACE ( 'NONE', ( #213 ), #149, .F. ) ;
#180 = LINE ( 'NONE', #182, #89 ) ;
#181 = ORIENTED_EDGE ( 'NONE', *, *, #98, .T. ) ;
#182 = CARTESIAN_POINT ( 'NONE',  ( 15.00000000000000400, 15.00000000000000200, 4.750000000000000000 ) ) ;
#183 = APPROVAL_DATE_TIME ( #175, #195 ) ;
#184 = DIRECTION ( 'NONE',  ( 0.0000000000000000000, 1.000000000000000000, 0.0000000000000000000 ) ) ;
#185 = ORIENTED_EDGE ( 'NONE', *, *, #158, .T. ) ;
#186 = AXIS2_PLACEMENT_3D ( 'NONE', #233, #60, #26 ) ;
#187 = SECURITY_CLASSIFICATION ( '', '', #202 ) ;
#188 = AXIS2_PLACEMENT_3D ( 'NONE', #227, #130, #21 ) ;
#189 = DIRECTION ( 'NONE',  ( 1.000000000000000000, 1.156482317317871500E-016, 0.0000000000000000000 ) ) ;
#190 = LINE ( 'NONE', #42, #216 ) ;
#191 = ORIENTED_EDGE ( 'NONE', *, *, #22, .F. ) ;
#192 = CARTESIAN_POINT ( 'NONE',  ( 15.00000000000000400, 15.00000000000000200, 4.750000000000000000 ) ) ;
#193 = DIRECTION ( 'NONE',  ( 1.156482317317871500E-016, -1.000000000000000000, 0.0000000000000000000 ) ) ;
#194 = ORGANIZATION ( 'UNSPECIFIED', 'UNSPECIFIED', '' ) ;
#195 = APPROVAL ( #63, 'UNSPECIFIED' ) ;
#196 = LINE ( 'NONE', #151, #152 ) ;
#197 = ORIENTED_EDGE ( 'NONE', *, *, #98, .F. ) ;
#198 = PRODUCT_DEFINITION ( 'UNKNOWN', '', #118, #46 ) ;
#199 = PRODUCT_RELATED_PRODUCT_CATEGORY ( 'detail', '', ( #134 ) ) ;
#200 = APPLICATION_PROTOCOL_DEFINITION ( 'international standard', 'config_control_design', 1994, #234 ) ;
#201 = COORDINATED_UNIVERSAL_TIME_OFFSET ( 5, 0, .BEHIND. ) ;
#202 = SECURITY_CLASSIFICATION_LEVEL ( 'unclassified' ) ;
#203 = ORIENTED_EDGE ( 'NONE', *, *, #158, .F. ) ;
#204 = VERTEX_POINT ( 'NONE', #108 ) ;
#205 = DIRECTION ( 'NONE',  ( -1.000000000000000000, -1.156482317317871500E-016, 0.0000000000000000000 ) ) ;
#206 = CALENDAR_DATE ( 2017, 30, 10 ) ;
#207 = PERSON_AND_ORGANIZATION ( #174, #194 ) ;
#208 = EDGE_LOOP ( 'NONE', ( #191, #221, #68, #53 ) ) ;
#209 = APPROVAL ( #231, 'UNSPECIFIED' ) ;
#210 = CARTESIAN_POINT ( 'NONE',  ( 0.0000000000000000000, 0.0000000000000000000, -4.750000000000000000 ) ) ;
#211 = DIRECTION ( 'NONE',  ( -0.0000000000000000000, -0.0000000000000000000, -1.000000000000000000 ) ) ;
#212 = DIRECTION ( 'NONE',  ( 1.000000000000000000, 1.156482317317871500E-016, -0.0000000000000000000 ) ) ;
#213 = FACE_OUTER_BOUND ( 'NONE', #208, .T. ) ;
#214 = CLOSED_SHELL ( 'NONE', ( #103, #30, #236, #137, #62, #179 ) ) ;
#215 = APPROVAL_ROLE ( '' ) ;
#216 = VECTOR ( 'NONE', #212, 1000.000000000000000 ) ;
#217 = CARTESIAN_POINT ( 'NONE',  ( -15.00000000000000000, 14.99999999999999800, -4.750000000000000000 ) ) ;
#218 = APPROVAL_PERSON_ORGANIZATION ( #24, #195, #153 ) ;
#219 = CC_DESIGN_PERSON_AND_ORGANIZATION_ASSIGNMENT ( #207, #80, ( #134 ) ) ;
#220 = ORIENTED_EDGE ( 'NONE', *, *, #48, .T. ) ;
#221 = ORIENTED_EDGE ( 'NONE', *, *, #146, .F. ) ;
#222 =( GEOMETRIC_REPRESENTATION_CONTEXT ( 3 ) GLOBAL_UNCERTAINTY_ASSIGNED_CONTEXT ( ( #170 ) ) GLOBAL_UNIT_ASSIGNED_CONTEXT ( ( #117, #139, #97 ) ) REPRESENTATION_CONTEXT ( 'NONE', 'WORKASPACE' ) );
#223 = CARTESIAN_POINT ( 'NONE',  ( -15.00000000000000000, -15.00000000000000400, 4.750000000000000000 ) ) ;
#224 = LOCAL_TIME ( 9, 16, 55.00000000000000000, #167 ) ;
#225 = VERTEX_POINT ( 'NONE', #20 ) ;
#226 = DIRECTION ( 'NONE',  ( 0.0000000000000000000, -0.0000000000000000000, 1.000000000000000000 ) ) ;
#227 = CARTESIAN_POINT ( 'NONE',  ( 15.00000000000000400, -15.00000000000000000, 4.750000000000000000 ) ) ;
#228 = VECTOR ( 'NONE', #90, 1000.000000000000000 ) ;
#229 = ORIENTED_EDGE ( 'NONE', *, *, #161, .T. ) ;
#230 = DATE_AND_TIME ( #73, #143 ) ;
#231 = APPROVAL_STATUS ( 'not_yet_approved' ) ;
#232 = ORIENTED_EDGE ( 'NONE', *, *, #78, .F. ) ;
#233 = CARTESIAN_POINT ( 'NONE',  ( 0.0000000000000000000, 0.0000000000000000000, 0.0000000000000000000 ) ) ;
#234 = APPLICATION_CONTEXT ( 'configuration controlled 3d designs of mechanical parts and assemblies' ) ;
#235 = VECTOR ( 'NONE', #65, 1000.000000000000000 ) ;
#236 = ADVANCED_FACE ( 'NONE', ( #13 ), #171, .F. ) ;
#237 = FACE_OUTER_BOUND ( 'NONE', #4, .T. ) ;
ENDSEC;
END-ISO-10303-21;
