ISO-10303-21;
HEADER;
FILE_DESCRIPTION (( 'STEP AP203' ),
    '1' );
FILE_NAME ('Web Model 19837_19880.step',
    '2022-04-06T15:08:11',
    ( 'WC' ),
    ( 'Windows Central' ),
    'SwSTEP 2.0',
    'SolidWorks 2021',
    '' );
FILE_SCHEMA (( 'CONFIG_CONTROL_DESIGN' ));
ENDSEC;

DATA;
#1 = EDGE_CURVE ( 'NONE', #28, #30, #120, .T. ) ;
#2 = DIRECTION ( 'NONE',  ( 1.000000000000000000, 0.000000000000000000, 0.000000000000000000 ) ) ;
#3 = CARTESIAN_POINT ( 'NONE',  ( 0.000000000000000000, 0.000000000000000000, 2.000000000000000000 ) ) ;
#4 = EDGE_LOOP ( 'NONE', ( #115, #5, #54, #97 ) ) ;
#5 = ORIENTED_EDGE ( 'NONE', *, *, #1, .F. ) ;
#6 = ORIENTED_EDGE ( 'NONE', *, *, #153, .T. ) ;
#7 = DIRECTION ( 'NONE',  ( 1.000000000000000000, 0.000000000000000000, -0.000000000000000000 ) ) ;
#8 = PRODUCT_RELATED_PRODUCT_CATEGORY ( 'detail', '', ( #57 ) ) ;
#9 =( GEOMETRIC_REPRESENTATION_CONTEXT ( 3 ) GLOBAL_UNCERTAINTY_ASSIGNED_CONTEXT ( ( #76 ) ) GLOBAL_UNIT_ASSIGNED_CONTEXT ( ( #100, #15, #124 ) ) REPRESENTATION_CONTEXT ( 'NONE', 'WORKASPACE' ) );
#10 = CALENDAR_DATE ( 2022, 6, 4 ) ;
#11 = AXIS2_PLACEMENT_3D ( 'NONE', #3, #119, #7 ) ;
#12 = PRODUCT_DEFINITION ( 'UNKNOWN', '', #151, #121 ) ;
#13 = APPROVAL_ROLE ( '' ) ;
#14 = CARTESIAN_POINT ( 'NONE',  ( 0.000000000000000000, 0.000000000000000000, 0.000000000000000000 ) ) ;
#15 =( NAMED_UNIT ( * ) PLANE_ANGLE_UNIT ( ) SI_UNIT ( $, .RADIAN. ) );
#16 = ORIENTED_EDGE ( 'NONE', *, *, #164, .F. ) ;
#17 = DATE_AND_TIME ( #79, #42 ) ;
#18 = LOCAL_TIME ( 11, 8, 11.00000000000000000, #83 ) ;
#19 = ORIENTED_EDGE ( 'NONE', *, *, #122, .F. ) ;
#20 = DIRECTION ( 'NONE',  ( -0.000000000000000000, -0.000000000000000000, -1.000000000000000000 ) ) ;
#21 = PERSON_AND_ORGANIZATION_ROLE ( 'creator' ) ;
#22 = PERSON_AND_ORGANIZATION ( #37, #49 ) ;
#23 = CC_DESIGN_PERSON_AND_ORGANIZATION_ASSIGNMENT ( #22, #78, ( #123 ) ) ;
#24 = COORDINATED_UNIVERSAL_TIME_OFFSET ( 5, 0, .BEHIND. ) ;
#25 = CLOSED_SHELL ( 'NONE', ( #159, #104, #149, #81 ) ) ;
#26 = APPROVAL_STATUS ( 'not_yet_approved' ) ;
#27 = DATE_AND_TIME ( #10, #18 ) ;
#28 = VERTEX_POINT ( 'NONE', #129 ) ;
#29 = PERSON_AND_ORGANIZATION ( #37, #49 ) ;
#30 = VERTEX_POINT ( 'NONE', #98 ) ;
#31 = MANIFOLD_SOLID_BREP ( 'Boss-Extrude1', #25 ) ;
#32 = PRODUCT_DEFINITION_SHAPE ( 'NONE', 'NONE',  #12 ) ;
#33 = EDGE_CURVE ( 'NONE', #30, #28, #131, .T. ) ;
#34 = LINE ( 'NONE', #169, #65 ) ;
#35 = CARTESIAN_POINT ( 'NONE',  ( 0.000000000000000000, 0.000000000000000000, 2.000000000000000000 ) ) ;
#36 = AXIS2_PLACEMENT_3D ( 'NONE', #14, #155, #148 ) ;
#37 = PERSON ( 'UNSPECIFIED', 'UNSPECIFIED', 'UNSPECIFIED', ('UNSPECIFIED'), ('UNSPECIFIED'), ('UNSPECIFIED') ) ;
#38 = DIRECTION ( 'NONE',  ( 0.000000000000000000, 0.000000000000000000, 1.000000000000000000 ) ) ;
#39 = SECURITY_CLASSIFICATION_LEVEL ( 'unclassified' ) ;
#40 = CALENDAR_DATE ( 2022, 6, 4 ) ;
#41 = APPROVAL_STATUS ( 'not_yet_approved' ) ;
#42 = LOCAL_TIME ( 11, 8, 11.00000000000000000, #135 ) ;
#43 = CALENDAR_DATE ( 2022, 6, 4 ) ;
#44 = ORIENTED_EDGE ( 'NONE', *, *, #1, .T. ) ;
#45 = DIRECTION ( 'NONE',  ( -0.000000000000000000, -0.000000000000000000, -1.000000000000000000 ) ) ;
#46 = DIRECTION ( 'NONE',  ( 0.000000000000000000, 0.000000000000000000, 1.000000000000000000 ) ) ;
#47 = SHAPE_DEFINITION_REPRESENTATION ( #32, #138 ) ;
#48 = CARTESIAN_POINT ( 'NONE',  ( 0.000000000000000000, 0.000000000000000000, 2.000000000000000000 ) ) ;
#49 = ORGANIZATION ( 'UNSPECIFIED', 'UNSPECIFIED', '' ) ;
#50 = CC_DESIGN_PERSON_AND_ORGANIZATION_ASSIGNMENT ( #174, #150, ( #57 ) ) ;
#51 = PERSON_AND_ORGANIZATION_ROLE ( 'creator' ) ;
#52 = APPROVAL_DATE_TIME ( #163, #166 ) ;
#53 = APPLICATION_PROTOCOL_DEFINITION ( 'international standard', 'config_control_design', 1994, #89 ) ;
#54 = ORIENTED_EDGE ( 'NONE', *, *, #85, .T. ) ;
#55 = CARTESIAN_POINT ( 'NONE',  ( -25.00000000000000000, 0.000000000000000000, 2.000000000000000000 ) ) ;
#56 = CARTESIAN_POINT ( 'NONE',  ( 0.000000000000000000, 0.000000000000000000, 2.000000000000000000 ) ) ;
#57 = PRODUCT ( 'Web Model 19837_19880', 'Web Model 19837_19880', '', ( #66 ) ) ;
#58 = FACE_OUTER_BOUND ( 'NONE', #60, .T. ) ;
#59 = CYLINDRICAL_SURFACE ( 'NONE', #62, 25.00000000000000000 ) ;
#60 = EDGE_LOOP ( 'NONE', ( #44, #134 ) ) ;
#61 = CARTESIAN_POINT ( 'NONE',  ( 0.000000000000000000, 0.000000000000000000, 0.000000000000000000 ) ) ;
#62 = AXIS2_PLACEMENT_3D ( 'NONE', #48, #20, #75 ) ;
#63 = CC_DESIGN_APPROVAL ( #107, ( #123 ) ) ;
#64 = PERSON_AND_ORGANIZATION ( #37, #49 ) ;
#65 = VECTOR ( 'NONE', #69, 1000.000000000000000 ) ;
#66 = MECHANICAL_CONTEXT ( 'NONE', #89, 'mechanical' ) ;
#67 = CC_DESIGN_DATE_AND_TIME_ASSIGNMENT ( #17, #113, ( #123 ) ) ;
#68 = CIRCLE ( 'NONE', #110, 25.00000000000000000 ) ;
#69 = DIRECTION ( 'NONE',  ( -0.000000000000000000, -0.000000000000000000, -1.000000000000000000 ) ) ;
#70 = APPROVAL_ROLE ( '' ) ;
#71 = CC_DESIGN_PERSON_AND_ORGANIZATION_ASSIGNMENT ( #162, #21, ( #12 ) ) ;
#72 = LINE ( 'NONE', #55, #170 ) ;
#73 = AXIS2_PLACEMENT_3D ( 'NONE', #56, #45, #103 ) ;
#74 = ORIENTED_EDGE ( 'NONE', *, *, #85, .F. ) ;
#75 = DIRECTION ( 'NONE',  ( -1.000000000000000000, 0.000000000000000000, 0.000000000000000000 ) ) ;
#76 = UNCERTAINTY_MEASURE_WITH_UNIT (LENGTH_MEASURE( 1.000000000000000082E-05 ), #100, 'distance_accuracy_value', 'NONE');
#77 = CC_DESIGN_APPROVAL ( #166, ( #12 ) ) ;
#78 = PERSON_AND_ORGANIZATION_ROLE ( 'classification_officer' ) ;
#79 = CALENDAR_DATE ( 2022, 6, 4 ) ;
#80 = AXIS2_PLACEMENT_3D ( 'NONE', #87, #46, #143 ) ;
#81 = ADVANCED_FACE ( 'NONE', ( #156 ), #154, .F. ) ;
#82 = DIRECTION ( 'NONE',  ( 1.000000000000000000, 0.000000000000000000, 0.000000000000000000 ) ) ;
#83 = COORDINATED_UNIVERSAL_TIME_OFFSET ( 5, 0, .BEHIND. ) ;
#84 = FACE_OUTER_BOUND ( 'NONE', #4, .T. ) ;
#85 = EDGE_CURVE ( 'NONE', #28, #168, #72, .T. ) ;
#86 = EDGE_LOOP ( 'NONE', ( #16, #19 ) ) ;
#87 = CARTESIAN_POINT ( 'NONE',  ( 0.000000000000000000, 0.000000000000000000, 2.000000000000000000 ) ) ;
#88 = DATE_AND_TIME ( #102, #93 ) ;
#89 = APPLICATION_CONTEXT ( 'configuration controlled 3d designs of mechanical parts and assemblies' ) ;
#90 = FACE_OUTER_BOUND ( 'NONE', #167, .T. ) ;
#91 = PLANE ( 'NONE',  #11 ) ;
#92 = CC_DESIGN_SECURITY_CLASSIFICATION ( #123, ( #151 ) ) ;
#93 = LOCAL_TIME ( 11, 8, 11.00000000000000000, #116 ) ;
#94 = APPLICATION_PROTOCOL_DEFINITION ( 'international standard', 'config_control_design', 1994, #109 ) ;
#95 = DATE_TIME_ROLE ( 'creation_date' ) ;
#96 = PERSON_AND_ORGANIZATION ( #37, #49 ) ;
#97 = ORIENTED_EDGE ( 'NONE', *, *, #164, .T. ) ;
#98 = CARTESIAN_POINT ( 'NONE',  ( 25.00000000000000000, 3.061616997868383043E-15, 2.000000000000000000 ) ) ;
#99 = APPROVAL_PERSON_ORGANIZATION ( #152, #130, #140 ) ;
#100 =( LENGTH_UNIT ( ) NAMED_UNIT ( * ) SI_UNIT ( .MILLI., .METRE. ) );
#101 = DIRECTION ( 'NONE',  ( 1.000000000000000000, 0.000000000000000000, 0.000000000000000000 ) ) ;
#102 = CALENDAR_DATE ( 2022, 6, 4 ) ;
#103 = DIRECTION ( 'NONE',  ( -1.000000000000000000, 0.000000000000000000, 0.000000000000000000 ) ) ;
#104 = ADVANCED_FACE ( 'NONE', ( #84 ), #132, .T. ) ;
#105 = ORIENTED_EDGE ( 'NONE', *, *, #33, .F. ) ;
#106 = CIRCLE ( 'NONE', #139, 25.00000000000000000 ) ;
#107 = APPROVAL ( #144, 'UNSPECIFIED' ) ;
#108 = AXIS2_PLACEMENT_3D ( 'NONE', #171, #38, #82 ) ;
#109 = APPLICATION_CONTEXT ( 'configuration controlled 3d designs of mechanical parts and assemblies' ) ;
#110 = AXIS2_PLACEMENT_3D ( 'NONE', #165, #128, #2 ) ;
#111 = PERSON_AND_ORGANIZATION_ROLE ( 'design_supplier' ) ;
#112 = COORDINATED_UNIVERSAL_TIME_OFFSET ( 5, 0, .BEHIND. ) ;
#113 = DATE_TIME_ROLE ( 'classification_date' ) ;
#114 = CARTESIAN_POINT ( 'NONE',  ( -25.00000000000000000, 0.000000000000000000, 0.000000000000000000 ) ) ;
#115 = ORIENTED_EDGE ( 'NONE', *, *, #153, .F. ) ;
#116 = COORDINATED_UNIVERSAL_TIME_OFFSET ( 5, 0, .BEHIND. ) ;
#117 = ORIENTED_EDGE ( 'NONE', *, *, #122, .T. ) ;
#118 = CC_DESIGN_PERSON_AND_ORGANIZATION_ASSIGNMENT ( #96, #111, ( #151 ) ) ;
#119 = DIRECTION ( 'NONE',  ( 0.000000000000000000, 0.000000000000000000, 1.000000000000000000 ) ) ;
#120 = CIRCLE ( 'NONE', #137, 25.00000000000000000 ) ;
#121 = DESIGN_CONTEXT ( 'detailed design', #109, 'design' ) ;
#122 = EDGE_CURVE ( 'NONE', #127, #168, #106, .T. ) ;
#123 = SECURITY_CLASSIFICATION ( '', '', #39 ) ;
#124 =( NAMED_UNIT ( * ) SI_UNIT ( $, .STERADIAN. ) SOLID_ANGLE_UNIT ( ) );
#125 = PERSON_AND_ORGANIZATION ( #37, #49 ) ;
#126 = LOCAL_TIME ( 11, 8, 11.00000000000000000, #24 ) ;
#127 = VERTEX_POINT ( 'NONE', #147 ) ;
#128 = DIRECTION ( 'NONE',  ( 0.000000000000000000, 0.000000000000000000, 1.000000000000000000 ) ) ;
#129 = CARTESIAN_POINT ( 'NONE',  ( -25.00000000000000000, 0.000000000000000000, 2.000000000000000000 ) ) ;
#130 = APPROVAL ( #26, 'UNSPECIFIED' ) ;
#131 = CIRCLE ( 'NONE', #80, 25.00000000000000000 ) ;
#132 = CYLINDRICAL_SURFACE ( 'NONE', #73, 25.00000000000000000 ) ;
#133 = APPROVAL_DATE_TIME ( #88, #107 ) ;
#134 = ORIENTED_EDGE ( 'NONE', *, *, #33, .T. ) ;
#135 = COORDINATED_UNIVERSAL_TIME_OFFSET ( 5, 0, .BEHIND. ) ;
#136 = DIRECTION ( 'NONE',  ( 0.000000000000000000, 0.000000000000000000, 1.000000000000000000 ) ) ;
#137 = AXIS2_PLACEMENT_3D ( 'NONE', #35, #136, #101 ) ;
#138 = ADVANCED_BREP_SHAPE_REPRESENTATION ( 'Web Model 19837_19880', ( #31, #108 ), #9 ) ;
#139 = AXIS2_PLACEMENT_3D ( 'NONE', #61, #142, #158 ) ;
#140 = APPROVAL_ROLE ( '' ) ;
#141 = CC_DESIGN_DATE_AND_TIME_ASSIGNMENT ( #161, #95, ( #12 ) ) ;
#142 = DIRECTION ( 'NONE',  ( 0.000000000000000000, 0.000000000000000000, 1.000000000000000000 ) ) ;
#143 = DIRECTION ( 'NONE',  ( 1.000000000000000000, 0.000000000000000000, 0.000000000000000000 ) ) ;
#144 = APPROVAL_STATUS ( 'not_yet_approved' ) ;
#145 = DIRECTION ( 'NONE',  ( -0.000000000000000000, -0.000000000000000000, -1.000000000000000000 ) ) ;
#146 = APPROVAL_PERSON_ORGANIZATION ( #29, #107, #70 ) ;
#147 = CARTESIAN_POINT ( 'NONE',  ( 25.00000000000000000, 3.061616997868383043E-15, 0.000000000000000000 ) ) ;
#148 = DIRECTION ( 'NONE',  ( 1.000000000000000000, 0.000000000000000000, -0.000000000000000000 ) ) ;
#149 = ADVANCED_FACE ( 'NONE', ( #58 ), #91, .T. ) ;
#150 = PERSON_AND_ORGANIZATION_ROLE ( 'design_owner' ) ;
#151 = PRODUCT_DEFINITION_FORMATION_WITH_SPECIFIED_SOURCE ( 'ANY', '', #57, .NOT_KNOWN. ) ;
#152 = PERSON_AND_ORGANIZATION ( #37, #49 ) ;
#153 = EDGE_CURVE ( 'NONE', #30, #127, #34, .T. ) ;
#154 = PLANE ( 'NONE',  #36 ) ;
#155 = DIRECTION ( 'NONE',  ( 0.000000000000000000, 0.000000000000000000, 1.000000000000000000 ) ) ;
#156 = FACE_OUTER_BOUND ( 'NONE', #86, .T. ) ;
#157 = CC_DESIGN_APPROVAL ( #130, ( #151 ) ) ;
#158 = DIRECTION ( 'NONE',  ( 1.000000000000000000, 0.000000000000000000, 0.000000000000000000 ) ) ;
#159 = ADVANCED_FACE ( 'NONE', ( #90 ), #59, .T. ) ;
#160 = APPROVAL_PERSON_ORGANIZATION ( #64, #166, #13 ) ;
#161 = DATE_AND_TIME ( #43, #126 ) ;
#162 = PERSON_AND_ORGANIZATION ( #37, #49 ) ;
#163 = DATE_AND_TIME ( #40, #173 ) ;
#164 = EDGE_CURVE ( 'NONE', #168, #127, #68, .T. ) ;
#165 = CARTESIAN_POINT ( 'NONE',  ( 0.000000000000000000, 0.000000000000000000, 0.000000000000000000 ) ) ;
#166 = APPROVAL ( #41, 'UNSPECIFIED' ) ;
#167 = EDGE_LOOP ( 'NONE', ( #105, #6, #117, #74 ) ) ;
#168 = VERTEX_POINT ( 'NONE', #114 ) ;
#169 = CARTESIAN_POINT ( 'NONE',  ( 25.00000000000000000, 3.061616997868383043E-15, 2.000000000000000000 ) ) ;
#170 = VECTOR ( 'NONE', #145, 1000.000000000000000 ) ;
#171 = CARTESIAN_POINT ( 'NONE',  ( 0.000000000000000000, 0.000000000000000000, 0.000000000000000000 ) ) ;
#172 = APPROVAL_DATE_TIME ( #27, #130 ) ;
#173 = LOCAL_TIME ( 11, 8, 11.00000000000000000, #112 ) ;
#174 = PERSON_AND_ORGANIZATION ( #37, #49 ) ;
#175 = CC_DESIGN_PERSON_AND_ORGANIZATION_ASSIGNMENT ( #125, #51, ( #151 ) ) ;
ENDSEC;
END-ISO-10303-21;
