ISO-10303-21;
HEADER;
FILE_DESCRIPTION (( 'STEP AP203' ),
    '1' );
FILE_NAME ('Web Model 17212_17215.step',
    '2021-04-05T17:57:20',
    ( '' ),
    ( '' ),
    'SwSTEP 2.0',
    'SolidWorks 2018',
    '' );
FILE_SCHEMA (( 'CONFIG_CONTROL_DESIGN' ));
ENDSEC;

DATA;
#1 = PERSON_AND_ORGANIZATION ( #48, #8 ) ;
#2 = PRODUCT_RELATED_PRODUCT_CATEGORY ( 'detail', '', ( #24 ) ) ;
#3 = FACE_OUTER_BOUND ( 'NONE', #153, .T. ) ;
#4 = CALENDAR_DATE ( 2021, 5, 4 ) ;
#5 = ADVANCED_FACE ( 'NONE', ( #150 ), #190, .T. ) ;
#6 = EDGE_CURVE ( 'NONE', #211, #54, #30, .T. ) ;
#7 = CARTESIAN_POINT ( 'NONE',  ( 0.000000000000000000, 0.000000000000000000, 0.000000000000000000 ) ) ;
#8 = ORGANIZATION ( 'UNSPECIFIED', 'UNSPECIFIED', '' ) ;
#9 = DIRECTION ( 'NONE',  ( -0.000000000000000000, -0.000000000000000000, -1.000000000000000000 ) ) ;
#10 = DIRECTION ( 'NONE',  ( -1.000000000000000000, 0.000000000000000000, 0.000000000000000000 ) ) ;
#11 =( NAMED_UNIT ( * ) PLANE_ANGLE_UNIT ( ) SI_UNIT ( $, .RADIAN. ) );
#12 = APPROVAL ( #43, 'UNSPECIFIED' ) ;
#13 = CARTESIAN_POINT ( 'NONE',  ( 0.000000000000000000, 0.000000000000000000, 1.000000000000000000 ) ) ;
#14 = APPROVAL_STATUS ( 'not_yet_approved' ) ;
#15 = DIRECTION ( 'NONE',  ( 0.000000000000000000, 0.000000000000000000, 1.000000000000000000 ) ) ;
#16 = ORIENTED_EDGE ( 'NONE', *, *, #6, .F. ) ;
#17 = DIRECTION ( 'NONE',  ( 0.000000000000000000, 0.000000000000000000, 1.000000000000000000 ) ) ;
#18 = CIRCLE ( 'NONE', #169, 12.69999999999999929 ) ;
#19 = PERSON_AND_ORGANIZATION_ROLE ( 'creator' ) ;
#20 = CC_DESIGN_APPROVAL ( #226, ( #96 ) ) ;
#21 = CALENDAR_DATE ( 2021, 5, 4 ) ;
#22 = ORIENTED_EDGE ( 'NONE', *, *, #171, .F. ) ;
#23 = FACE_BOUND ( 'NONE', #235, .T. ) ;
#24 = PRODUCT ( 'Web Model 17212_17215', 'Web Model 17212_17215', '', ( #207 ) ) ;
#25 = CC_DESIGN_APPROVAL ( #12, ( #108 ) ) ;
#26 = DATE_AND_TIME ( #4, #134 ) ;
#27 = MANIFOLD_SOLID_BREP ( 'Boss-Extrude1', #70 ) ;
#28 = FACE_BOUND ( 'NONE', #248, .T. ) ;
#29 = ORIENTED_EDGE ( 'NONE', *, *, #210, .T. ) ;
#30 = LINE ( 'NONE', #51, #47 ) ;
#31 = COORDINATED_UNIVERSAL_TIME_OFFSET ( 5, 0, .BEHIND. ) ;
#32 = DIRECTION ( 'NONE',  ( 1.000000000000000000, 0.000000000000000000, 0.000000000000000000 ) ) ;
#33 = CARTESIAN_POINT ( 'NONE',  ( 0.000000000000000000, 0.000000000000000000, 0.000000000000000000 ) ) ;
#34 = COORDINATED_UNIVERSAL_TIME_OFFSET ( 5, 0, .BEHIND. ) ;
#35 = CARTESIAN_POINT ( 'NONE',  ( -12.69999999999999929, 0.000000000000000000, 1.000000000000000000 ) ) ;
#36 = AXIS2_PLACEMENT_3D ( 'NONE', #33, #241, #144 ) ;
#37 = CARTESIAN_POINT ( 'NONE',  ( -1.600000000000000977, 0.000000000000000000, 0.000000000000000000 ) ) ;
#38 = EDGE_LOOP ( 'NONE', ( #232, #204 ) ) ;
#39 = VECTOR ( 'NONE', #127, 1000.000000000000000 ) ;
#40 = DATE_AND_TIME ( #46, #188 ) ;
#41 = DIRECTION ( 'NONE',  ( 1.000000000000000000, 0.000000000000000000, 0.000000000000000000 ) ) ;
#42 = CIRCLE ( 'NONE', #147, 12.69999999999999929 ) ;
#43 = APPROVAL_STATUS ( 'not_yet_approved' ) ;
#44 = VERTEX_POINT ( 'NONE', #138 ) ;
#45 = CC_DESIGN_PERSON_AND_ORGANIZATION_ASSIGNMENT ( #178, #92, ( #108 ) ) ;
#46 = CALENDAR_DATE ( 2021, 5, 4 ) ;
#47 = VECTOR ( 'NONE', #177, 1000.000000000000000 ) ;
#48 = PERSON ( 'UNSPECIFIED', 'UNSPECIFIED', 'UNSPECIFIED', ('UNSPECIFIED'), ('UNSPECIFIED'), ('UNSPECIFIED') ) ;
#49 = EDGE_CURVE ( 'NONE', #95, #242, #52, .T. ) ;
#50 = EDGE_CURVE ( 'NONE', #56, #44, #42, .T. ) ;
#51 = CARTESIAN_POINT ( 'NONE',  ( 1.600000000000000977, 1.959434878635766216E-16, 1.000000000000000000 ) ) ;
#52 = CIRCLE ( 'NONE', #103, 12.69999999999999929 ) ;
#53 = CARTESIAN_POINT ( 'NONE',  ( 0.000000000000000000, 0.000000000000000000, 0.000000000000000000 ) ) ;
#54 = VERTEX_POINT ( 'NONE', #203 ) ;
#55 = CC_DESIGN_DATE_AND_TIME_ASSIGNMENT ( #58, #123, ( #186 ) ) ;
#56 = VERTEX_POINT ( 'NONE', #116 ) ;
#57 = DIRECTION ( 'NONE',  ( -0.000000000000000000, -0.000000000000000000, -1.000000000000000000 ) ) ;
#58 = DATE_AND_TIME ( #94, #145 ) ;
#59 = DIRECTION ( 'NONE',  ( 1.000000000000000000, 0.000000000000000000, 0.000000000000000000 ) ) ;
#60 = LINE ( 'NONE', #64, #39 ) ;
#61 =( NAMED_UNIT ( * ) SI_UNIT ( $, .STERADIAN. ) SOLID_ANGLE_UNIT ( ) );
#62 = APPROVAL_DATE_TIME ( #26, #91 ) ;
#63 = PERSON_AND_ORGANIZATION ( #48, #8 ) ;
#64 = CARTESIAN_POINT ( 'NONE',  ( 12.69999999999999929, 1.555301434917138433E-15, 1.000000000000000000 ) ) ;
#65 = DIRECTION ( 'NONE',  ( 0.000000000000000000, 0.000000000000000000, 1.000000000000000000 ) ) ;
#66 = DIRECTION ( 'NONE',  ( -0.000000000000000000, -0.000000000000000000, -1.000000000000000000 ) ) ;
#67 = PRODUCT_DEFINITION_SHAPE ( 'NONE', 'NONE',  #96 ) ;
#68 = DIRECTION ( 'NONE',  ( -0.000000000000000000, -0.000000000000000000, -1.000000000000000000 ) ) ;
#69 = LINE ( 'NONE', #166, #213 ) ;
#70 = CLOSED_SHELL ( 'NONE', ( #155, #175, #114, #154, #5, #77 ) ) ;
#71 = APPLICATION_CONTEXT ( 'configuration controlled 3d designs of mechanical parts and assemblies' ) ;
#72 = APPLICATION_PROTOCOL_DEFINITION ( 'international standard', 'config_control_design', 1994, #191 ) ;
#73 = PERSON_AND_ORGANIZATION ( #48, #8 ) ;
#74 = CIRCLE ( 'NONE', #164, 1.600000000000000977 ) ;
#75 = APPROVAL_DATE_TIME ( #243, #12 ) ;
#76 =( GEOMETRIC_REPRESENTATION_CONTEXT ( 3 ) GLOBAL_UNCERTAINTY_ASSIGNED_CONTEXT ( ( #249 ) ) GLOBAL_UNIT_ASSIGNED_CONTEXT ( ( #215, #11, #61 ) ) REPRESENTATION_CONTEXT ( 'NONE', 'WORKASPACE' ) );
#77 = ADVANCED_FACE ( 'NONE', ( #141 ), #160, .F. ) ;
#78 = DATE_AND_TIME ( #21, #183 ) ;
#79 = CC_DESIGN_APPROVAL ( #91, ( #186 ) ) ;
#80 = EDGE_LOOP ( 'NONE', ( #16, #231, #122, #87 ) ) ;
#81 = FACE_OUTER_BOUND ( 'NONE', #38, .T. ) ;
#82 = APPROVAL_DATE_TIME ( #78, #226 ) ;
#83 = EDGE_CURVE ( 'NONE', #44, #56, #18, .T. ) ;
#84 = DIRECTION ( 'NONE',  ( 0.000000000000000000, 0.000000000000000000, 1.000000000000000000 ) ) ;
#85 = CC_DESIGN_PERSON_AND_ORGANIZATION_ASSIGNMENT ( #73, #152, ( #96 ) ) ;
#86 = ORIENTED_EDGE ( 'NONE', *, *, #110, .F. ) ;
#87 = ORIENTED_EDGE ( 'NONE', *, *, #93, .F. ) ;
#88 = CYLINDRICAL_SURFACE ( 'NONE', #198, 12.69999999999999929 ) ;
#89 = CARTESIAN_POINT ( 'NONE',  ( 0.000000000000000000, 0.000000000000000000, 1.000000000000000000 ) ) ;
#90 = DIRECTION ( 'NONE',  ( 0.000000000000000000, 0.000000000000000000, 1.000000000000000000 ) ) ;
#91 = APPROVAL ( #14, 'UNSPECIFIED' ) ;
#92 = PERSON_AND_ORGANIZATION_ROLE ( 'design_supplier' ) ;
#93 = EDGE_CURVE ( 'NONE', #54, #187, #193, .T. ) ;
#94 = CALENDAR_DATE ( 2021, 5, 4 ) ;
#95 = VERTEX_POINT ( 'NONE', #117 ) ;
#96 = PRODUCT_DEFINITION ( 'UNKNOWN', '', #108, #118 ) ;
#97 = CALENDAR_DATE ( 2021, 5, 4 ) ;
#98 = PERSON_AND_ORGANIZATION ( #48, #8 ) ;
#99 = PLANE ( 'NONE',  #239 ) ;
#100 = CARTESIAN_POINT ( 'NONE',  ( -12.69999999999999929, 0.000000000000000000, 0.000000000000000000 ) ) ;
#101 = DIRECTION ( 'NONE',  ( 1.000000000000000000, 0.000000000000000000, 0.000000000000000000 ) ) ;
#102 = AXIS2_PLACEMENT_3D ( 'NONE', #167, #125, #59 ) ;
#103 = AXIS2_PLACEMENT_3D ( 'NONE', #7, #65, #234 ) ;
#104 = DIRECTION ( 'NONE',  ( 1.000000000000000000, 0.000000000000000000, -0.000000000000000000 ) ) ;
#105 = CARTESIAN_POINT ( 'NONE',  ( 0.000000000000000000, 0.000000000000000000, 1.000000000000000000 ) ) ;
#106 = ORIENTED_EDGE ( 'NONE', *, *, #240, .F. ) ;
#107 = APPROVAL_STATUS ( 'not_yet_approved' ) ;
#108 = PRODUCT_DEFINITION_FORMATION_WITH_SPECIFIED_SOURCE ( 'ANY', '', #24, .NOT_KNOWN. ) ;
#109 = PERSON_AND_ORGANIZATION_ROLE ( 'classification_officer' ) ;
#110 = EDGE_CURVE ( 'NONE', #242, #95, #149, .T. ) ;
#111 = FACE_OUTER_BOUND ( 'NONE', #112, .T. ) ;
#112 = EDGE_LOOP ( 'NONE', ( #135, #142, #143, #182 ) ) ;
#113 = AXIS2_PLACEMENT_3D ( 'NONE', #208, #90, #219 ) ;
#114 = ADVANCED_FACE ( 'NONE', ( #81, #23 ), #99, .T. ) ;
#115 = DIRECTION ( 'NONE',  ( -1.000000000000000000, 0.000000000000000000, 0.000000000000000000 ) ) ;
#116 = CARTESIAN_POINT ( 'NONE',  ( 12.69999999999999929, 1.555301434917138433E-15, 1.000000000000000000 ) ) ;
#117 = CARTESIAN_POINT ( 'NONE',  ( 12.69999999999999929, 1.555301434917138433E-15, 0.000000000000000000 ) ) ;
#118 = DESIGN_CONTEXT ( 'detailed design', #71, 'design' ) ;
#119 = DIRECTION ( 'NONE',  ( 0.000000000000000000, 0.000000000000000000, 1.000000000000000000 ) ) ;
#120 = AXIS2_PLACEMENT_3D ( 'NONE', #180, #238, #184 ) ;
#121 = DIRECTION ( 'NONE',  ( 1.000000000000000000, 0.000000000000000000, 0.000000000000000000 ) ) ;
#122 = ORIENTED_EDGE ( 'NONE', *, *, #240, .T. ) ;
#123 = DATE_TIME_ROLE ( 'classification_date' ) ;
#124 = CIRCLE ( 'NONE', #181, 1.600000000000000977 ) ;
#125 = DIRECTION ( 'NONE',  ( 0.000000000000000000, 0.000000000000000000, 1.000000000000000000 ) ) ;
#126 = APPROVAL_PERSON_ORGANIZATION ( #202, #91, #146 ) ;
#127 = DIRECTION ( 'NONE',  ( -0.000000000000000000, -0.000000000000000000, -1.000000000000000000 ) ) ;
#128 = APPLICATION_PROTOCOL_DEFINITION ( 'international standard', 'config_control_design', 1994, #71 ) ;
#129 = PERSON_AND_ORGANIZATION_ROLE ( 'design_owner' ) ;
#130 = VERTEX_POINT ( 'NONE', #244 ) ;
#131 = ORIENTED_EDGE ( 'NONE', *, *, #83, .F. ) ;
#132 = ORIENTED_EDGE ( 'NONE', *, *, #93, .T. ) ;
#133 = PERSON_AND_ORGANIZATION ( #48, #8 ) ;
#134 = LOCAL_TIME ( 13, 57, 20.00000000000000000, #31 ) ;
#135 = ORIENTED_EDGE ( 'NONE', *, *, #50, .F. ) ;
#136 = ORIENTED_EDGE ( 'NONE', *, *, #228, .F. ) ;
#137 = CC_DESIGN_PERSON_AND_ORGANIZATION_ASSIGNMENT ( #230, #109, ( #186 ) ) ;
#138 = CARTESIAN_POINT ( 'NONE',  ( -12.69999999999999929, 0.000000000000000000, 1.000000000000000000 ) ) ;
#139 = CARTESIAN_POINT ( 'NONE',  ( 1.600000000000000977, 1.959434878635766216E-16, 1.000000000000000000 ) ) ;
#140 = EDGE_CURVE ( 'NONE', #56, #95, #60, .T. ) ;
#141 = FACE_OUTER_BOUND ( 'NONE', #80, .T. ) ;
#142 = ORIENTED_EDGE ( 'NONE', *, *, #140, .T. ) ;
#143 = ORIENTED_EDGE ( 'NONE', *, *, #49, .T. ) ;
#144 = DIRECTION ( 'NONE',  ( 1.000000000000000000, 0.000000000000000000, 0.000000000000000000 ) ) ;
#145 = LOCAL_TIME ( 13, 57, 20.00000000000000000, #156 ) ;
#146 = APPROVAL_ROLE ( '' ) ;
#147 = AXIS2_PLACEMENT_3D ( 'NONE', #158, #84, #32 ) ;
#148 = PLANE ( 'NONE',  #120 ) ;
#149 = CIRCLE ( 'NONE', #113, 12.69999999999999929 ) ;
#150 = FACE_OUTER_BOUND ( 'NONE', #185, .T. ) ;
#151 = CIRCLE ( 'NONE', #36, 1.600000000000000977 ) ;
#152 = PERSON_AND_ORGANIZATION_ROLE ( 'creator' ) ;
#153 = EDGE_LOOP ( 'NONE', ( #29, #222, #22, #106 ) ) ;
#154 = ADVANCED_FACE ( 'NONE', ( #223, #28 ), #148, .F. ) ;
#155 = ADVANCED_FACE ( 'NONE', ( #3 ), #201, .F. ) ;
#156 = COORDINATED_UNIVERSAL_TIME_OFFSET ( 5, 0, .BEHIND. ) ;
#157 = AXIS2_PLACEMENT_3D ( 'NONE', #233, #214, #115 ) ;
#158 = CARTESIAN_POINT ( 'NONE',  ( 0.000000000000000000, 0.000000000000000000, 1.000000000000000000 ) ) ;
#159 = DIRECTION ( 'NONE',  ( -1.000000000000000000, 0.000000000000000000, 0.000000000000000000 ) ) ;
#160 = CYLINDRICAL_SURFACE ( 'NONE', #189, 1.600000000000000977 ) ;
#161 = DIRECTION ( 'NONE',  ( -0.000000000000000000, -0.000000000000000000, -1.000000000000000000 ) ) ;
#162 = CARTESIAN_POINT ( 'NONE',  ( 0.000000000000000000, 0.000000000000000000, 1.000000000000000000 ) ) ;
#163 = CARTESIAN_POINT ( 'NONE',  ( 0.000000000000000000, 0.000000000000000000, 1.000000000000000000 ) ) ;
#164 = AXIS2_PLACEMENT_3D ( 'NONE', #89, #217, #101 ) ;
#165 = COORDINATED_UNIVERSAL_TIME_OFFSET ( 5, 0, .BEHIND. ) ;
#166 = CARTESIAN_POINT ( 'NONE',  ( -1.600000000000000977, 0.000000000000000000, 1.000000000000000000 ) ) ;
#167 = CARTESIAN_POINT ( 'NONE',  ( 0.000000000000000000, 0.000000000000000000, 0.000000000000000000 ) ) ;
#168 = APPROVAL_ROLE ( '' ) ;
#169 = AXIS2_PLACEMENT_3D ( 'NONE', #162, #15, #41 ) ;
#170 = CC_DESIGN_PERSON_AND_ORGANIZATION_ASSIGNMENT ( #63, #19, ( #108 ) ) ;
#171 = EDGE_CURVE ( 'NONE', #187, #54, #151, .T. ) ;
#172 = EDGE_LOOP ( 'NONE', ( #86, #227 ) ) ;
#173 = VECTOR ( 'NONE', #57, 1000.000000000000000 ) ;
#174 = ORIENTED_EDGE ( 'NONE', *, *, #140, .F. ) ;
#175 = ADVANCED_FACE ( 'NONE', ( #111 ), #88, .T. ) ;
#176 = APPROVAL_PERSON_ORGANIZATION ( #133, #226, #168 ) ;
#177 = DIRECTION ( 'NONE',  ( -0.000000000000000000, -0.000000000000000000, -1.000000000000000000 ) ) ;
#178 = PERSON_AND_ORGANIZATION ( #48, #8 ) ;
#179 = CARTESIAN_POINT ( 'NONE',  ( 0.000000000000000000, 0.000000000000000000, 1.000000000000000000 ) ) ;
#180 = CARTESIAN_POINT ( 'NONE',  ( 0.000000000000000000, 0.000000000000000000, 0.000000000000000000 ) ) ;
#181 = AXIS2_PLACEMENT_3D ( 'NONE', #163, #119, #121 ) ;
#182 = ORIENTED_EDGE ( 'NONE', *, *, #199, .F. ) ;
#183 = LOCAL_TIME ( 13, 57, 20.00000000000000000, #236 ) ;
#184 = DIRECTION ( 'NONE',  ( 1.000000000000000000, 0.000000000000000000, -0.000000000000000000 ) ) ;
#185 = EDGE_LOOP ( 'NONE', ( #174, #131, #229, #197 ) ) ;
#186 = SECURITY_CLASSIFICATION ( '', '', #220 ) ;
#187 = VERTEX_POINT ( 'NONE', #37 ) ;
#188 = LOCAL_TIME ( 13, 57, 20.00000000000000000, #165 ) ;
#189 = AXIS2_PLACEMENT_3D ( 'NONE', #179, #9, #159 ) ;
#190 = CYLINDRICAL_SURFACE ( 'NONE', #157, 12.69999999999999929 ) ;
#191 = APPLICATION_CONTEXT ( 'configuration controlled 3d designs of mechanical parts and assemblies' ) ;
#192 = ORIENTED_EDGE ( 'NONE', *, *, #171, .T. ) ;
#193 = CIRCLE ( 'NONE', #102, 1.600000000000000977 ) ;
#194 = DIRECTION ( 'NONE',  ( 1.000000000000000000, 0.000000000000000000, 0.000000000000000000 ) ) ;
#195 = ORIENTED_EDGE ( 'NONE', *, *, #210, .F. ) ;
#196 = CC_DESIGN_DATE_AND_TIME_ASSIGNMENT ( #40, #247, ( #96 ) ) ;
#197 = ORIENTED_EDGE ( 'NONE', *, *, #110, .T. ) ;
#198 = AXIS2_PLACEMENT_3D ( 'NONE', #13, #161, #10 ) ;
#199 = EDGE_CURVE ( 'NONE', #44, #242, #218, .T. ) ;
#200 = AXIS2_PLACEMENT_3D ( 'NONE', #53, #245, #194 ) ;
#201 = CYLINDRICAL_SURFACE ( 'NONE', #246, 1.600000000000000977 ) ;
#202 = PERSON_AND_ORGANIZATION ( #48, #8 ) ;
#203 = CARTESIAN_POINT ( 'NONE',  ( 1.600000000000000977, 1.959434878635766216E-16, 0.000000000000000000 ) ) ;
#204 = ORIENTED_EDGE ( 'NONE', *, *, #50, .T. ) ;
#205 = CC_DESIGN_SECURITY_CLASSIFICATION ( #186, ( #108 ) ) ;
#206 = CARTESIAN_POINT ( 'NONE',  ( 0.000000000000000000, 0.000000000000000000, 1.000000000000000000 ) ) ;
#207 = MECHANICAL_CONTEXT ( 'NONE', #191, 'mechanical' ) ;
#208 = CARTESIAN_POINT ( 'NONE',  ( 0.000000000000000000, 0.000000000000000000, 0.000000000000000000 ) ) ;
#209 = APPROVAL_ROLE ( '' ) ;
#210 = EDGE_CURVE ( 'NONE', #130, #211, #74, .T. ) ;
#211 = VERTEX_POINT ( 'NONE', #139 ) ;
#212 = APPROVAL_PERSON_ORGANIZATION ( #1, #12, #209 ) ;
#213 = VECTOR ( 'NONE', #68, 1000.000000000000000 ) ;
#214 = DIRECTION ( 'NONE',  ( -0.000000000000000000, -0.000000000000000000, -1.000000000000000000 ) ) ;
#215 =( LENGTH_UNIT ( ) NAMED_UNIT ( * ) SI_UNIT ( .MILLI., .METRE. ) );
#216 = CC_DESIGN_PERSON_AND_ORGANIZATION_ASSIGNMENT ( #98, #129, ( #24 ) ) ;
#217 = DIRECTION ( 'NONE',  ( 0.000000000000000000, 0.000000000000000000, 1.000000000000000000 ) ) ;
#218 = LINE ( 'NONE', #35, #173 ) ;
#219 = DIRECTION ( 'NONE',  ( 1.000000000000000000, 0.000000000000000000, 0.000000000000000000 ) ) ;
#220 = SECURITY_CLASSIFICATION_LEVEL ( 'unclassified' ) ;
#221 = SHAPE_DEFINITION_REPRESENTATION ( #67, #225 ) ;
#222 = ORIENTED_EDGE ( 'NONE', *, *, #6, .T. ) ;
#223 = FACE_OUTER_BOUND ( 'NONE', #172, .T. ) ;
#224 = LOCAL_TIME ( 13, 57, 20.00000000000000000, #34 ) ;
#225 = ADVANCED_BREP_SHAPE_REPRESENTATION ( 'Web Model 17212_17215', ( #27, #200 ), #76 ) ;
#226 = APPROVAL ( #107, 'UNSPECIFIED' ) ;
#227 = ORIENTED_EDGE ( 'NONE', *, *, #49, .F. ) ;
#228 = EDGE_CURVE ( 'NONE', #211, #130, #124, .T. ) ;
#229 = ORIENTED_EDGE ( 'NONE', *, *, #199, .T. ) ;
#230 = PERSON_AND_ORGANIZATION ( #48, #8 ) ;
#231 = ORIENTED_EDGE ( 'NONE', *, *, #228, .T. ) ;
#232 = ORIENTED_EDGE ( 'NONE', *, *, #83, .T. ) ;
#233 = CARTESIAN_POINT ( 'NONE',  ( 0.000000000000000000, 0.000000000000000000, 1.000000000000000000 ) ) ;
#234 = DIRECTION ( 'NONE',  ( 1.000000000000000000, 0.000000000000000000, 0.000000000000000000 ) ) ;
#235 = EDGE_LOOP ( 'NONE', ( #195, #136 ) ) ;
#236 = COORDINATED_UNIVERSAL_TIME_OFFSET ( 5, 0, .BEHIND. ) ;
#237 = DIRECTION ( 'NONE',  ( -1.000000000000000000, 0.000000000000000000, 0.000000000000000000 ) ) ;
#238 = DIRECTION ( 'NONE',  ( 0.000000000000000000, 0.000000000000000000, 1.000000000000000000 ) ) ;
#239 = AXIS2_PLACEMENT_3D ( 'NONE', #105, #17, #104 ) ;
#240 = EDGE_CURVE ( 'NONE', #130, #187, #69, .T. ) ;
#241 = DIRECTION ( 'NONE',  ( 0.000000000000000000, 0.000000000000000000, 1.000000000000000000 ) ) ;
#242 = VERTEX_POINT ( 'NONE', #100 ) ;
#243 = DATE_AND_TIME ( #97, #224 ) ;
#244 = CARTESIAN_POINT ( 'NONE',  ( -1.600000000000000977, 0.000000000000000000, 1.000000000000000000 ) ) ;
#245 = DIRECTION ( 'NONE',  ( 0.000000000000000000, 0.000000000000000000, 1.000000000000000000 ) ) ;
#246 = AXIS2_PLACEMENT_3D ( 'NONE', #206, #66, #237 ) ;
#247 = DATE_TIME_ROLE ( 'creation_date' ) ;
#248 = EDGE_LOOP ( 'NONE', ( #192, #132 ) ) ;
#249 = UNCERTAINTY_MEASURE_WITH_UNIT (LENGTH_MEASURE( 1.000000000000000082E-05 ), #215, 'distance_accuracy_value', 'NONE');
ENDSEC;
END-ISO-10303-21;
