ISO-10303-21;
HEADER;
FILE_DESCRIPTION (( 'STEP AP214' ),
    '1' );
FILE_NAME ('PKFESP.STEP',
    '2015-01-14T09:29:29',
    ( '' ),
    ( '' ),
    'SwSTEP 2.0',
    'SolidWorks 2012',
    '' );
FILE_SCHEMA (( 'AUTOMOTIVE_DESIGN' ));
ENDSEC;

DATA;
#1 = SHAPE_DEFINITION_REPRESENTATION ( #17, #120 ) ;
#2 = COLOUR_RGB ( '',1.000000000000000000, 1.000000000000000000, 1.000000000000000000 ) ;
#3 = SURFACE_STYLE_FILL_AREA ( #40 ) ;
#4 = PRESENTATION_STYLE_ASSIGNMENT (( #50 ) ) ;
#5 = SPHERICAL_SURFACE ( 'NONE', #145, 2.500000000000000000 ) ;
#6 = CIRCLE ( 'NONE', #152, 2.500000000000000000 ) ;
#7 = COLOUR_RGB ( '',1.000000000000000000, 0.5019607843137254800, 0.5019607843137254800 ) ;
#8 = CIRCLE ( 'NONE', #150, 2.500000000000000000 ) ;
#9 = SURFACE_STYLE_FILL_AREA ( #51 ) ;
#10 = PRESENTATION_STYLE_ASSIGNMENT (( #64 ) ) ;
#11 = CIRCLE ( 'NONE', #149, 2.500000000000000000 ) ;
#12 = CIRCLE ( 'NONE', #151, 2.500000000000000000 ) ;
#13 = SURFACE_STYLE_FILL_AREA ( #87 ) ;
#14 = COLOUR_RGB ( '',1.000000000000000000, 0.5019607843137254800, 0.5019607843137254800 ) ;
#15 = PRESENTATION_STYLE_ASSIGNMENT (( #90 ) ) ;
#16 = PRODUCT_DEFINITION_CONTEXT ( 'detailed design', #84, 'design' ) ;
#17 = PRODUCT_DEFINITION_SHAPE ( 'NONE', 'NONE',  #159 ) ;
#18 = ADVANCED_FACE ( 'NONE', ( #97 ), #106, .T. ) ;
#19 = ADVANCED_FACE ( 'NONE', ( #108 ), #30, .F. ) ;
#20 = ADVANCED_FACE ( 'NONE', ( #117 ), #5, .T. ) ;
#21 = PRODUCT ( 'PKFESP', 'PKFESP', '', ( #85 ) ) ;
#22 =( NAMED_UNIT ( * ) PLANE_ANGLE_UNIT ( ) SI_UNIT ( $, .RADIAN. ) );
#23 =( NAMED_UNIT ( * ) SI_UNIT ( $, .STERADIAN. ) SOLID_ANGLE_UNIT ( ) );
#24 = FILL_AREA_STYLE_COLOUR ( '', #93 ) ;
#25 = DIRECTION ( 'NONE',  ( 0.0000000000000000000, 0.0000000000000000000, 1.000000000000000000 ) ) ;
#26 = DIRECTION ( 'NONE',  ( 1.000000000000000000, 0.0000000000000000000, 0.0000000000000000000 ) ) ;
#27 = DIRECTION ( 'NONE',  ( 0.0000000000000000000, 0.0000000000000000000, 1.000000000000000000 ) ) ;
#28 = CARTESIAN_POINT ( 'NONE',  ( 0.0000000000000000000, 0.0000000000000000000, 0.0000000000000000000 ) ) ;
#29 = DIRECTION ( 'NONE',  ( 1.224646799147353200E-016, -0.0000000000000000000, 1.000000000000000000 ) ) ;
#30 = PLANE ( 'NONE',  #140 ) ;
#31 = FILL_AREA_STYLE_COLOUR ( '', #2 ) ;
#32 = DIRECTION ( 'NONE',  ( 1.000000000000000000, -1.224646799147353200E-016, 0.0000000000000000000 ) ) ;
#33 = FILL_AREA_STYLE_COLOUR ( '', #14 ) ;
#34 =( NAMED_UNIT ( * ) SI_UNIT ( $, .STERADIAN. ) SOLID_ANGLE_UNIT ( ) );
#35 =( NAMED_UNIT ( * ) SI_UNIT ( $, .STERADIAN. ) SOLID_ANGLE_UNIT ( ) );
#36 = CARTESIAN_POINT ( 'NONE',  ( 0.0000000000000000000, 0.0000000000000000000, 0.0000000000000000000 ) ) ;
#37 = CARTESIAN_POINT ( 'NONE',  ( 0.0000000000000000000, 0.0000000000000000000, 0.0000000000000000000 ) ) ;
#38 =( LENGTH_UNIT ( ) NAMED_UNIT ( * ) SI_UNIT ( .MILLI., .METRE. ) );
#39 = CARTESIAN_POINT ( 'NONE',  ( -2.500000000000000000, 0.0000000000000000000, -1.275191692073634800E-016 ) ) ;
#40 = FILL_AREA_STYLE ('',( #31 ) ) ;
#41 = DIRECTION ( 'NONE',  ( 0.0000000000000000000, -1.000000000000000000, 0.0000000000000000000 ) ) ;
#42 = FILL_AREA_STYLE ('',( #70 ) ) ;
#43 = SURFACE_STYLE_USAGE ( .BOTH. , #69 ) ;
#44 = FILL_AREA_STYLE ('',( #24 ) ) ;
#45 = SURFACE_SIDE_STYLE ('',( #9 ) ) ;
#46 = SURFACE_SIDE_STYLE ('',( #105 ) ) ;
#47 = SURFACE_STYLE_USAGE ( .BOTH. , #46 ) ;
#48 = FILL_AREA_STYLE_COLOUR ( '', #7 ) ;
#49 = CARTESIAN_POINT ( 'NONE',  ( 1.530808498934191600E-016, 0.0000000000000000000, 2.500000000000000000 ) ) ;
#50 = SURFACE_STYLE_USAGE ( .BOTH. , #62 ) ;
#51 = FILL_AREA_STYLE ('',( #48 ) ) ;
#52 =( LENGTH_UNIT ( ) NAMED_UNIT ( * ) SI_UNIT ( .MILLI., .METRE. ) );
#53 =( NAMED_UNIT ( * ) PLANE_ANGLE_UNIT ( ) SI_UNIT ( $, .RADIAN. ) );
#54 = CARTESIAN_POINT ( 'NONE',  ( -4.814824860968089600E-032, 0.0000000000000000000, -4.336808689942017700E-016 ) ) ;
#55 = DIRECTION ( 'NONE',  ( 1.224646799147353200E-016, -0.0000000000000000000, 1.000000000000000000 ) ) ;
#56 = CARTESIAN_POINT ( 'NONE',  ( 0.0000000000000000000, 0.0000000000000000000, 0.0000000000000000000 ) ) ;
#57 = CARTESIAN_POINT ( 'NONE',  ( 0.0000000000000000000, 0.0000000000000000000, 0.0000000000000000000 ) ) ;
#58 = DIRECTION ( 'NONE',  ( -1.224646799147353200E-016, -1.000000000000000000, 1.499759782661857600E-032 ) ) ;
#59 =( NAMED_UNIT ( * ) PLANE_ANGLE_UNIT ( ) SI_UNIT ( $, .RADIAN. ) );
#60 = DIRECTION ( 'NONE',  ( 1.000000000000000000, 0.0000000000000000000, -1.224646799147353200E-016 ) ) ;
#61 = DIRECTION ( 'NONE',  ( 1.000000000000000000, 0.0000000000000000000, -1.224646799147353200E-016 ) ) ;
#62 = SURFACE_SIDE_STYLE ('',( #3 ) ) ;
#63 = CARTESIAN_POINT ( 'NONE',  ( -2.500000000000000000, 0.0000000000000000000, 1.530808498934191600E-016 ) ) ;
#64 = SURFACE_STYLE_USAGE ( .BOTH. , #45 ) ;
#65 =( LENGTH_UNIT ( ) NAMED_UNIT ( * ) SI_UNIT ( .MILLI., .METRE. ) );
#66 = DIRECTION ( 'NONE',  ( -1.000000000000000000, 0.0000000000000000000, 1.224646799147353200E-016 ) ) ;
#67 =( LENGTH_UNIT ( ) NAMED_UNIT ( * ) SI_UNIT ( .MILLI., .METRE. ) );
#68 =( NAMED_UNIT ( * ) PLANE_ANGLE_UNIT ( ) SI_UNIT ( $, .RADIAN. ) );
#69 = SURFACE_SIDE_STYLE ('',( #96 ) ) ;
#70 = FILL_AREA_STYLE_COLOUR ( '', #107 ) ;
#71 =( NAMED_UNIT ( * ) SI_UNIT ( $, .STERADIAN. ) SOLID_ANGLE_UNIT ( ) );
#72 = CARTESIAN_POINT ( 'NONE',  ( 2.500000000000000000, -3.061616997868383100E-016, -7.398425687810400400E-016 ) ) ;
#73 = DIRECTION ( 'NONE',  ( -1.000000000000000000, 0.0000000000000000000, 1.224646799147353200E-016 ) ) ;
#74 = APPLICATION_PROTOCOL_DEFINITION ( 'draft international standard', 'automotive_design', 1998, #88 ) ;
#75 =( NAMED_UNIT ( * ) SI_UNIT ( $, .STERADIAN. ) SOLID_ANGLE_UNIT ( ) );
#76 =( NAMED_UNIT ( * ) PLANE_ANGLE_UNIT ( ) SI_UNIT ( $, .RADIAN. ) );
#77 =( LENGTH_UNIT ( ) NAMED_UNIT ( * ) SI_UNIT ( .MILLI., .METRE. ) );
#78 = DIRECTION ( 'NONE',  ( 1.000000000000000000, 0.0000000000000000000, -1.224646799147353200E-016 ) ) ;
#79 = DIRECTION ( 'NONE',  ( 0.0000000000000000000, 1.000000000000000000, 0.0000000000000000000 ) ) ;
#80 = CARTESIAN_POINT ( 'NONE',  ( -4.814824860968089600E-032, 0.0000000000000000000, -4.336808689942017700E-016 ) ) ;
#81 = DIRECTION ( 'NONE',  ( 1.224646799147353200E-016, -0.0000000000000000000, 1.000000000000000000 ) ) ;
#82 = DIRECTION ( 'NONE',  ( 0.0000000000000000000, -1.000000000000000000, 0.0000000000000000000 ) ) ;
#83 = APPLICATION_PROTOCOL_DEFINITION ( 'draft international standard', 'automotive_design', 1998, #84 ) ;
#84 = APPLICATION_CONTEXT ( 'automotive_design' ) ;
#85 = PRODUCT_CONTEXT ( 'NONE', #88, 'mechanical' ) ;
#86 =( NAMED_UNIT ( * ) SI_UNIT ( $, .STERADIAN. ) SOLID_ANGLE_UNIT ( ) );
#87 = FILL_AREA_STYLE ('',( #33 ) ) ;
#88 = APPLICATION_CONTEXT ( 'automotive_design' ) ;
#89 =( LENGTH_UNIT ( ) NAMED_UNIT ( * ) SI_UNIT ( .MILLI., .METRE. ) );
#90 = SURFACE_STYLE_USAGE ( .BOTH. , #91 ) ;
#91 = SURFACE_SIDE_STYLE ('',( #13 ) ) ;
#92 =( NAMED_UNIT ( * ) PLANE_ANGLE_UNIT ( ) SI_UNIT ( $, .RADIAN. ) );
#93 = COLOUR_RGB ( '',1.000000000000000000, 1.000000000000000000, 1.000000000000000000 ) ;
#94 = ORIENTED_EDGE ( 'NONE', *, *, #127, .T. ) ;
#95 = ORIENTED_EDGE ( 'NONE', *, *, #128, .T. ) ;
#96 = SURFACE_STYLE_FILL_AREA ( #42 ) ;
#97 = FACE_OUTER_BOUND ( 'NONE', #103, .T. ) ;
#98 = VERTEX_POINT ( 'NONE', #72 ) ;
#99 = ORIENTED_EDGE ( 'NONE', *, *, #126, .T. ) ;
#100 = ORIENTED_EDGE ( 'NONE', *, *, #129, .F. ) ;
#101 = EDGE_LOOP ( 'NONE', ( #110, #102, #95 ) ) ;
#102 = ORIENTED_EDGE ( 'NONE', *, *, #129, .T. ) ;
#103 = EDGE_LOOP ( 'NONE', ( #99, #94, #113 ) ) ;
#104 = EDGE_LOOP ( 'NONE', ( #116, #100 ) ) ;
#105 = SURFACE_STYLE_FILL_AREA ( #44 ) ;
#106 = SPHERICAL_SURFACE ( 'NONE', #135, 2.500000000000000000 ) ;
#107 = COLOUR_RGB ( '',1.000000000000000000, 1.000000000000000000, 1.000000000000000000 ) ;
#108 = FACE_OUTER_BOUND ( 'NONE', #104, .T. ) ;
#109 = VERTEX_POINT ( 'NONE', #49 ) ;
#110 = ORIENTED_EDGE ( 'NONE', *, *, #127, .F. ) ;
#111 = PRESENTATION_STYLE_ASSIGNMENT (( #43 ) ) ;
#112 = CLOSED_SHELL ( 'NONE', ( #18, #19, #20 ) ) ;
#113 = ORIENTED_EDGE ( 'NONE', *, *, #128, .F. ) ;
#114 = PRESENTATION_STYLE_ASSIGNMENT (( #47 ) ) ;
#115 = VERTEX_POINT ( 'NONE', #39 ) ;
#116 = ORIENTED_EDGE ( 'NONE', *, *, #126, .F. ) ;
#117 = FACE_OUTER_BOUND ( 'NONE', #101, .T. ) ;
#118 = UNCERTAINTY_MEASURE_WITH_UNIT (LENGTH_MEASURE( 1.000000000000000100E-005 ), #67, 'distance_accuracy_value', 'NONE');
#119 = UNCERTAINTY_MEASURE_WITH_UNIT (LENGTH_MEASURE( 1.000000000000000100E-005 ), #38, 'distance_accuracy_value', 'NONE');
#120 = ADVANCED_BREP_SHAPE_REPRESENTATION ( 'PKFESP', ( #122, #158 ), #153 ) ;
#121 = UNCERTAINTY_MEASURE_WITH_UNIT (LENGTH_MEASURE( 1.000000000000000100E-005 ), #77, 'distance_accuracy_value', 'NONE');
#122 = MANIFOLD_SOLID_BREP ( 'Revolve1', #112 ) ;
#123 = UNCERTAINTY_MEASURE_WITH_UNIT (LENGTH_MEASURE( 1.000000000000000100E-005 ), #52, 'distance_accuracy_value', 'NONE');
#124 = UNCERTAINTY_MEASURE_WITH_UNIT (LENGTH_MEASURE( 1.000000000000000100E-005 ), #65, 'distance_accuracy_value', 'NONE');
#125 = UNCERTAINTY_MEASURE_WITH_UNIT (LENGTH_MEASURE( 1.000000000000000100E-005 ), #89, 'distance_accuracy_value', 'NONE');
#126 = EDGE_CURVE ( 'NONE', #115, #98, #11, .T. ) ;
#127 = EDGE_CURVE ( 'NONE', #98, #109, #8, .T. ) ;
#128 = EDGE_CURVE ( 'NONE', #115, #109, #12, .T. ) ;
#129 = EDGE_CURVE ( 'NONE', #98, #115, #6, .T. ) ;
#130 = STYLED_ITEM ( 'NONE', ( #111 ), #18 ) ;
#131 = PRESENTATION_LAYER_ASSIGNMENT (  '', '', ( #130 ) ) ;
#132 = MECHANICAL_DESIGN_GEOMETRIC_PRESENTATION_REPRESENTATION (  '', ( #130 ), #133 ) ;
#133 =( GEOMETRIC_REPRESENTATION_CONTEXT ( 3 ) GLOBAL_UNCERTAINTY_ASSIGNED_CONTEXT ( ( #119 ) ) GLOBAL_UNIT_ASSIGNED_CONTEXT ( ( #38, #59, #86 ) ) REPRESENTATION_CONTEXT ( 'NONE', 'WORKASPACE' ) );
#134 = STYLED_ITEM ( 'NONE', ( #114 ), #19 ) ;
#135 = AXIS2_PLACEMENT_3D ( 'NONE', #37, #82, #73 ) ;
#136 = PRESENTATION_LAYER_ASSIGNMENT (  '', '', ( #134 ) ) ;
#137 = MECHANICAL_DESIGN_GEOMETRIC_PRESENTATION_REPRESENTATION (  '', ( #134 ), #138 ) ;
#138 =( GEOMETRIC_REPRESENTATION_CONTEXT ( 3 ) GLOBAL_UNCERTAINTY_ASSIGNED_CONTEXT ( ( #118 ) ) GLOBAL_UNIT_ASSIGNED_CONTEXT ( ( #67, #68, #34 ) ) REPRESENTATION_CONTEXT ( 'NONE', 'WORKASPACE' ) );
#139 = STYLED_ITEM ( 'NONE', ( #4 ), #20 ) ;
#140 = AXIS2_PLACEMENT_3D ( 'NONE', #63, #29, #60 ) ;
#141 = PRESENTATION_LAYER_ASSIGNMENT (  '', '', ( #139 ) ) ;
#142 = MECHANICAL_DESIGN_GEOMETRIC_PRESENTATION_REPRESENTATION (  '', ( #139 ), #143 ) ;
#143 =( GEOMETRIC_REPRESENTATION_CONTEXT ( 3 ) GLOBAL_UNCERTAINTY_ASSIGNED_CONTEXT ( ( #123 ) ) GLOBAL_UNIT_ASSIGNED_CONTEXT ( ( #52, #53, #35 ) ) REPRESENTATION_CONTEXT ( 'NONE', 'WORKASPACE' ) );
#144 = STYLED_ITEM ( 'NONE', ( #10 ), #122 ) ;
#145 = AXIS2_PLACEMENT_3D ( 'NONE', #36, #41, #66 ) ;
#146 = PRESENTATION_LAYER_ASSIGNMENT (  '', '', ( #144 ) ) ;
#147 = MECHANICAL_DESIGN_GEOMETRIC_PRESENTATION_REPRESENTATION (  '', ( #144 ), #148 ) ;
#148 =( GEOMETRIC_REPRESENTATION_CONTEXT ( 3 ) GLOBAL_UNCERTAINTY_ASSIGNED_CONTEXT ( ( #124 ) ) GLOBAL_UNIT_ASSIGNED_CONTEXT ( ( #65, #22, #23 ) ) REPRESENTATION_CONTEXT ( 'NONE', 'WORKASPACE' ) );
#149 = AXIS2_PLACEMENT_3D ( 'NONE', #54, #55, #61 ) ;
#150 = AXIS2_PLACEMENT_3D ( 'NONE', #57, #58, #32 ) ;
#151 = AXIS2_PLACEMENT_3D ( 'NONE', #56, #79, #25 ) ;
#152 = AXIS2_PLACEMENT_3D ( 'NONE', #80, #81, #78 ) ;
#153 =( GEOMETRIC_REPRESENTATION_CONTEXT ( 3 ) GLOBAL_UNCERTAINTY_ASSIGNED_CONTEXT ( ( #121 ) ) GLOBAL_UNIT_ASSIGNED_CONTEXT ( ( #77, #76, #75 ) ) REPRESENTATION_CONTEXT ( 'NONE', 'WORKASPACE' ) );
#154 = STYLED_ITEM ( 'NONE', ( #15 ), #120 ) ;
#155 = PRESENTATION_LAYER_ASSIGNMENT (  '', '', ( #154 ) ) ;
#156 = MECHANICAL_DESIGN_GEOMETRIC_PRESENTATION_REPRESENTATION (  '', ( #154 ), #157 ) ;
#157 =( GEOMETRIC_REPRESENTATION_CONTEXT ( 3 ) GLOBAL_UNCERTAINTY_ASSIGNED_CONTEXT ( ( #125 ) ) GLOBAL_UNIT_ASSIGNED_CONTEXT ( ( #89, #92, #71 ) ) REPRESENTATION_CONTEXT ( 'NONE', 'WORKASPACE' ) );
#158 = AXIS2_PLACEMENT_3D ( 'NONE', #28, #27, #26 ) ;
#159 = PRODUCT_DEFINITION ( 'UNKNOWN', '', #160, #16 ) ;
#160 = PRODUCT_DEFINITION_FORMATION_WITH_SPECIFIED_SOURCE ( 'ANY', '', #21, .NOT_KNOWN. ) ;
#161 = PRODUCT_RELATED_PRODUCT_CATEGORY ( 'part', '', ( #21 ) ) ;
ENDSEC;
END-ISO-10303-21;
