ISO-10303-21;
HEADER;
FILE_DESCRIPTION (( 'STEP AP203' ),
    '1' );
FILE_NAME ('Web Model 11908_11908.step',
    '2019-04-22T14:59:02',
    ( '' ),
    ( '' ),
    'SwSTEP 2.0',
    'SolidWorks 2018',
    '' );
FILE_SCHEMA (( 'CONFIG_CONTROL_DESIGN' ));
ENDSEC;

DATA;
#1 = PLANE ( 'NONE',  #23 ) ;
#2 = CC_DESIGN_DATE_AND_TIME_ASSIGNMENT ( #9, #163, ( #150 ) ) ;
#3 = LINE ( 'NONE', #119, #7 ) ;
#4 = CC_DESIGN_APPROVAL ( #168, ( #150 ) ) ;
#5 = APPROVAL_STATUS ( 'not_yet_approved' ) ;
#6 = VERTEX_POINT ( 'NONE', #22 ) ;
#7 = VECTOR ( 'NONE', #133, 1000.000000000000000 ) ;
#8 = CC_DESIGN_PERSON_AND_ORGANIZATION_ASSIGNMENT ( #75, #50, ( #27 ) ) ;
#9 = DATE_AND_TIME ( #36, #126 ) ;
#10 = ADVANCED_FACE ( 'NONE', ( #34 ), #157, .T. ) ;
#11 = APPLICATION_CONTEXT ( 'configuration controlled 3d designs of mechanical parts and assemblies' ) ;
#12 = CARTESIAN_POINT ( 'NONE',  ( -25.00000000000000000, 0.0000000000000000000, 0.0000000000000000000 ) ) ;
#13 = ORGANIZATION ( 'UNSPECIFIED', 'UNSPECIFIED', '' ) ;
#14 = AXIS2_PLACEMENT_3D ( 'NONE', #146, #124, #58 ) ;
#15 = CIRCLE ( 'NONE', #134, 25.00000000000000000 ) ;
#16 = CC_DESIGN_PERSON_AND_ORGANIZATION_ASSIGNMENT ( #164, #49, ( #150 ) ) ;
#17 = COORDINATED_UNIVERSAL_TIME_OFFSET ( 5, 0, .BEHIND. ) ;
#18 = APPROVAL_DATE_TIME ( #82, #33 ) ;
#19 =( GEOMETRIC_REPRESENTATION_CONTEXT ( 3 ) GLOBAL_UNCERTAINTY_ASSIGNED_CONTEXT ( ( #80 ) ) GLOBAL_UNIT_ASSIGNED_CONTEXT ( ( #173, #86, #143 ) ) REPRESENTATION_CONTEXT ( 'NONE', 'WORKASPACE' ) );
#20 = ORIENTED_EDGE ( 'NONE', *, *, #102, .T. ) ;
#21 = APPROVAL_PERSON_ORGANIZATION ( #138, #77, #89 ) ;
#22 = CARTESIAN_POINT ( 'NONE',  ( 25.00000000000000000, 3.061616997868383043E-15, 0.0000000000000000000 ) ) ;
#23 = AXIS2_PLACEMENT_3D ( 'NONE', #132, #70, #87 ) ;
#24 = DIRECTION ( 'NONE',  ( -0.0000000000000000000, -0.0000000000000000000, -1.000000000000000000 ) ) ;
#25 = DIRECTION ( 'NONE',  ( -0.0000000000000000000, -0.0000000000000000000, -1.000000000000000000 ) ) ;
#26 = DIRECTION ( 'NONE',  ( -1.000000000000000000, 0.0000000000000000000, 0.0000000000000000000 ) ) ;
#27 = PRODUCT_DEFINITION_FORMATION_WITH_SPECIFIED_SOURCE ( 'ANY', '', #108, .NOT_KNOWN. ) ;
#28 = COORDINATED_UNIVERSAL_TIME_OFFSET ( 5, 0, .BEHIND. ) ;
#29 = DIRECTION ( 'NONE',  ( 0.0000000000000000000, 0.0000000000000000000, 1.000000000000000000 ) ) ;
#30 = PERSON_AND_ORGANIZATION ( #78, #13 ) ;
#31 = ORIENTED_EDGE ( 'NONE', *, *, #114, .T. ) ;
#32 = APPLICATION_PROTOCOL_DEFINITION ( 'international standard', 'config_control_design', 1994, #53 ) ;
#33 = APPROVAL ( #35, 'UNSPECIFIED' ) ;
#34 = FACE_OUTER_BOUND ( 'NONE', #83, .T. ) ;
#35 = APPROVAL_STATUS ( 'not_yet_approved' ) ;
#36 = CALENDAR_DATE ( 2019, 22, 4 ) ;
#37 = AXIS2_PLACEMENT_3D ( 'NONE', #44, #73, #174 ) ;
#38 = CC_DESIGN_APPROVAL ( #33, ( #27 ) ) ;
#39 = PERSON_AND_ORGANIZATION ( #78, #13 ) ;
#40 = CARTESIAN_POINT ( 'NONE',  ( 0.0000000000000000000, 0.0000000000000000000, 3.000000000000000000 ) ) ;
#41 = SECURITY_CLASSIFICATION ( '', '', #91 ) ;
#42 = PLANE ( 'NONE',  #140 ) ;
#43 = LINE ( 'NONE', #169, #93 ) ;
#44 = CARTESIAN_POINT ( 'NONE',  ( 0.0000000000000000000, 0.0000000000000000000, 0.0000000000000000000 ) ) ;
#45 = CARTESIAN_POINT ( 'NONE',  ( -25.00000000000000000, 0.0000000000000000000, 3.000000000000000000 ) ) ;
#46 = DIRECTION ( 'NONE',  ( 1.000000000000000000, 0.0000000000000000000, 0.0000000000000000000 ) ) ;
#47 = VERTEX_POINT ( 'NONE', #110 ) ;
#48 = EDGE_CURVE ( 'NONE', #6, #121, #116, .T. ) ;
#49 = PERSON_AND_ORGANIZATION_ROLE ( 'creator' ) ;
#50 = PERSON_AND_ORGANIZATION_ROLE ( 'creator' ) ;
#51 = LOCAL_TIME ( 10, 59, 2.000000000000000000, #85 ) ;
#52 = EDGE_LOOP ( 'NONE', ( #135, #131 ) ) ;
#53 = APPLICATION_CONTEXT ( 'configuration controlled 3d designs of mechanical parts and assemblies' ) ;
#54 = CLOSED_SHELL ( 'NONE', ( #99, #10, #170, #155 ) ) ;
#55 = DIRECTION ( 'NONE',  ( -0.0000000000000000000, -0.0000000000000000000, -1.000000000000000000 ) ) ;
#56 = CIRCLE ( 'NONE', #141, 25.00000000000000000 ) ;
#57 = CC_DESIGN_DATE_AND_TIME_ASSIGNMENT ( #105, #125, ( #41 ) ) ;
#58 = DIRECTION ( 'NONE',  ( 1.000000000000000000, 0.0000000000000000000, 0.0000000000000000000 ) ) ;
#59 = FACE_OUTER_BOUND ( 'NONE', #52, .T. ) ;
#60 = DIRECTION ( 'NONE',  ( 1.000000000000000000, 0.0000000000000000000, 0.0000000000000000000 ) ) ;
#61 = APPROVAL_ROLE ( '' ) ;
#62 = ORIENTED_EDGE ( 'NONE', *, *, #128, .T. ) ;
#63 = ORIENTED_EDGE ( 'NONE', *, *, #48, .T. ) ;
#64 = CALENDAR_DATE ( 2019, 22, 4 ) ;
#65 = EDGE_LOOP ( 'NONE', ( #139, #31, #63, #144 ) ) ;
#66 = EDGE_CURVE ( 'NONE', #107, #121, #43, .T. ) ;
#67 = DATE_AND_TIME ( #106, #153 ) ;
#68 = EDGE_LOOP ( 'NONE', ( #109, #20 ) ) ;
#69 = CC_DESIGN_APPROVAL ( #77, ( #41 ) ) ;
#70 = DIRECTION ( 'NONE',  ( 0.0000000000000000000, 0.0000000000000000000, 1.000000000000000000 ) ) ;
#71 = CC_DESIGN_PERSON_AND_ORGANIZATION_ASSIGNMENT ( #30, #137, ( #27 ) ) ;
#72 = APPLICATION_PROTOCOL_DEFINITION ( 'international standard', 'config_control_design', 1994, #11 ) ;
#73 = DIRECTION ( 'NONE',  ( 0.0000000000000000000, 0.0000000000000000000, 1.000000000000000000 ) ) ;
#74 = DIRECTION ( 'NONE',  ( 1.000000000000000000, 0.0000000000000000000, 0.0000000000000000000 ) ) ;
#75 = PERSON_AND_ORGANIZATION ( #78, #13 ) ;
#76 = DESIGN_CONTEXT ( 'detailed design', #53, 'design' ) ;
#77 = APPROVAL ( #5, 'UNSPECIFIED' ) ;
#78 = PERSON ( 'UNSPECIFIED', 'UNSPECIFIED', 'UNSPECIFIED', ('UNSPECIFIED'), ('UNSPECIFIED'), ('UNSPECIFIED') ) ;
#79 = AXIS2_PLACEMENT_3D ( 'NONE', #40, #55, #156 ) ;
#80 = UNCERTAINTY_MEASURE_WITH_UNIT (LENGTH_MEASURE( 1.000000000000000082E-05 ), #173, 'distance_accuracy_value', 'NONE');
#81 = CC_DESIGN_PERSON_AND_ORGANIZATION_ASSIGNMENT ( #115, #136, ( #41 ) ) ;
#82 = DATE_AND_TIME ( #100, #148 ) ;
#83 = EDGE_LOOP ( 'NONE', ( #123, #98, #167, #62 ) ) ;
#84 = CC_DESIGN_PERSON_AND_ORGANIZATION_ASSIGNMENT ( #160, #151, ( #108 ) ) ;
#85 = COORDINATED_UNIVERSAL_TIME_OFFSET ( 5, 0, .BEHIND. ) ;
#86 =( NAMED_UNIT ( * ) PLANE_ANGLE_UNIT ( ) SI_UNIT ( $, .RADIAN. ) );
#87 = DIRECTION ( 'NONE',  ( 1.000000000000000000, 0.0000000000000000000, -0.0000000000000000000 ) ) ;
#88 = APPROVAL_STATUS ( 'not_yet_approved' ) ;
#89 = APPROVAL_ROLE ( '' ) ;
#90 = PERSON_AND_ORGANIZATION ( #78, #13 ) ;
#91 = SECURITY_CLASSIFICATION_LEVEL ( 'unclassified' ) ;
#92 = FACE_OUTER_BOUND ( 'NONE', #65, .T. ) ;
#93 = VECTOR ( 'NONE', #24, 1000.000000000000000 ) ;
#94 = DATE_AND_TIME ( #64, #129 ) ;
#95 = PRODUCT_DEFINITION_SHAPE ( 'NONE', 'NONE',  #150 ) ;
#96 = APPROVAL_PERSON_ORGANIZATION ( #39, #168, #61 ) ;
#97 = CARTESIAN_POINT ( 'NONE',  ( 0.0000000000000000000, 0.0000000000000000000, 3.000000000000000000 ) ) ;
#98 = ORIENTED_EDGE ( 'NONE', *, *, #103, .F. ) ;
#99 = ADVANCED_FACE ( 'NONE', ( #92 ), #142, .T. ) ;
#100 = CALENDAR_DATE ( 2019, 22, 4 ) ;
#101 = DIRECTION ( 'NONE',  ( 0.0000000000000000000, 0.0000000000000000000, 1.000000000000000000 ) ) ;
#102 = EDGE_CURVE ( 'NONE', #47, #107, #15, .T. ) ;
#103 = EDGE_CURVE ( 'NONE', #107, #47, #56, .T. ) ;
#104 = CC_DESIGN_SECURITY_CLASSIFICATION ( #41, ( #27 ) ) ;
#105 = DATE_AND_TIME ( #172, #51 ) ;
#106 = CALENDAR_DATE ( 2019, 22, 4 ) ;
#107 = VERTEX_POINT ( 'NONE', #45 ) ;
#108 = PRODUCT ( 'Web Model 11908_11908', 'Web Model 11908_11908', '', ( #159 ) ) ;
#109 = ORIENTED_EDGE ( 'NONE', *, *, #103, .T. ) ;
#110 = CARTESIAN_POINT ( 'NONE',  ( 25.00000000000000000, 3.061616997868383043E-15, 3.000000000000000000 ) ) ;
#111 = CARTESIAN_POINT ( 'NONE',  ( 0.0000000000000000000, 0.0000000000000000000, 0.0000000000000000000 ) ) ;
#112 = ADVANCED_BREP_SHAPE_REPRESENTATION ( 'Web Model 11908_11908', ( #117, #37 ), #19 ) ;
#113 = APPROVAL_PERSON_ORGANIZATION ( #90, #33, #162 ) ;
#114 = EDGE_CURVE ( 'NONE', #47, #6, #3, .T. ) ;
#115 = PERSON_AND_ORGANIZATION ( #78, #13 ) ;
#116 = CIRCLE ( 'NONE', #14, 25.00000000000000000 ) ;
#117 = MANIFOLD_SOLID_BREP ( '34601-1-solid1', #54 ) ;
#118 = FACE_OUTER_BOUND ( 'NONE', #68, .T. ) ;
#119 = CARTESIAN_POINT ( 'NONE',  ( 25.00000000000000000, 3.061616997868383043E-15, 3.000000000000000000 ) ) ;
#120 = DIRECTION ( 'NONE',  ( 1.000000000000000000, 0.0000000000000000000, -0.0000000000000000000 ) ) ;
#121 = VERTEX_POINT ( 'NONE', #12 ) ;
#122 = COORDINATED_UNIVERSAL_TIME_OFFSET ( 5, 0, .BEHIND. ) ;
#123 = ORIENTED_EDGE ( 'NONE', *, *, #114, .F. ) ;
#124 = DIRECTION ( 'NONE',  ( 0.0000000000000000000, 0.0000000000000000000, 1.000000000000000000 ) ) ;
#125 = DATE_TIME_ROLE ( 'classification_date' ) ;
#126 = LOCAL_TIME ( 10, 59, 2.000000000000000000, #127 ) ;
#127 = COORDINATED_UNIVERSAL_TIME_OFFSET ( 5, 0, .BEHIND. ) ;
#128 = EDGE_CURVE ( 'NONE', #121, #6, #147, .T. ) ;
#129 = LOCAL_TIME ( 10, 59, 2.000000000000000000, #28 ) ;
#130 = DIRECTION ( 'NONE',  ( 0.0000000000000000000, 0.0000000000000000000, 1.000000000000000000 ) ) ;
#131 = ORIENTED_EDGE ( 'NONE', *, *, #48, .F. ) ;
#132 = CARTESIAN_POINT ( 'NONE',  ( 0.0000000000000000000, 0.0000000000000000000, 0.0000000000000000000 ) ) ;
#133 = DIRECTION ( 'NONE',  ( -0.0000000000000000000, -0.0000000000000000000, -1.000000000000000000 ) ) ;
#134 = AXIS2_PLACEMENT_3D ( 'NONE', #158, #29, #46 ) ;
#135 = ORIENTED_EDGE ( 'NONE', *, *, #128, .F. ) ;
#136 = PERSON_AND_ORGANIZATION_ROLE ( 'classification_officer' ) ;
#137 = PERSON_AND_ORGANIZATION_ROLE ( 'design_supplier' ) ;
#138 = PERSON_AND_ORGANIZATION ( #78, #13 ) ;
#139 = ORIENTED_EDGE ( 'NONE', *, *, #102, .F. ) ;
#140 = AXIS2_PLACEMENT_3D ( 'NONE', #171, #130, #120 ) ;
#141 = AXIS2_PLACEMENT_3D ( 'NONE', #161, #101, #60 ) ;
#142 = CYLINDRICAL_SURFACE ( 'NONE', #175, 25.00000000000000000 ) ;
#143 =( NAMED_UNIT ( * ) SI_UNIT ( $, .STERADIAN. ) SOLID_ANGLE_UNIT ( ) );
#144 = ORIENTED_EDGE ( 'NONE', *, *, #66, .F. ) ;
#145 = DIRECTION ( 'NONE',  ( 0.0000000000000000000, 0.0000000000000000000, 1.000000000000000000 ) ) ;
#146 = CARTESIAN_POINT ( 'NONE',  ( 0.0000000000000000000, 0.0000000000000000000, 0.0000000000000000000 ) ) ;
#147 = CIRCLE ( 'NONE', #165, 25.00000000000000000 ) ;
#148 = LOCAL_TIME ( 10, 59, 2.000000000000000000, #122 ) ;
#149 = SHAPE_DEFINITION_REPRESENTATION ( #95, #112 ) ;
#150 = PRODUCT_DEFINITION ( 'UNKNOWN', '', #27, #76 ) ;
#151 = PERSON_AND_ORGANIZATION_ROLE ( 'design_owner' ) ;
#152 = PRODUCT_RELATED_PRODUCT_CATEGORY ( 'detail', '', ( #108 ) ) ;
#153 = LOCAL_TIME ( 10, 59, 2.000000000000000000, #17 ) ;
#154 = APPROVAL_DATE_TIME ( #94, #168 ) ;
#155 = ADVANCED_FACE ( 'NONE', ( #59 ), #1, .F. ) ;
#156 = DIRECTION ( 'NONE',  ( -1.000000000000000000, 0.0000000000000000000, 0.0000000000000000000 ) ) ;
#157 = CYLINDRICAL_SURFACE ( 'NONE', #79, 25.00000000000000000 ) ;
#158 = CARTESIAN_POINT ( 'NONE',  ( 0.0000000000000000000, 0.0000000000000000000, 3.000000000000000000 ) ) ;
#159 = MECHANICAL_CONTEXT ( 'NONE', #11, 'mechanical' ) ;
#160 = PERSON_AND_ORGANIZATION ( #78, #13 ) ;
#161 = CARTESIAN_POINT ( 'NONE',  ( 0.0000000000000000000, 0.0000000000000000000, 3.000000000000000000 ) ) ;
#162 = APPROVAL_ROLE ( '' ) ;
#163 = DATE_TIME_ROLE ( 'creation_date' ) ;
#164 = PERSON_AND_ORGANIZATION ( #78, #13 ) ;
#165 = AXIS2_PLACEMENT_3D ( 'NONE', #111, #145, #74 ) ;
#166 = APPROVAL_DATE_TIME ( #67, #77 ) ;
#167 = ORIENTED_EDGE ( 'NONE', *, *, #66, .T. ) ;
#168 = APPROVAL ( #88, 'UNSPECIFIED' ) ;
#169 = CARTESIAN_POINT ( 'NONE',  ( -25.00000000000000000, 0.0000000000000000000, 3.000000000000000000 ) ) ;
#170 = ADVANCED_FACE ( 'NONE', ( #118 ), #42, .T. ) ;
#171 = CARTESIAN_POINT ( 'NONE',  ( 0.0000000000000000000, 0.0000000000000000000, 3.000000000000000000 ) ) ;
#172 = CALENDAR_DATE ( 2019, 22, 4 ) ;
#173 =( LENGTH_UNIT ( ) NAMED_UNIT ( * ) SI_UNIT ( .MILLI., .METRE. ) );
#174 = DIRECTION ( 'NONE',  ( 1.000000000000000000, 0.0000000000000000000, 0.0000000000000000000 ) ) ;
#175 = AXIS2_PLACEMENT_3D ( 'NONE', #97, #25, #26 ) ;
ENDSEC;
END-ISO-10303-21;
