ISO-10303-21;
HEADER;
FILE_DESCRIPTION (( 'STEP AP203' ),
    '1' );
FILE_NAME ('Web Model 68807_68817.step',
    '2017-03-06T17:53:40',
    ( '' ),
    ( '' ),
    'SwSTEP 2.0',
    'SolidWorks 2016',
    '' );
FILE_SCHEMA (( 'CONFIG_CONTROL_DESIGN' ));
ENDSEC;

DATA;
#1 = LOCAL_TIME ( 12, 53, 40.00000000000000000, #63 ) ;
#2 = CC_DESIGN_SECURITY_CLASSIFICATION ( #28, ( #48 ) ) ;
#3 = PERSON_AND_ORGANIZATION ( #170, #85 ) ;
#4 = ADVANCED_FACE ( 'NONE', ( #171 ), #114, .T. ) ;
#5 = CARTESIAN_POINT ( 'NONE',  ( 0.0000000000000000000, 0.0000000000000000000, 2.500000000000000000 ) ) ;
#6 = PERSON_AND_ORGANIZATION_ROLE ( 'design_owner' ) ;
#7 = PERSON_AND_ORGANIZATION ( #170, #85 ) ;
#8 = ORIENTED_EDGE ( 'NONE', *, *, #153, .T. ) ;
#9 = CC_DESIGN_APPROVAL ( #13, ( #28 ) ) ;
#10 = CARTESIAN_POINT ( 'NONE',  ( -12.50000000000000000, 0.0000000000000000000, 2.500000000000000000 ) ) ;
#11 = APPROVAL_DATE_TIME ( #15, #46 ) ;
#12 = EDGE_LOOP ( 'NONE', ( #99, #93 ) ) ;
#13 = APPROVAL ( #163, 'UNSPECIFIED' ) ;
#14 = DIRECTION ( 'NONE',  ( 0.0000000000000000000, 0.0000000000000000000, 1.000000000000000000 ) ) ;
#15 = DATE_AND_TIME ( #16, #17 ) ;
#16 = CALENDAR_DATE ( 2017, 6, 3 ) ;
#17 = LOCAL_TIME ( 12, 53, 40.00000000000000000, #18 ) ;
#18 = COORDINATED_UNIVERSAL_TIME_OFFSET ( 5, 0, .BEHIND. ) ;
#19 = CC_DESIGN_DATE_AND_TIME_ASSIGNMENT ( #103, #151, ( #28 ) ) ;
#20 = APPLICATION_CONTEXT ( 'configuration controlled 3d designs of mechanical parts and assemblies' ) ;
#21 = DIRECTION ( 'NONE',  ( 0.0000000000000000000, 0.0000000000000000000, 1.000000000000000000 ) ) ;
#22 = PLANE ( 'NONE',  #92 ) ;
#23 = CC_DESIGN_PERSON_AND_ORGANIZATION_ASSIGNMENT ( #127, #150, ( #28 ) ) ;
#24 = ADVANCED_BREP_SHAPE_REPRESENTATION ( 'Web Model 68807_68817', ( #172, #52 ), #149 ) ;
#25 = ORIENTED_EDGE ( 'NONE', *, *, #159, .T. ) ;
#26 = CARTESIAN_POINT ( 'NONE',  ( 12.50000000000000000, 1.530808498934191500E-015, 2.500000000000000000 ) ) ;
#27 = CALENDAR_DATE ( 2017, 6, 3 ) ;
#28 = SECURITY_CLASSIFICATION ( '', '', #148 ) ;
#29 = LOCAL_TIME ( 12, 53, 40.00000000000000000, #33 ) ;
#30 = DIRECTION ( 'NONE',  ( -1.000000000000000000, 0.0000000000000000000, 0.0000000000000000000 ) ) ;
#31 = DIRECTION ( 'NONE',  ( -0.0000000000000000000, -0.0000000000000000000, -1.000000000000000000 ) ) ;
#32 = CC_DESIGN_PERSON_AND_ORGANIZATION_ASSIGNMENT ( #3, #147, ( #48 ) ) ;
#33 = COORDINATED_UNIVERSAL_TIME_OFFSET ( 5, 0, .BEHIND. ) ;
#34 = CARTESIAN_POINT ( 'NONE',  ( 0.0000000000000000000, 0.0000000000000000000, -2.500000000000000000 ) ) ;
#35 = CARTESIAN_POINT ( 'NONE',  ( 0.0000000000000000000, 0.0000000000000000000, 2.500000000000000000 ) ) ;
#36 = APPLICATION_CONTEXT ( 'configuration controlled 3d designs of mechanical parts and assemblies' ) ;
#37 = PERSON_AND_ORGANIZATION ( #170, #85 ) ;
#38 = APPROVAL_DATE_TIME ( #40, #53 ) ;
#39 = CC_DESIGN_PERSON_AND_ORGANIZATION_ASSIGNMENT ( #7, #136, ( #48 ) ) ;
#40 = DATE_AND_TIME ( #54, #50 ) ;
#41 = CARTESIAN_POINT ( 'NONE',  ( 12.50000000000000000, 1.530808498934191500E-015, 2.500000000000000000 ) ) ;
#42 = CC_DESIGN_APPROVAL ( #46, ( #48 ) ) ;
#43 = APPROVAL_ROLE ( '' ) ;
#44 = ORIENTED_EDGE ( 'NONE', *, *, #167, .T. ) ;
#45 = DIRECTION ( 'NONE',  ( -0.0000000000000000000, -0.0000000000000000000, -1.000000000000000000 ) ) ;
#46 = APPROVAL ( #143, 'UNSPECIFIED' ) ;
#47 = CALENDAR_DATE ( 2017, 6, 3 ) ;
#48 = PRODUCT_DEFINITION_FORMATION_WITH_SPECIFIED_SOURCE ( 'ANY', '', #71, .NOT_KNOWN. ) ;
#49 = CARTESIAN_POINT ( 'NONE',  ( 0.0000000000000000000, 0.0000000000000000000, -2.500000000000000000 ) ) ;
#50 = LOCAL_TIME ( 12, 53, 40.00000000000000000, #78 ) ;
#51 = CALENDAR_DATE ( 2017, 6, 3 ) ;
#52 = AXIS2_PLACEMENT_3D ( 'NONE', #105, #96, #65 ) ;
#53 = APPROVAL ( #131, 'UNSPECIFIED' ) ;
#54 = CALENDAR_DATE ( 2017, 6, 3 ) ;
#55 = DIRECTION ( 'NONE',  ( 1.000000000000000000, 0.0000000000000000000, -0.0000000000000000000 ) ) ;
#56 = DATE_TIME_ROLE ( 'creation_date' ) ;
#57 = CC_DESIGN_PERSON_AND_ORGANIZATION_ASSIGNMENT ( #37, #135, ( #74 ) ) ;
#58 = PLANE ( 'NONE',  #128 ) ;
#59 = CYLINDRICAL_SURFACE ( 'NONE', #125, 12.50000000000000000 ) ;
#60 = CARTESIAN_POINT ( 'NONE',  ( 0.0000000000000000000, 0.0000000000000000000, 2.500000000000000000 ) ) ;
#61 = CARTESIAN_POINT ( 'NONE',  ( -12.50000000000000000, 0.0000000000000000000, 2.500000000000000000 ) ) ;
#62 = CC_DESIGN_APPROVAL ( #53, ( #74 ) ) ;
#63 = COORDINATED_UNIVERSAL_TIME_OFFSET ( 5, 0, .BEHIND. ) ;
#64 = ADVANCED_FACE ( 'NONE', ( #162 ), #59, .T. ) ;
#65 = DIRECTION ( 'NONE',  ( 1.000000000000000000, 0.0000000000000000000, 0.0000000000000000000 ) ) ;
#66 = DIRECTION ( 'NONE',  ( 1.000000000000000000, 0.0000000000000000000, 0.0000000000000000000 ) ) ;
#67 = CC_DESIGN_PERSON_AND_ORGANIZATION_ASSIGNMENT ( #118, #6, ( #71 ) ) ;
#68 = CC_DESIGN_DATE_AND_TIME_ASSIGNMENT ( #115, #56, ( #74 ) ) ;
#69 = VECTOR ( 'NONE', #110, 1000.000000000000000 ) ;
#70 = VERTEX_POINT ( 'NONE', #88 ) ;
#71 = PRODUCT ( 'Web Model 68807_68817', 'Web Model 68807_68817', '', ( #141 ) ) ;
#72 =( LENGTH_UNIT ( ) NAMED_UNIT ( * ) SI_UNIT ( .MILLI., .METRE. ) );
#73 = FACE_OUTER_BOUND ( 'NONE', #12, .T. ) ;
#74 = PRODUCT_DEFINITION ( 'UNKNOWN', '', #48, #112 ) ;
#75 = EDGE_LOOP ( 'NONE', ( #86, #156, #124, #44 ) ) ;
#76 = SHAPE_DEFINITION_REPRESENTATION ( #102, #24 ) ;
#77 = COORDINATED_UNIVERSAL_TIME_OFFSET ( 5, 0, .BEHIND. ) ;
#78 = COORDINATED_UNIVERSAL_TIME_OFFSET ( 5, 0, .BEHIND. ) ;
#79 = CIRCLE ( 'NONE', #120, 12.50000000000000000 ) ;
#80 = ORIENTED_EDGE ( 'NONE', *, *, #164, .F. ) ;
#81 =( NAMED_UNIT ( * ) PLANE_ANGLE_UNIT ( ) SI_UNIT ( $, .RADIAN. ) );
#82 = APPROVAL_PERSON_ORGANIZATION ( #117, #53, #43 ) ;
#83 = PERSON_AND_ORGANIZATION ( #170, #85 ) ;
#84 = DIRECTION ( 'NONE',  ( 0.0000000000000000000, 0.0000000000000000000, 1.000000000000000000 ) ) ;
#85 = ORGANIZATION ( 'UNSPECIFIED', 'UNSPECIFIED', '' ) ;
#86 = ORIENTED_EDGE ( 'NONE', *, *, #137, .F. ) ;
#87 = AXIS2_PLACEMENT_3D ( 'NONE', #100, #119, #109 ) ;
#88 = CARTESIAN_POINT ( 'NONE',  ( -12.50000000000000000, 0.0000000000000000000, -2.500000000000000000 ) ) ;
#89 = UNCERTAINTY_MEASURE_WITH_UNIT (LENGTH_MEASURE( 1.000000000000000100E-005 ), #72, 'distance_accuracy_value', 'NONE');
#90 = DIRECTION ( 'NONE',  ( 1.000000000000000000, 0.0000000000000000000, -0.0000000000000000000 ) ) ;
#91 = FACE_OUTER_BOUND ( 'NONE', #160, .T. ) ;
#92 = AXIS2_PLACEMENT_3D ( 'NONE', #49, #14, #90 ) ;
#93 = ORIENTED_EDGE ( 'NONE', *, *, #159, .F. ) ;
#94 = APPLICATION_PROTOCOL_DEFINITION ( 'international standard', 'config_control_design', 1994, #20 ) ;
#95 = AXIS2_PLACEMENT_3D ( 'NONE', #123, #145, #66 ) ;
#96 = DIRECTION ( 'NONE',  ( 0.0000000000000000000, 0.0000000000000000000, 1.000000000000000000 ) ) ;
#97 = VERTEX_POINT ( 'NONE', #104 ) ;
#98 = APPROVAL_PERSON_ORGANIZATION ( #83, #13, #173 ) ;
#99 = ORIENTED_EDGE ( 'NONE', *, *, #167, .F. ) ;
#100 = CARTESIAN_POINT ( 'NONE',  ( 0.0000000000000000000, 0.0000000000000000000, 2.500000000000000000 ) ) ;
#101 = APPLICATION_PROTOCOL_DEFINITION ( 'international standard', 'config_control_design', 1994, #36 ) ;
#102 = PRODUCT_DEFINITION_SHAPE ( 'NONE', 'NONE',  #74 ) ;
#103 = DATE_AND_TIME ( #47, #158 ) ;
#104 = CARTESIAN_POINT ( 'NONE',  ( 12.50000000000000000, 1.530808498934191500E-015, -2.500000000000000000 ) ) ;
#105 = CARTESIAN_POINT ( 'NONE',  ( 0.0000000000000000000, 0.0000000000000000000, 0.0000000000000000000 ) ) ;
#106 = CARTESIAN_POINT ( 'NONE',  ( 0.0000000000000000000, 0.0000000000000000000, 2.500000000000000000 ) ) ;
#107 = VECTOR ( 'NONE', #31, 1000.000000000000000 ) ;
#108 =( NAMED_UNIT ( * ) SI_UNIT ( $, .STERADIAN. ) SOLID_ANGLE_UNIT ( ) );
#109 = DIRECTION ( 'NONE',  ( 1.000000000000000000, 0.0000000000000000000, 0.0000000000000000000 ) ) ;
#110 = DIRECTION ( 'NONE',  ( -0.0000000000000000000, -0.0000000000000000000, -1.000000000000000000 ) ) ;
#111 = CIRCLE ( 'NONE', #95, 12.50000000000000000 ) ;
#112 = DESIGN_CONTEXT ( 'detailed design', #36, 'design' ) ;
#113 = ADVANCED_FACE ( 'NONE', ( #73 ), #22, .F. ) ;
#114 = CYLINDRICAL_SURFACE ( 'NONE', #134, 12.50000000000000000 ) ;
#115 = DATE_AND_TIME ( #27, #29 ) ;
#116 = LINE ( 'NONE', #26, #107 ) ;
#117 = PERSON_AND_ORGANIZATION ( #170, #85 ) ;
#118 = PERSON_AND_ORGANIZATION ( #170, #85 ) ;
#119 = DIRECTION ( 'NONE',  ( 0.0000000000000000000, 0.0000000000000000000, 1.000000000000000000 ) ) ;
#120 = AXIS2_PLACEMENT_3D ( 'NONE', #34, #21, #157 ) ;
#121 = DIRECTION ( 'NONE',  ( -0.0000000000000000000, -0.0000000000000000000, -1.000000000000000000 ) ) ;
#122 = APPROVAL_ROLE ( '' ) ;
#123 = CARTESIAN_POINT ( 'NONE',  ( 0.0000000000000000000, 0.0000000000000000000, -2.500000000000000000 ) ) ;
#124 = ORIENTED_EDGE ( 'NONE', *, *, #144, .T. ) ;
#125 = AXIS2_PLACEMENT_3D ( 'NONE', #5, #121, #165 ) ;
#126 = CIRCLE ( 'NONE', #87, 12.50000000000000000 ) ;
#127 = PERSON_AND_ORGANIZATION ( #170, #85 ) ;
#128 = AXIS2_PLACEMENT_3D ( 'NONE', #106, #130, #55 ) ;
#129 = VERTEX_POINT ( 'NONE', #61 ) ;
#130 = DIRECTION ( 'NONE',  ( 0.0000000000000000000, 0.0000000000000000000, 1.000000000000000000 ) ) ;
#131 = APPROVAL_STATUS ( 'not_yet_approved' ) ;
#132 = LINE ( 'NONE', #10, #69 ) ;
#133 = APPROVAL_DATE_TIME ( #152, #13 ) ;
#134 = AXIS2_PLACEMENT_3D ( 'NONE', #35, #45, #30 ) ;
#135 = PERSON_AND_ORGANIZATION_ROLE ( 'creator' ) ;
#136 = PERSON_AND_ORGANIZATION_ROLE ( 'creator' ) ;
#137 = EDGE_CURVE ( 'NONE', #138, #97, #116, .T. ) ;
#138 = VERTEX_POINT ( 'NONE', #41 ) ;
#139 = PRODUCT_RELATED_PRODUCT_CATEGORY ( 'detail', '', ( #71 ) ) ;
#140 = PERSON_AND_ORGANIZATION ( #170, #85 ) ;
#141 = MECHANICAL_CONTEXT ( 'NONE', #20, 'mechanical' ) ;
#142 = CIRCLE ( 'NONE', #175, 12.50000000000000000 ) ;
#143 = APPROVAL_STATUS ( 'not_yet_approved' ) ;
#144 = EDGE_CURVE ( 'NONE', #129, #70, #132, .T. ) ;
#145 = DIRECTION ( 'NONE',  ( 0.0000000000000000000, 0.0000000000000000000, 1.000000000000000000 ) ) ;
#146 = CLOSED_SHELL ( 'NONE', ( #64, #4, #166, #113 ) ) ;
#147 = PERSON_AND_ORGANIZATION_ROLE ( 'design_supplier' ) ;
#148 = SECURITY_CLASSIFICATION_LEVEL ( 'unclassified' ) ;
#149 =( GEOMETRIC_REPRESENTATION_CONTEXT ( 3 ) GLOBAL_UNCERTAINTY_ASSIGNED_CONTEXT ( ( #89 ) ) GLOBAL_UNIT_ASSIGNED_CONTEXT ( ( #72, #81, #108 ) ) REPRESENTATION_CONTEXT ( 'NONE', 'WORKASPACE' ) );
#150 = PERSON_AND_ORGANIZATION_ROLE ( 'classification_officer' ) ;
#151 = DATE_TIME_ROLE ( 'classification_date' ) ;
#152 = DATE_AND_TIME ( #51, #1 ) ;
#153 = EDGE_CURVE ( 'NONE', #129, #138, #126, .T. ) ;
#154 = APPROVAL_PERSON_ORGANIZATION ( #140, #46, #122 ) ;
#155 = DIRECTION ( 'NONE',  ( 1.000000000000000000, 0.0000000000000000000, 0.0000000000000000000 ) ) ;
#156 = ORIENTED_EDGE ( 'NONE', *, *, #153, .F. ) ;
#157 = DIRECTION ( 'NONE',  ( 1.000000000000000000, 0.0000000000000000000, 0.0000000000000000000 ) ) ;
#158 = LOCAL_TIME ( 12, 53, 40.00000000000000000, #77 ) ;
#159 = EDGE_CURVE ( 'NONE', #97, #70, #111, .T. ) ;
#160 = EDGE_LOOP ( 'NONE', ( #8, #174 ) ) ;
#161 = ORIENTED_EDGE ( 'NONE', *, *, #137, .T. ) ;
#162 = FACE_OUTER_BOUND ( 'NONE', #168, .T. ) ;
#163 = APPROVAL_STATUS ( 'not_yet_approved' ) ;
#164 = EDGE_CURVE ( 'NONE', #138, #129, #142, .T. ) ;
#165 = DIRECTION ( 'NONE',  ( -1.000000000000000000, 0.0000000000000000000, 0.0000000000000000000 ) ) ;
#166 = ADVANCED_FACE ( 'NONE', ( #91 ), #58, .T. ) ;
#167 = EDGE_CURVE ( 'NONE', #70, #97, #79, .T. ) ;
#168 = EDGE_LOOP ( 'NONE', ( #80, #161, #25, #169 ) ) ;
#169 = ORIENTED_EDGE ( 'NONE', *, *, #144, .F. ) ;
#170 = PERSON ( 'UNSPECIFIED', 'UNSPECIFIED', 'UNSPECIFIED', ('UNSPECIFIED'), ('UNSPECIFIED'), ('UNSPECIFIED') ) ;
#171 = FACE_OUTER_BOUND ( 'NONE', #75, .T. ) ;
#172 = MANIFOLD_SOLID_BREP ( 'Boss-Extrude1', #146 ) ;
#173 = APPROVAL_ROLE ( '' ) ;
#174 = ORIENTED_EDGE ( 'NONE', *, *, #164, .T. ) ;
#175 = AXIS2_PLACEMENT_3D ( 'NONE', #60, #84, #155 ) ;
ENDSEC;
END-ISO-10303-21;
