ISO-10303-21;
HEADER;
FILE_DESCRIPTION (( 'STEP AP214' ),
    '1' );
FILE_NAME ('3439-E0W.STEP',
    '2009-12-21T16:59:16',
    ( ' ' ),
    ( ' ' ),
    'SwSTEP 2.0',
    'SolidWorks 2009',
    '' );
FILE_SCHEMA (( 'AUTOMOTIVE_DESIGN' ));
ENDSEC;

DATA;
#1 = CARTESIAN_POINT ( 'NONE',  ( 0.0000000000000000000, 0.0000000000000000000, 77.04063108247682100 ) ) ;
#2 = AXIS2_PLACEMENT_3D ( 'NONE', #1, #9, #8 ) ;
#3 = CIRCLE ( 'NONE', #2, 77.19000000000001200 ) ;
#4 = SURFACE_STYLE_USAGE ( .BOTH. , #5 ) ;
#5 = SURFACE_SIDE_STYLE ('',( #10 ) ) ;
#6 = FILL_AREA_STYLE_COLOUR ( '', #12 ) ;
#7 = CARTESIAN_POINT ( 'NONE',  ( -25.39999999999999900, 3.110500138708838200E-015, 4.149368917523184500 ) ) ;
#8 = DIRECTION ( 'NONE',  ( -1.224606353822377300E-016, -1.000000000000000000, 0.0000000000000000000 ) ) ;
#9 = DIRECTION ( 'NONE',  ( -1.000000000000000000, 1.224606353822377300E-016, 0.0000000000000000000 ) ) ;
#10 = SURFACE_STYLE_FILL_AREA ( #11 ) ;
#11 = FILL_AREA_STYLE ('',( #6 ) ) ;
#12 = COLOUR_RGB ( '',0.9568627450980391500, 0.9490196078431372100, 0.9607843137254902200 ) ;
#13 = FACE_OUTER_BOUND ( 'NONE', #171, .T. ) ;
#14 =( NAMED_UNIT ( * ) SI_UNIT ( $, .STERADIAN. ) SOLID_ANGLE_UNIT ( ) );
#15 = PRESENTATION_LAYER_ASSIGNMENT (  '', '', ( #18 ) ) ;
#16 =( NAMED_UNIT ( * ) PLANE_ANGLE_UNIT ( ) SI_UNIT ( $, .RADIAN. ) );
#17 =( LENGTH_UNIT ( ) NAMED_UNIT ( * ) SI_UNIT ( .MILLI., .METRE. ) );
#18 = STYLED_ITEM ( 'NONE', ( #20 ), #160 ) ;
#19 = MECHANICAL_DESIGN_GEOMETRIC_PRESENTATION_REPRESENTATION (  '', ( #18 ), #24 ) ;
#20 = PRESENTATION_STYLE_ASSIGNMENT (( #4 ) ) ;
#21 = UNCERTAINTY_MEASURE_WITH_UNIT (LENGTH_MEASURE( 1.000000000000000100E-005 ), #17, 'distance_accuracy_value', 'NONE');
#22 = DIRECTION ( 'NONE',  ( 1.000000000000000000, 0.0000000000000000000, 0.0000000000000000000 ) ) ;
#23 = DIRECTION ( 'NONE',  ( -0.0000000000000000000, -0.0000000000000000000, 1.000000000000000000 ) ) ;
#24 =( GEOMETRIC_REPRESENTATION_CONTEXT ( 3 ) GLOBAL_UNCERTAINTY_ASSIGNED_CONTEXT ( ( #21 ) ) GLOBAL_UNIT_ASSIGNED_CONTEXT ( ( #17, #16, #14 ) ) REPRESENTATION_CONTEXT ( 'NONE', 'WORKASPACE' ) );
#25 = AXIS2_PLACEMENT_3D ( 'NONE', #27, #30, #26 ) ;
#26 = DIRECTION ( 'NONE',  ( 1.000000000000000000, 0.0000000000000000000, 0.0000000000000000000 ) ) ;
#27 = CARTESIAN_POINT ( 'NONE',  ( 0.0000000000000000000, 0.0000000000000000000, -4.149368917523184500 ) ) ;
#28 = LINE ( 'NONE', #29, #33 ) ;
#29 = CARTESIAN_POINT ( 'NONE',  ( -25.39999999999999900, 3.110500138708838200E-015, 6.867784352906140200 ) ) ;
#30 = DIRECTION ( 'NONE',  ( -0.0000000000000000000, -0.0000000000000000000, 1.000000000000000000 ) ) ;
#31 = AXIS2_PLACEMENT_3D ( 'NONE', #35, #32, #40 ) ;
#32 = DIRECTION ( 'NONE',  ( -0.0000000000000000000, -0.0000000000000000000, 1.000000000000000000 ) ) ;
#33 = VECTOR ( 'NONE', #34, 1000.000000000000000 ) ;
#34 = DIRECTION ( 'NONE',  ( -0.0000000000000000000, -0.0000000000000000000, 1.000000000000000000 ) ) ;
#35 = CARTESIAN_POINT ( 'NONE',  ( 0.0000000000000000000, 0.0000000000000000000, 4.149368917523184500 ) ) ;
#36 = CARTESIAN_POINT ( 'NONE',  ( 0.0000000000000000000, 0.0000000000000000000, 6.867784352906140200 ) ) ;
#37 = AXIS2_PLACEMENT_3D ( 'NONE', #36, #23, #22 ) ;
#38 = CYLINDRICAL_SURFACE ( 'NONE', #37, 25.39999999999999900 ) ;
#39 = CIRCLE ( 'NONE', #25, 25.39999999999999900 ) ;
#40 = DIRECTION ( 'NONE',  ( 1.000000000000000000, 0.0000000000000000000, 0.0000000000000000000 ) ) ;
#41 = SURFACE_STYLE_USAGE ( .BOTH. , #42 ) ;
#42 = SURFACE_SIDE_STYLE ('',( #52 ) ) ;
#43 = MECHANICAL_DESIGN_GEOMETRIC_PRESENTATION_REPRESENTATION (  '', ( #45 ), #60 ) ;
#44 = PRESENTATION_LAYER_ASSIGNMENT (  '', '', ( #45 ) ) ;
#45 = STYLED_ITEM ( 'NONE', ( #46 ), #176 ) ;
#46 = PRESENTATION_STYLE_ASSIGNMENT (( #41 ) ) ;
#47 =( LENGTH_UNIT ( ) NAMED_UNIT ( * ) SI_UNIT ( .MILLI., .METRE. ) );
#48 = CARTESIAN_POINT ( 'NONE',  ( -25.39999999999999900, 3.110500138708838200E-015, -4.149368917523184500 ) ) ;
#49 = CARTESIAN_POINT ( 'NONE',  ( 25.39999999999999900, 0.0000000000000000000, -4.149368917523184500 ) ) ;
#50 = CIRCLE ( 'NONE', #31, 25.39999999999999900 ) ;
#51 =( NAMED_UNIT ( * ) PLANE_ANGLE_UNIT ( ) SI_UNIT ( $, .RADIAN. ) );
#52 = SURFACE_STYLE_FILL_AREA ( #53 ) ;
#53 = FILL_AREA_STYLE ('',( #54 ) ) ;
#54 = FILL_AREA_STYLE_COLOUR ( '', #55 ) ;
#55 = COLOUR_RGB ( '',0.7960784313725489700, 0.8235294117647058400, 0.9372549019607843100 ) ;
#56 = CARTESIAN_POINT ( 'NONE',  ( -3.110500138708838900E-015, -25.40000000000000600, 4.149368917523176500 ) ) ;
#57 = CARTESIAN_POINT ( 'NONE',  ( 0.0000000000000000000, 4.726368222577465600E-015, -0.1493689175231932600 ) ) ;
#58 = UNCERTAINTY_MEASURE_WITH_UNIT (LENGTH_MEASURE( 1.000000000000000100E-005 ), #47, 'distance_accuracy_value', 'NONE');
#59 =( NAMED_UNIT ( * ) SI_UNIT ( $, .STERADIAN. ) SOLID_ANGLE_UNIT ( ) );
#60 =( GEOMETRIC_REPRESENTATION_CONTEXT ( 3 ) GLOBAL_UNCERTAINTY_ASSIGNED_CONTEXT ( ( #58 ) ) GLOBAL_UNIT_ASSIGNED_CONTEXT ( ( #47, #51, #59 ) ) REPRESENTATION_CONTEXT ( 'NONE', 'WORKASPACE' ) );
#61 =( NAMED_UNIT ( * ) PLANE_ANGLE_UNIT ( ) SI_UNIT ( $, .RADIAN. ) );
#62 = CARTESIAN_POINT ( 'NONE',  ( 25.39999999999999900, 0.0000000000000000000, 6.867784352906140200 ) ) ;
#63 = DIRECTION ( 'NONE',  ( -0.0000000000000000000, -0.0000000000000000000, 1.000000000000000000 ) ) ;
#64 = UNCERTAINTY_MEASURE_WITH_UNIT (LENGTH_MEASURE( 1.000000000000000100E-005 ), #67, 'distance_accuracy_value', 'NONE');
#65 =( NAMED_UNIT ( * ) SI_UNIT ( $, .STERADIAN. ) SOLID_ANGLE_UNIT ( ) );
#66 = PRESENTATION_STYLE_ASSIGNMENT (( #78 ) ) ;
#67 =( LENGTH_UNIT ( ) NAMED_UNIT ( * ) SI_UNIT ( .MILLI., .METRE. ) );
#68 = CARTESIAN_POINT ( 'NONE',  ( 0.0000000000000000000, 25.40000000000000600, 4.149368917523176500 ) ) ;
#69 = DIRECTION ( 'NONE',  ( 0.0000000000000000000, 1.000000000000000000, 0.0000000000000000000 ) ) ;
#70 = MECHANICAL_DESIGN_GEOMETRIC_PRESENTATION_REPRESENTATION (  '', ( #72 ), #110 ) ;
#71 = PRESENTATION_LAYER_ASSIGNMENT (  '', '', ( #72 ) ) ;
#72 = STYLED_ITEM ( 'NONE', ( #73 ), #100 ) ;
#73 = PRESENTATION_STYLE_ASSIGNMENT (( #74 ) ) ;
#74 = SURFACE_STYLE_USAGE ( .BOTH. , #75 ) ;
#75 = SURFACE_SIDE_STYLE ('',( #76 ) ) ;
#76 = SURFACE_STYLE_FILL_AREA ( #77 ) ;
#77 = FILL_AREA_STYLE ('',( #98 ) ) ;
#78 = SURFACE_STYLE_USAGE ( .BOTH. , #102 ) ;
#79 = COLOUR_RGB ( '',0.9568627450980391500, 0.9490196078431372100, 0.9607843137254902200 ) ;
#80 =( GEOMETRIC_REPRESENTATION_CONTEXT ( 3 ) GLOBAL_UNCERTAINTY_ASSIGNED_CONTEXT ( ( #64 ) ) GLOBAL_UNIT_ASSIGNED_CONTEXT ( ( #67, #97, #65 ) ) REPRESENTATION_CONTEXT ( 'NONE', 'WORKASPACE' ) );
#81 = STYLED_ITEM ( 'NONE', ( #66 ), #178 ) ;
#82 = LINE ( 'NONE', #62, #84 ) ;
#83 =( LENGTH_UNIT ( ) NAMED_UNIT ( * ) SI_UNIT ( .MILLI., .METRE. ) );
#84 = VECTOR ( 'NONE', #63, 1000.000000000000000 ) ;
#85 = MECHANICAL_DESIGN_GEOMETRIC_PRESENTATION_REPRESENTATION (  '', ( #81 ), #90 ) ;
#86 = CARTESIAN_POINT ( 'NONE',  ( 0.0000000000000000000, 0.0000000000000000000, 77.04063108247682100 ) ) ;
#87 = AXIS2_PLACEMENT_3D ( 'NONE', #86, #89, #69 ) ;
#88 = FACE_OUTER_BOUND ( 'NONE', #182, .T. ) ;
#89 = DIRECTION ( 'NONE',  ( -1.000000000000000000, 0.0000000000000000000, 0.0000000000000000000 ) ) ;
#90 =( GEOMETRIC_REPRESENTATION_CONTEXT ( 3 ) GLOBAL_UNCERTAINTY_ASSIGNED_CONTEXT ( ( #94 ) ) GLOBAL_UNIT_ASSIGNED_CONTEXT ( ( #83, #61, #93 ) ) REPRESENTATION_CONTEXT ( 'NONE', 'WORKASPACE' ) );
#91 = SPHERICAL_SURFACE ( 'NONE', #87, 77.19000000000001200 ) ;
#92 = CARTESIAN_POINT ( 'NONE',  ( 25.39999999999999900, 0.0000000000000000000, 4.149368917523184500 ) ) ;
#93 =( NAMED_UNIT ( * ) SI_UNIT ( $, .STERADIAN. ) SOLID_ANGLE_UNIT ( ) );
#94 = UNCERTAINTY_MEASURE_WITH_UNIT (LENGTH_MEASURE( 1.000000000000000100E-005 ), #83, 'distance_accuracy_value', 'NONE');
#95 = FILL_AREA_STYLE ('',( #101 ) ) ;
#96 = PRESENTATION_LAYER_ASSIGNMENT (  '', '', ( #81 ) ) ;
#97 =( NAMED_UNIT ( * ) PLANE_ANGLE_UNIT ( ) SI_UNIT ( $, .RADIAN. ) );
#98 = FILL_AREA_STYLE_COLOUR ( '', #99 ) ;
#99 = COLOUR_RGB ( '',0.7960784313725489700, 0.8235294117647058400, 0.9372549019607843100 ) ;
#100 = ADVANCED_BREP_SHAPE_REPRESENTATION ( '3439-E0W', ( #176, #105 ), #80 ) ;
#101 = FILL_AREA_STYLE_COLOUR ( '', #79 ) ;
#102 = SURFACE_SIDE_STYLE ('',( #103 ) ) ;
#103 = SURFACE_STYLE_FILL_AREA ( #95 ) ;
#104 = APPLICATION_CONTEXT ( 'automotive_design' ) ;
#105 = AXIS2_PLACEMENT_3D ( 'NONE', #109, #108, #107 ) ;
#106 = SHAPE_DEFINITION_REPRESENTATION ( #115, #100 ) ;
#107 = DIRECTION ( 'NONE',  ( 1.000000000000000000, 0.0000000000000000000, 0.0000000000000000000 ) ) ;
#108 = DIRECTION ( 'NONE',  ( 0.0000000000000000000, 0.0000000000000000000, 1.000000000000000000 ) ) ;
#109 = CARTESIAN_POINT ( 'NONE',  ( 0.0000000000000000000, 0.0000000000000000000, 0.0000000000000000000 ) ) ;
#110 =( GEOMETRIC_REPRESENTATION_CONTEXT ( 3 ) GLOBAL_UNCERTAINTY_ASSIGNED_CONTEXT ( ( #111 ) ) GLOBAL_UNIT_ASSIGNED_CONTEXT ( ( #114, #113, #112 ) ) REPRESENTATION_CONTEXT ( 'NONE', 'WORKASPACE' ) );
#111 = UNCERTAINTY_MEASURE_WITH_UNIT (LENGTH_MEASURE( 1.000000000000000100E-005 ), #114, 'distance_accuracy_value', 'NONE');
#112 =( NAMED_UNIT ( * ) SI_UNIT ( $, .STERADIAN. ) SOLID_ANGLE_UNIT ( ) );
#113 =( NAMED_UNIT ( * ) PLANE_ANGLE_UNIT ( ) SI_UNIT ( $, .RADIAN. ) );
#114 =( LENGTH_UNIT ( ) NAMED_UNIT ( * ) SI_UNIT ( .MILLI., .METRE. ) );
#115 = PRODUCT_DEFINITION_SHAPE ( 'NONE', 'NONE',  #118 ) ;
#116 = PRODUCT_RELATED_PRODUCT_CATEGORY ( 'part', '', ( #122 ) ) ;
#117 = PRODUCT_DEFINITION_FORMATION_WITH_SPECIFIED_SOURCE ( 'ANY', '', #122, .NOT_KNOWN. ) ;
#118 = PRODUCT_DEFINITION ( 'UNKNOWN', '', #117, #119 ) ;
#119 = PRODUCT_DEFINITION_CONTEXT ( 'detailed design', #121, 'design' ) ;
#120 = APPLICATION_PROTOCOL_DEFINITION ( 'draft international standard', 'automotive_design', 1998, #121 ) ;
#121 = APPLICATION_CONTEXT ( 'automotive_design' ) ;
#122 = PRODUCT ( '3439-E0W', '3439-E0W', '', ( #123 ) ) ;
#123 = PRODUCT_CONTEXT ( 'NONE', #104, 'mechanical' ) ;
#124 = APPLICATION_PROTOCOL_DEFINITION ( 'draft international standard', 'automotive_design', 1998, #104 ) ;
#125 = EDGE_LOOP ( 'NONE', ( #135, #143, #144, #131, #181 ) ) ;
#126 = EDGE_CURVE ( 'NONE', #159, #175, #153, .T. ) ;
#127 = ORIENTED_EDGE ( 'NONE', *, *, #126, .T. ) ;
#128 = EDGE_CURVE ( 'NONE', #161, #168, #233, .T. ) ;
#129 = ADVANCED_FACE ( 'NONE', ( #193 ), #204, .F. ) ;
#130 = ORIENTED_EDGE ( 'NONE', *, *, #145, .T. ) ;
#131 = ORIENTED_EDGE ( 'NONE', *, *, #141, .F. ) ;
#132 = ORIENTED_EDGE ( 'NONE', *, *, #155, .T. ) ;
#133 = ORIENTED_EDGE ( 'NONE', *, *, #141, .T. ) ;
#134 = ORIENTED_EDGE ( 'NONE', *, *, #145, .F. ) ;
#135 = ORIENTED_EDGE ( 'NONE', *, *, #170, .F. ) ;
#136 = ORIENTED_EDGE ( 'NONE', *, *, #150, .T. ) ;
#137 = ORIENTED_EDGE ( 'NONE', *, *, #163, .F. ) ;
#138 = ADVANCED_FACE ( 'NONE', ( #190 ), #218, .F. ) ;
#139 = ORIENTED_EDGE ( 'NONE', *, *, #177, .F. ) ;
#140 = ORIENTED_EDGE ( 'NONE', *, *, #173, .T. ) ;
#141 = EDGE_CURVE ( 'NONE', #175, #179, #212, .T. ) ;
#142 = ORIENTED_EDGE ( 'NONE', *, *, #128, .F. ) ;
#143 = ORIENTED_EDGE ( 'NONE', *, *, #128, .T. ) ;
#144 = ORIENTED_EDGE ( 'NONE', *, *, #177, .T. ) ;
#145 = EDGE_CURVE ( 'NONE', #179, #183, #240, .T. ) ;
#146 = EDGE_LOOP ( 'NONE', ( #148, #136, #140, #127 ) ) ;
#147 = ORIENTED_EDGE ( 'NONE', *, *, #150, .F. ) ;
#148 = ORIENTED_EDGE ( 'NONE', *, *, #155, .F. ) ;
#149 = EDGE_LOOP ( 'NONE', ( #137, #142 ) ) ;
#150 = EDGE_CURVE ( 'NONE', #174, #183, #242, .T. ) ;
#151 =( GEOMETRIC_REPRESENTATION_CONTEXT ( 3 ) GLOBAL_UNCERTAINTY_ASSIGNED_CONTEXT ( ( #245 ) ) GLOBAL_UNIT_ASSIGNED_CONTEXT ( ( #248, #247, #246 ) ) REPRESENTATION_CONTEXT ( 'NONE', 'WORKASPACE' ) );
#152 = ADVANCED_FACE ( 'NONE', ( #244 ), #241, .T. ) ;
#153 = CIRCLE ( 'NONE', #154, 25.39999999999999900 ) ;
#154 = AXIS2_PLACEMENT_3D ( 'NONE', #166, #164, #162 ) ;
#155 = EDGE_CURVE ( 'NONE', #174, #175, #3, .T. ) ;
#156 = DIRECTION ( 'NONE',  ( -0.0000000000000000000, -0.0000000000000000000, 1.000000000000000000 ) ) ;
#157 = CARTESIAN_POINT ( 'NONE',  ( 0.0000000000000000000, 0.0000000000000000000, 6.867784352906140200 ) ) ;
#158 = AXIS2_PLACEMENT_3D ( 'NONE', #157, #156, #165 ) ;
#159 = VERTEX_POINT ( 'NONE', #7 ) ;
#160 = ADVANCED_FACE ( 'NONE', ( #13 ), #38, .T. ) ;
#161 = VERTEX_POINT ( 'NONE', #48 ) ;
#162 = DIRECTION ( 'NONE',  ( 1.000000000000000000, 0.0000000000000000000, 0.0000000000000000000 ) ) ;
#163 = EDGE_CURVE ( 'NONE', #168, #161, #39, .T. ) ;
#164 = DIRECTION ( 'NONE',  ( -0.0000000000000000000, -0.0000000000000000000, 1.000000000000000000 ) ) ;
#165 = DIRECTION ( 'NONE',  ( 1.000000000000000000, 0.0000000000000000000, 0.0000000000000000000 ) ) ;
#166 = CARTESIAN_POINT ( 'NONE',  ( 0.0000000000000000000, 0.0000000000000000000, 4.149368917523184500 ) ) ;
#167 = ORIENTED_EDGE ( 'NONE', *, *, #170, .T. ) ;
#168 = VERTEX_POINT ( 'NONE', #49 ) ;
#169 = ORIENTED_EDGE ( 'NONE', *, *, #173, .F. ) ;
#170 = EDGE_CURVE ( 'NONE', #161, #159, #28, .T. ) ;
#171 = EDGE_LOOP ( 'NONE', ( #172, #167, #169, #134, #139 ) ) ;
#172 = ORIENTED_EDGE ( 'NONE', *, *, #163, .T. ) ;
#173 = EDGE_CURVE ( 'NONE', #183, #159, #50, .T. ) ;
#174 = VERTEX_POINT ( 'NONE', #57 ) ;
#175 = VERTEX_POINT ( 'NONE', #56 ) ;
#176 = MANIFOLD_SOLID_BREP ( 'NONE', #180 ) ;
#177 = EDGE_CURVE ( 'NONE', #168, #179, #82, .T. ) ;
#178 = ADVANCED_FACE ( 'NONE', ( #88 ), #91, .F. ) ;
#179 = VERTEX_POINT ( 'NONE', #92 ) ;
#180 = CLOSED_SHELL ( 'NONE', ( #160, #178, #138, #129, #152 ) ) ;
#181 = ORIENTED_EDGE ( 'NONE', *, *, #126, .F. ) ;
#182 = EDGE_LOOP ( 'NONE', ( #147, #132, #133, #130 ) ) ;
#183 = VERTEX_POINT ( 'NONE', #68 ) ;
#184 = FILL_AREA_STYLE ('',( #203 ) ) ;
#185 = UNCERTAINTY_MEASURE_WITH_UNIT (LENGTH_MEASURE( 1.000000000000000100E-005 ), #196, 'distance_accuracy_value', 'NONE');
#186 = SURFACE_SIDE_STYLE ('',( #225 ) ) ;
#187 = CARTESIAN_POINT ( 'NONE',  ( 0.0000000000000000000, 7.347880794884119700E-016, -4.149368917523184500 ) ) ;
#188 = AXIS2_PLACEMENT_3D ( 'NONE', #187, #208, #207 ) ;
#189 = COLOUR_RGB ( '',0.9568627450980391500, 0.9490196078431372100, 0.9607843137254902200 ) ;
#190 = FACE_OUTER_BOUND ( 'NONE', #146, .T. ) ;
#191 = PRESENTATION_LAYER_ASSIGNMENT (  '', '', ( #223 ) ) ;
#192 = MECHANICAL_DESIGN_GEOMETRIC_PRESENTATION_REPRESENTATION (  '', ( #223 ), #205 ) ;
#193 = FACE_OUTER_BOUND ( 'NONE', #149, .T. ) ;
#194 =( NAMED_UNIT ( * ) SI_UNIT ( $, .STERADIAN. ) SOLID_ANGLE_UNIT ( ) );
#195 = DIRECTION ( 'NONE',  ( 1.000000000000000000, 0.0000000000000000000, 0.0000000000000000000 ) ) ;
#196 =( LENGTH_UNIT ( ) NAMED_UNIT ( * ) SI_UNIT ( .MILLI., .METRE. ) );
#197 = MECHANICAL_DESIGN_GEOMETRIC_PRESENTATION_REPRESENTATION (  '', ( #215 ), #213 ) ;
#198 = DIRECTION ( 'NONE',  ( 1.000000000000000000, 0.0000000000000000000, 0.0000000000000000000 ) ) ;
#199 = DIRECTION ( 'NONE',  ( -0.0000000000000000000, -0.0000000000000000000, 1.000000000000000000 ) ) ;
#200 = CARTESIAN_POINT ( 'NONE',  ( 0.0000000000000000000, 0.0000000000000000000, 4.149368917523184500 ) ) ;
#201 = AXIS2_PLACEMENT_3D ( 'NONE', #200, #199, #198 ) ;
#202 = DIRECTION ( 'NONE',  ( 0.0000000000000000000, 1.000000000000000000, 0.0000000000000000000 ) ) ;
#203 = FILL_AREA_STYLE_COLOUR ( '', #220 ) ;
#204 = PLANE ( 'NONE',  #188 ) ;
#205 =( GEOMETRIC_REPRESENTATION_CONTEXT ( 3 ) GLOBAL_UNCERTAINTY_ASSIGNED_CONTEXT ( ( #185 ) ) GLOBAL_UNIT_ASSIGNED_CONTEXT ( ( #196, #219, #194 ) ) REPRESENTATION_CONTEXT ( 'NONE', 'WORKASPACE' ) );
#206 = AXIS2_PLACEMENT_3D ( 'NONE', #224, #226, #195 ) ;
#207 = DIRECTION ( 'NONE',  ( 1.000000000000000000, 0.0000000000000000000, 0.0000000000000000000 ) ) ;
#208 = DIRECTION ( 'NONE',  ( 0.0000000000000000000, -0.0000000000000000000, 1.000000000000000000 ) ) ;
#209 = UNCERTAINTY_MEASURE_WITH_UNIT (LENGTH_MEASURE( 1.000000000000000100E-005 ), #235, 'distance_accuracy_value', 'NONE');
#210 =( NAMED_UNIT ( * ) SI_UNIT ( $, .STERADIAN. ) SOLID_ANGLE_UNIT ( ) );
#211 = AXIS2_PLACEMENT_3D ( 'NONE', #217, #216, #202 ) ;
#212 = CIRCLE ( 'NONE', #201, 25.39999999999999900 ) ;
#213 =( GEOMETRIC_REPRESENTATION_CONTEXT ( 3 ) GLOBAL_UNCERTAINTY_ASSIGNED_CONTEXT ( ( #209 ) ) GLOBAL_UNIT_ASSIGNED_CONTEXT ( ( #235, #234, #210 ) ) REPRESENTATION_CONTEXT ( 'NONE', 'WORKASPACE' ) );
#214 = PRESENTATION_LAYER_ASSIGNMENT (  '', '', ( #215 ) ) ;
#215 = STYLED_ITEM ( 'NONE', ( #227 ), #138 ) ;
#216 = DIRECTION ( 'NONE',  ( -1.000000000000000000, 0.0000000000000000000, 0.0000000000000000000 ) ) ;
#217 = CARTESIAN_POINT ( 'NONE',  ( 0.0000000000000000000, 0.0000000000000000000, 77.04063108247682100 ) ) ;
#218 = SPHERICAL_SURFACE ( 'NONE', #211, 77.19000000000001200 ) ;
#219 =( NAMED_UNIT ( * ) PLANE_ANGLE_UNIT ( ) SI_UNIT ( $, .RADIAN. ) );
#220 = COLOUR_RGB ( '',0.9568627450980391500, 0.9490196078431372100, 0.9607843137254902200 ) ;
#221 = SURFACE_STYLE_USAGE ( .BOTH. , #186 ) ;
#222 = PRESENTATION_STYLE_ASSIGNMENT (( #221 ) ) ;
#223 = STYLED_ITEM ( 'NONE', ( #222 ), #129 ) ;
#224 = CARTESIAN_POINT ( 'NONE',  ( 0.0000000000000000000, 0.0000000000000000000, -4.149368917523184500 ) ) ;
#225 = SURFACE_STYLE_FILL_AREA ( #184 ) ;
#226 = DIRECTION ( 'NONE',  ( -0.0000000000000000000, -0.0000000000000000000, 1.000000000000000000 ) ) ;
#227 = PRESENTATION_STYLE_ASSIGNMENT (( #228 ) ) ;
#228 = SURFACE_STYLE_USAGE ( .BOTH. , #229 ) ;
#229 = SURFACE_SIDE_STYLE ('',( #230 ) ) ;
#230 = SURFACE_STYLE_FILL_AREA ( #231 ) ;
#231 = FILL_AREA_STYLE ('',( #232 ) ) ;
#232 = FILL_AREA_STYLE_COLOUR ( '', #189 ) ;
#233 = CIRCLE ( 'NONE', #206, 25.39999999999999900 ) ;
#234 =( NAMED_UNIT ( * ) PLANE_ANGLE_UNIT ( ) SI_UNIT ( $, .RADIAN. ) );
#235 =( LENGTH_UNIT ( ) NAMED_UNIT ( * ) SI_UNIT ( .MILLI., .METRE. ) );
#236 = DIRECTION ( 'NONE',  ( 1.000000000000000000, 0.0000000000000000000, 0.0000000000000000000 ) ) ;
#237 = DIRECTION ( 'NONE',  ( -0.0000000000000000000, -0.0000000000000000000, 1.000000000000000000 ) ) ;
#238 = CARTESIAN_POINT ( 'NONE',  ( 0.0000000000000000000, 0.0000000000000000000, 4.149368917523184500 ) ) ;
#239 = AXIS2_PLACEMENT_3D ( 'NONE', #238, #237, #236 ) ;
#240 = CIRCLE ( 'NONE', #239, 25.39999999999999900 ) ;
#241 = CYLINDRICAL_SURFACE ( 'NONE', #158, 25.39999999999999900 ) ;
#242 = CIRCLE ( 'NONE', #261, 77.19000000000001200 ) ;
#243 = FILL_AREA_STYLE_COLOUR ( '', #256 ) ;
#244 = FACE_OUTER_BOUND ( 'NONE', #125, .T. ) ;
#245 = UNCERTAINTY_MEASURE_WITH_UNIT (LENGTH_MEASURE( 1.000000000000000100E-005 ), #248, 'distance_accuracy_value', 'NONE');
#246 =( NAMED_UNIT ( * ) SI_UNIT ( $, .STERADIAN. ) SOLID_ANGLE_UNIT ( ) );
#247 =( NAMED_UNIT ( * ) PLANE_ANGLE_UNIT ( ) SI_UNIT ( $, .RADIAN. ) );
#248 =( LENGTH_UNIT ( ) NAMED_UNIT ( * ) SI_UNIT ( .MILLI., .METRE. ) );
#249 = MECHANICAL_DESIGN_GEOMETRIC_PRESENTATION_REPRESENTATION (  '', ( #251 ), #151 ) ;
#250 = PRESENTATION_LAYER_ASSIGNMENT (  '', '', ( #251 ) ) ;
#251 = STYLED_ITEM ( 'NONE', ( #252 ), #152 ) ;
#252 = PRESENTATION_STYLE_ASSIGNMENT (( #253 ) ) ;
#253 = SURFACE_STYLE_USAGE ( .BOTH. , #254 ) ;
#254 = SURFACE_SIDE_STYLE ('',( #255 ) ) ;
#255 = SURFACE_STYLE_FILL_AREA ( #257 ) ;
#256 = COLOUR_RGB ( '',0.9568627450980391500, 0.9490196078431372100, 0.9607843137254902200 ) ;
#257 = FILL_AREA_STYLE ('',( #243 ) ) ;
#258 = DIRECTION ( 'NONE',  ( 0.0000000000000000000, 0.0000000000000000000, -1.000000000000000000 ) ) ;
#259 = DIRECTION ( 'NONE',  ( 1.000000000000000000, 0.0000000000000000000, 0.0000000000000000000 ) ) ;
#260 = CARTESIAN_POINT ( 'NONE',  ( 0.0000000000000000000, 0.0000000000000000000, 77.04063108247682100 ) ) ;
#261 = AXIS2_PLACEMENT_3D ( 'NONE', #260, #259, #258 ) ;
ENDSEC;
END-ISO-10303-21;
