ISO-10303-21;
HEADER;
FILE_DESCRIPTION (( 'STEP AP214' ),
    '1' );
FILE_NAME ('21232.step',
    '2022-06-17T16:46:47',
    ( '' ),
    ( '' ),
    'SwSTEP 2.0',
    'SolidWorks 2021',
    '' );
FILE_SCHEMA (( 'AUTOMOTIVE_DESIGN' ));
ENDSEC;

DATA;
#1 = EDGE_LOOP ( 'NONE', ( #11, #93 ) ) ;
#2 = FILL_AREA_STYLE_COLOUR ( '', #122 ) ;
#3 = SURFACE_STYLE_USAGE ( .BOTH. , #102 ) ;
#4 =( LENGTH_UNIT ( ) NAMED_UNIT ( * ) SI_UNIT ( .MILLI., .METRE. ) );
#5 = APPLICATION_PROTOCOL_DEFINITION ( 'draft international standard', 'automotive_design', 1998, #49 ) ;
#6 = CARTESIAN_POINT ( 'NONE',  ( 0.000000000000000000, 0.000000000000000000, 0.000000000000000000 ) ) ;
#7 = UNCERTAINTY_MEASURE_WITH_UNIT (LENGTH_MEASURE( 1.000000000000000082E-05 ), #4, 'distance_accuracy_value', 'NONE');
#8 = FACE_OUTER_BOUND ( 'NONE', #22, .T. ) ;
#9 = AXIS2_PLACEMENT_3D ( 'NONE', #47, #99, #80 ) ;
#10 = VERTEX_POINT ( 'NONE', #103 ) ;
#11 = ORIENTED_EDGE ( 'NONE', *, *, #43, .F. ) ;
#12 = ORIENTED_EDGE ( 'NONE', *, *, #43, .T. ) ;
#13 = DIRECTION ( 'NONE',  ( -0.000000000000000000, -0.000000000000000000, -1.000000000000000000 ) ) ;
#14 = DIRECTION ( 'NONE',  ( 1.000000000000000000, 0.000000000000000000, 0.000000000000000000 ) ) ;
#15 = DIRECTION ( 'NONE',  ( -0.000000000000000000, -0.000000000000000000, -1.000000000000000000 ) ) ;
#16 = CYLINDRICAL_SURFACE ( 'NONE', #46, 12.50000000000000000 ) ;
#17 =( NAMED_UNIT ( * ) SI_UNIT ( $, .STERADIAN. ) SOLID_ANGLE_UNIT ( ) );
#18 = ADVANCED_FACE ( 'NONE', ( #101 ), #48, .F. ) ;
#19 = DIRECTION ( 'NONE',  ( 1.000000000000000000, 0.000000000000000000, 0.000000000000000000 ) ) ;
#20 = ADVANCED_FACE ( 'NONE', ( #8 ), #132, .T. ) ;
#21 = ORIENTED_EDGE ( 'NONE', *, *, #50, .F. ) ;
#22 = EDGE_LOOP ( 'NONE', ( #133, #140 ) ) ;
#23 = FACE_OUTER_BOUND ( 'NONE', #38, .T. ) ;
#24 = CARTESIAN_POINT ( 'NONE',  ( 0.000000000000000000, 0.000000000000000000, 0.000000000000000000 ) ) ;
#25 = PRODUCT_DEFINITION ( 'UNKNOWN', '', #116, #78 ) ;
#26 = PRESENTATION_STYLE_ASSIGNMENT (( #3 ) ) ;
#27 = COLOUR_RGB ( '',0.7921568627450980005, 0.8196078431372548767, 0.9333333333333333481 ) ;
#28 = CARTESIAN_POINT ( 'NONE',  ( -12.50000000000000000, 0.000000000000000000, 0.4000000000000000222 ) ) ;
#29 = SURFACE_STYLE_FILL_AREA ( #44 ) ;
#30 = PRODUCT_DEFINITION_SHAPE ( 'NONE', 'NONE',  #25 ) ;
#31 = DIRECTION ( 'NONE',  ( 0.000000000000000000, 0.000000000000000000, 1.000000000000000000 ) ) ;
#32 = MECHANICAL_DESIGN_GEOMETRIC_PRESENTATION_REPRESENTATION (  '', ( #129 ), #92 ) ;
#33 = EDGE_CURVE ( 'NONE', #100, #10, #34, .T. ) ;
#34 = CIRCLE ( 'NONE', #109, 12.50000000000000000 ) ;
#35 = PRESENTATION_LAYER_ASSIGNMENT (  '', '', ( #139 ) ) ;
#36 =( GEOMETRIC_REPRESENTATION_CONTEXT ( 3 ) GLOBAL_UNCERTAINTY_ASSIGNED_CONTEXT ( ( #123 ) ) GLOBAL_UNIT_ASSIGNED_CONTEXT ( ( #73, #114, #75 ) ) REPRESENTATION_CONTEXT ( 'NONE', 'WORKASPACE' ) );
#37 = MECHANICAL_DESIGN_GEOMETRIC_PRESENTATION_REPRESENTATION (  '', ( #139 ), #60 ) ;
#38 = EDGE_LOOP ( 'NONE', ( #21, #135, #113, #67 ) ) ;
#39 = VERTEX_POINT ( 'NONE', #131 ) ;
#40 = DIRECTION ( 'NONE',  ( -1.000000000000000000, 0.000000000000000000, 0.000000000000000000 ) ) ;
#41 = PRESENTATION_STYLE_ASSIGNMENT (( #86 ) ) ;
#42 = AXIS2_PLACEMENT_3D ( 'NONE', #95, #117, #59 ) ;
#43 = EDGE_CURVE ( 'NONE', #68, #39, #45, .T. ) ;
#44 = FILL_AREA_STYLE ('',( #2 ) ) ;
#45 = CIRCLE ( 'NONE', #126, 12.50000000000000000 ) ;
#46 = AXIS2_PLACEMENT_3D ( 'NONE', #120, #136, #40 ) ;
#47 = CARTESIAN_POINT ( 'NONE',  ( 0.000000000000000000, 0.000000000000000000, 0.4000000000000000222 ) ) ;
#48 = PLANE ( 'NONE',  #121 ) ;
#49 = APPLICATION_CONTEXT ( 'automotive_design' ) ;
#50 = EDGE_CURVE ( 'NONE', #10, #100, #83, .T. ) ;
#51 =( LENGTH_UNIT ( ) NAMED_UNIT ( * ) SI_UNIT ( .MILLI., .METRE. ) );
#52 = CARTESIAN_POINT ( 'NONE',  ( 0.000000000000000000, 0.000000000000000000, 0.4000000000000000222 ) ) ;
#53 = DIRECTION ( 'NONE',  ( 1.000000000000000000, 0.000000000000000000, 0.000000000000000000 ) ) ;
#54 = CARTESIAN_POINT ( 'NONE',  ( 0.000000000000000000, 0.000000000000000000, 0.000000000000000000 ) ) ;
#55 = ADVANCED_FACE ( 'NONE', ( #23 ), #16, .T. ) ;
#56 = ADVANCED_FACE ( 'NONE', ( #105 ), #61, .T. ) ;
#57 = EDGE_LOOP ( 'NONE', ( #82, #128, #58, #12 ) ) ;
#58 = ORIENTED_EDGE ( 'NONE', *, *, #119, .T. ) ;
#59 = DIRECTION ( 'NONE',  ( -1.000000000000000000, 0.000000000000000000, 0.000000000000000000 ) ) ;
#60 =( GEOMETRIC_REPRESENTATION_CONTEXT ( 3 ) GLOBAL_UNCERTAINTY_ASSIGNED_CONTEXT ( ( #125 ) ) GLOBAL_UNIT_ASSIGNED_CONTEXT ( ( #51, #72, #118 ) ) REPRESENTATION_CONTEXT ( 'NONE', 'WORKASPACE' ) );
#61 = CYLINDRICAL_SURFACE ( 'NONE', #42, 12.50000000000000000 ) ;
#62 = FILL_AREA_STYLE ('',( #85 ) ) ;
#63 = CLOSED_SHELL ( 'NONE', ( #55, #56, #20, #18 ) ) ;
#64 = ADVANCED_BREP_SHAPE_REPRESENTATION ( '21232', ( #89, #111 ), #36 ) ;
#65 = DIRECTION ( 'NONE',  ( 1.000000000000000000, 0.000000000000000000, 0.000000000000000000 ) ) ;
#66 = VECTOR ( 'NONE', #13, 1000.000000000000000 ) ;
#67 = ORIENTED_EDGE ( 'NONE', *, *, #119, .F. ) ;
#68 = VERTEX_POINT ( 'NONE', #104 ) ;
#69 = CARTESIAN_POINT ( 'NONE',  ( -12.50000000000000000, 0.000000000000000000, 0.4000000000000000222 ) ) ;
#70 = DIRECTION ( 'NONE',  ( 0.000000000000000000, 0.000000000000000000, 1.000000000000000000 ) ) ;
#71 = CARTESIAN_POINT ( 'NONE',  ( 12.50000000000000000, 1.530808498934191521E-15, 0.4000000000000000222 ) ) ;
#72 =( NAMED_UNIT ( * ) PLANE_ANGLE_UNIT ( ) SI_UNIT ( $, .RADIAN. ) );
#73 =( LENGTH_UNIT ( ) NAMED_UNIT ( * ) SI_UNIT ( .MILLI., .METRE. ) );
#74 = SURFACE_SIDE_STYLE ('',( #29 ) ) ;
#75 =( NAMED_UNIT ( * ) SI_UNIT ( $, .STERADIAN. ) SOLID_ANGLE_UNIT ( ) );
#76 = PRODUCT ( '21232', '21232', '', ( #106 ) ) ;
#77 = CIRCLE ( 'NONE', #96, 12.50000000000000000 ) ;
#78 = PRODUCT_DEFINITION_CONTEXT ( 'detailed design', #49, 'design' ) ;
#79 = CARTESIAN_POINT ( 'NONE',  ( 0.000000000000000000, 0.000000000000000000, 0.4000000000000000222 ) ) ;
#80 = DIRECTION ( 'NONE',  ( 1.000000000000000000, 0.000000000000000000, -0.000000000000000000 ) ) ;
#81 = APPLICATION_CONTEXT ( 'automotive_design' ) ;
#82 = ORIENTED_EDGE ( 'NONE', *, *, #138, .F. ) ;
#83 = CIRCLE ( 'NONE', #127, 12.50000000000000000 ) ;
#84 = DIRECTION ( 'NONE',  ( 1.000000000000000000, 0.000000000000000000, -0.000000000000000000 ) ) ;
#85 = FILL_AREA_STYLE_COLOUR ( '', #27 ) ;
#86 = SURFACE_STYLE_USAGE ( .BOTH. , #74 ) ;
#87 = SURFACE_STYLE_FILL_AREA ( #62 ) ;
#88 =( NAMED_UNIT ( * ) PLANE_ANGLE_UNIT ( ) SI_UNIT ( $, .RADIAN. ) );
#89 = MANIFOLD_SOLID_BREP ( 'Boss-Extrude1', #63 ) ;
#90 = PRODUCT_RELATED_PRODUCT_CATEGORY ( 'part', '', ( #76 ) ) ;
#91 = CARTESIAN_POINT ( 'NONE',  ( 0.000000000000000000, 0.000000000000000000, 0.000000000000000000 ) ) ;
#92 =( GEOMETRIC_REPRESENTATION_CONTEXT ( 3 ) GLOBAL_UNCERTAINTY_ASSIGNED_CONTEXT ( ( #7 ) ) GLOBAL_UNIT_ASSIGNED_CONTEXT ( ( #4, #88, #17 ) ) REPRESENTATION_CONTEXT ( 'NONE', 'WORKASPACE' ) );
#93 = ORIENTED_EDGE ( 'NONE', *, *, #130, .F. ) ;
#94 = DIRECTION ( 'NONE',  ( 0.000000000000000000, 0.000000000000000000, 1.000000000000000000 ) ) ;
#95 = CARTESIAN_POINT ( 'NONE',  ( 0.000000000000000000, 0.000000000000000000, 0.4000000000000000222 ) ) ;
#96 = AXIS2_PLACEMENT_3D ( 'NONE', #6, #107, #97 ) ;
#97 = DIRECTION ( 'NONE',  ( 1.000000000000000000, 0.000000000000000000, 0.000000000000000000 ) ) ;
#98 = VECTOR ( 'NONE', #15, 1000.000000000000000 ) ;
#99 = DIRECTION ( 'NONE',  ( 0.000000000000000000, 0.000000000000000000, 1.000000000000000000 ) ) ;
#100 = VERTEX_POINT ( 'NONE', #69 ) ;
#101 = FACE_OUTER_BOUND ( 'NONE', #1, .T. ) ;
#102 = SURFACE_SIDE_STYLE ('',( #87 ) ) ;
#103 = CARTESIAN_POINT ( 'NONE',  ( 12.50000000000000000, 1.530808498934191521E-15, 0.4000000000000000222 ) ) ;
#104 = CARTESIAN_POINT ( 'NONE',  ( -12.50000000000000000, 0.000000000000000000, 0.000000000000000000 ) ) ;
#105 = FACE_OUTER_BOUND ( 'NONE', #57, .T. ) ;
#106 = PRODUCT_CONTEXT ( 'NONE', #81, 'mechanical' ) ;
#107 = DIRECTION ( 'NONE',  ( 0.000000000000000000, 0.000000000000000000, 1.000000000000000000 ) ) ;
#108 = APPLICATION_PROTOCOL_DEFINITION ( 'draft international standard', 'automotive_design', 1998, #81 ) ;
#109 = AXIS2_PLACEMENT_3D ( 'NONE', #79, #124, #65 ) ;
#110 = LINE ( 'NONE', #28, #66 ) ;
#111 = AXIS2_PLACEMENT_3D ( 'NONE', #24, #70, #14 ) ;
#112 = PRESENTATION_LAYER_ASSIGNMENT (  '', '', ( #129 ) ) ;
#113 = ORIENTED_EDGE ( 'NONE', *, *, #130, .T. ) ;
#114 =( NAMED_UNIT ( * ) PLANE_ANGLE_UNIT ( ) SI_UNIT ( $, .RADIAN. ) );
#115 = SHAPE_DEFINITION_REPRESENTATION ( #30, #64 ) ;
#116 = PRODUCT_DEFINITION_FORMATION_WITH_SPECIFIED_SOURCE ( 'ANY', '', #76, .NOT_KNOWN. ) ;
#117 = DIRECTION ( 'NONE',  ( -0.000000000000000000, -0.000000000000000000, -1.000000000000000000 ) ) ;
#118 =( NAMED_UNIT ( * ) SI_UNIT ( $, .STERADIAN. ) SOLID_ANGLE_UNIT ( ) );
#119 = EDGE_CURVE ( 'NONE', #100, #68, #110, .T. ) ;
#120 = CARTESIAN_POINT ( 'NONE',  ( 0.000000000000000000, 0.000000000000000000, 0.4000000000000000222 ) ) ;
#121 = AXIS2_PLACEMENT_3D ( 'NONE', #91, #134, #84 ) ;
#122 = COLOUR_RGB ( '',0.7921568627450980005, 0.8196078431372548767, 0.9333333333333333481 ) ;
#123 = UNCERTAINTY_MEASURE_WITH_UNIT (LENGTH_MEASURE( 1.000000000000000082E-05 ), #73, 'distance_accuracy_value', 'NONE');
#124 = DIRECTION ( 'NONE',  ( 0.000000000000000000, 0.000000000000000000, 1.000000000000000000 ) ) ;
#125 = UNCERTAINTY_MEASURE_WITH_UNIT (LENGTH_MEASURE( 1.000000000000000082E-05 ), #51, 'distance_accuracy_value', 'NONE');
#126 = AXIS2_PLACEMENT_3D ( 'NONE', #54, #31, #19 ) ;
#127 = AXIS2_PLACEMENT_3D ( 'NONE', #52, #94, #53 ) ;
#128 = ORIENTED_EDGE ( 'NONE', *, *, #33, .F. ) ;
#129 = STYLED_ITEM ( 'NONE', ( #41 ), #89 ) ;
#130 = EDGE_CURVE ( 'NONE', #39, #68, #77, .T. ) ;
#131 = CARTESIAN_POINT ( 'NONE',  ( 12.50000000000000000, 1.530808498934191521E-15, 0.000000000000000000 ) ) ;
#132 = PLANE ( 'NONE',  #9 ) ;
#133 = ORIENTED_EDGE ( 'NONE', *, *, #33, .T. ) ;
#134 = DIRECTION ( 'NONE',  ( 0.000000000000000000, 0.000000000000000000, 1.000000000000000000 ) ) ;
#135 = ORIENTED_EDGE ( 'NONE', *, *, #138, .T. ) ;
#136 = DIRECTION ( 'NONE',  ( -0.000000000000000000, -0.000000000000000000, -1.000000000000000000 ) ) ;
#137 = LINE ( 'NONE', #71, #98 ) ;
#138 = EDGE_CURVE ( 'NONE', #10, #39, #137, .T. ) ;
#139 = STYLED_ITEM ( 'NONE', ( #26 ), #64 ) ;
#140 = ORIENTED_EDGE ( 'NONE', *, *, #50, .T. ) ;
ENDSEC;
END-ISO-10303-21;
