  0
SECTION
  2
HEADER
  9
$ACADVER
  1
AC1009
  9
$INSBASE
 10
0.0
 20
0.0
 30
0.0
  9
$EXTMIN
 10
3.958601
 20
9.184543
 30
0.0
  9
$EXTMAX
 10
15.473422
 20
13.660298
 30
0.18
  9
$LIMMIN
 10
0.0
 20
0.0
  9
$LIMMAX
 10
17.0
 20
11.0
  9
$ORTHOMODE
 70
     1
  9
$REGENMODE
 70
     1
  9
$FILLMODE
 70
     1
  9
$QTEXTMODE
 70
     0
  9
$MIRRTEXT
 70
     0
  9
$DRAGMODE
 70
     2
  9
$LTSCALE
 40
0.25
  9
$OSMODE
 70
     0
  9
$ATTMODE
 70
     1
  9
$TEXTSIZE
 40
0.08
  9
$TRACEWID
 40
0.05
  9
$TEXTSTYLE
  7
STANDARD
  9
$CLAYER
  8
BORDER
  9
$CELTYPE
  6
BYLAYER
  9
$CECOLOR
 62
   256
  9
$DIMSCALE
 40
0.4
  9
$DIMASZ
 40
0.25
  9
$DIMEXO
 40
0.0625
  9
$DIMDLI
 40
0.38
  9
$DIMRND
 40
0.0
  9
$DIMDLE
 40
0.0
  9
$DIMEXE
 40
0.06
  9
$DIMTP
 40
0.0
  9
$DIMTM
 40
0.0
  9
$DIMTXT
 40
0.2
  9
$DIMCEN
 40
0.09
  9
$DIMTSZ
 40
0.0
  9
$DIMTOL
 70
     0
  9
$DIMLIM
 70
     0
  9
$DIMTIH
 70
     1
  9
$DIMTOH
 70
     1
  9
$DIMSE1
 70
     0
  9
$DIMSE2
 70
     0
  9
$DIMTAD
 70
     0
  9
$DIMZIN
 70
     0
  9
$DIMBLK
  1

  9
$DIMASO
 70
     0
  9
$DIMSHO
 70
     0
  9
$DIMPOST
  1

  9
$DIMAPOST
  1

  9
$DIMALT
 70
     0
  9
$DIMALTD
 70
     2
  9
$DIMALTF
 40
25.4
  9
$DIMLFAC
 40
1.0
  9
$DIMTOFL
 70
     0
  9
$DIMTVP
 40
0.0
  9
$DIMTIX
 70
     1
  9
$DIMSOXD
 70
     0
  9
$DIMSAH
 70
     0
  9
$DIMBLK1
  1

  9
$DIMBLK2
  1

  9
$DIMSTYLE
  2
STANDARD
  9
$DIMCLRD
 70
     0
  9
$DIMCLRE
 70
     0
  9
$DIMCLRT
 70
     0
  9
$DIMTFAC
 40
1.0
  9
$DIMGAP
 40
0.09
  9
$LUNITS
 70
     2
  9
$LUPREC
 70
     3
  9
$SKETCHINC
 40
0.1
  9
$FILLETRAD
 40
0.0
  9
$AUNITS
 70
     0
  9
$AUPREC
 70
     0
  9
$MENU
  1
C:\R13\WIN\ACAD
  9
$ELEVATION
 40
0.0
  9
$PELEVATION
 40
0.0
  9
$THICKNESS
 40
0.0
  9
$LIMCHECK
 70
     0
  9
$BLIPMODE
 70
     0
  9
$CHAMFERA
 40
0.01
  9
$CHAMFERB
 40
0.01
  9
$SKPOLY
 70
     0
  9
$TDCREATE
 40
2449547.531669
  9
$TDUPDATE
 40
2451368.400507
  9
$TDINDWG
 40
1.11615
  9
$TDUSRTIMER
 40
1.11615
  9
$USRTIMER
 70
     1
  9
$ANGBASE
 50
0.0
  9
$ANGDIR
 70
     0
  9
$PDMODE
 70
     0
  9
$PDSIZE
 40
0.0
  9
$PLINEWID
 40
0.0
  9
$COORDS
 70
     2
  9
$SPLFRAME
 70
     0
  9
$SPLINETYPE
 70
     6
  9
$SPLINESEGS
 70
     8
  9
$ATTDIA
 70
     0
  9
$ATTREQ
 70
     1
  9
$HANDLING
 70
     1
  9
$HANDSEED
  5
274C
  9
$SURFTAB1
 70
     6
  9
$SURFTAB2
 70
     6
  9
$SURFTYPE
 70
     6
  9
$SURFU
 70
     6
  9
$SURFV
 70
     6
  9
$UCSNAME
  2

  9
$UCSORG
 10
0.0
 20
0.0
 30
0.0
  9
$UCSXDIR
 10
1.0
 20
0.0
 30
0.0
  9
$UCSYDIR
 10
0.0
 20
1.0
 30
0.0
  9
$PUCSNAME
  2

  9
$PUCSORG
 10
4.789029
 20
5.486174
 30
0.0
  9
$PUCSXDIR
 10
1.0
 20
0.0
 30
0.0
  9
$PUCSYDIR
 10
0.0
 20
1.0
 30
0.0
  9
$USERI1
 70
     0
  9
$USERI2
 70
     0
  9
$USERI3
 70
     0
  9
$USERI4
 70
     0
  9
$USERI5
 70
     0
  9
$USERR1
 40
0.0
  9
$USERR2
 40
0.0
  9
$USERR3
 40
0.0
  9
$USERR4
 40
0.0
  9
$USERR5
 40
0.0
  9
$WORLDVIEW
 70
     1
  9
$SHADEDGE
 70
     3
  9
$SHADEDIF
 70
    70
  9
$TILEMODE
 70
     0
  9
$MAXACTVP
 70
    16
  9
$PLIMCHECK
 70
     0
  9
$PEXTMIN
 10
0.105666
 20
0.063804
 30
0.0
  9
$PEXTMAX
 10
16.149909
 20
11.76052
 30
0.34938
  9
$PLIMMIN
 10
0.0
 20
0.0
  9
$PLIMMAX
 10
12.0
 20
9.0
  9
$UNITMODE
 70
     0
  9
$VISRETAIN
 70
     0
  9
$PLINEGEN
 70
     0
  9
$PSLTSCALE
 70
     0
  0
ENDSEC
  0
SECTION
  2
TABLES
  0
TABLE
  2
VPORT
 70
     1
  0
VPORT
  2
*ACTIVE
 70
     0
 10
0.0
 20
0.0
 11
1.0
 21
1.0
 12
10.270716
 22
12.213679
 13
0.0
 23
0.0
 14
0.005
 24
0.005
 15
0.25
 25
0.25
 16
0.0
 26
0.0
 36
1.0
 17
0.0
 27
0.0
 37
0.0
 40
6.120194
 41
1.490046
 42
50.0
 43
0.0
 44
0.0
 50
0.0
 51
0.0
 71
     0
 72
   100
 73
     0
 74
     0
 75
     0
 76
     0
 77
     0
 78
     0
  0
ENDTAB
  0
TABLE
  2
LTYPE
 70
     3
  0
LTYPE
  2
CONTINUOUS
 70
     0
  3
Solid line
 72
    65
 73
     0
 40
0.0
  0
LTYPE
  2
HIDDEN
 70
     0
  3
__ __ __ __ __ __ __ __ __ __ __ __ __ __ __ __
 72
    65
 73
     2
 40
0.375
 49
0.25
 49
-0.125
  0
LTYPE
  2
CENTER
 70
     0
  3
____ _ ____ _ ____ _ ____ _ ____ _ ____ _ ____
 72
    65
 73
     4
 40
2.0
 49
1.25
 49
-0.25
 49
0.25
 49
-0.25
  0
ENDTAB
  0
TABLE
  2
LAYER
 70
    13
  0
LAYER
  2
0
 70
     0
 62
     7
  6
CONTINUOUS
  0
LAYER
  2
BORDER
 70
     0
 62
     7
  6
CONTINUOUS
  0
LAYER
  2
SHEET1
 70
     0
 62
     7
  6
CONTINUOUS
  0
LAYER
  2
DIM1
 70
     0
 62
     7
  6
CONTINUOUS
  0
LAYER
  2
SHEET2
 70
     1
 62
     7
  6
CONTINUOUS
  0
LAYER
  2
SHEET3
 70
     1
 62
     7
  6
CONTINUOUS
  0
LAYER
  2
VIEW-BORDER
 70
     1
 62
     7
  6
CONTINUOUS
  0
LAYER
  2
BODY
 70
     0
 62
     7
  6
CONTINUOUS
  0
LAYER
  2
D1
 70
     0
 62
     7
  6
CONTINUOUS
  0
LAYER
  2
SILK-SCREEN
 70
     0
 62
     7
  6
CONTINUOUS
  0
ENDTAB
  0
TABLE
  2
STYLE
 70
     2
  0
STYLE
  2
STANDARD
 70
     0
 40
0.0
 41
1.0
 50
0.0
 71
     0
 42
0.08
  3
txt
  4

  0
STYLE
  2
HL-HD
 70
     0
 40
0.0
 41
1.0
 50
0.0
 71
     0
 42
0.1
  3
S:\dwgs\hl-hd.shx
  4

  0
ENDTAB
  0
TABLE
  2
VIEW
 70
     1
  0
VIEW
  2
FULL
 70
     0
 40
24.908848
 10
17.125665
 20
10.597832
 41
34.207965
 11
0.0
 21
0.0
 31
1.0
 12
0.0
 22
0.0
 32
0.0
 42
50.0
 43
0.0
 44
0.0
 50
0.0
 71
     0
  0
ENDTAB
  0
TABLE
  2
UCS
 70
     0
  0
ENDTAB
  0
TABLE
  2
APPID
 70
     5
  0
APPID
  2
ACAD
 70
     0
  0
APPID
  2
CONTENTTABDATA
 70
     0
  0
APPID
  2
CONTENTCURRENTTAB
 70
     0
  0
APPID
  2
CONTENTBLOCKDESCRIPTION
 70
     0
  0
APPID
  2
CONTENTBLOCKICON
 70
     0
  0
ENDTAB
  0
TABLE
  2
DIMSTYLE
 70
     1
  0
DIMSTYLE
  2
STANDARD
 70
     0
  3

  4

  5

  6

  7

 40
1.0
 41
0.18
 42
0.0625
 43
0.38
 44
0.18
 45
0.0
 46
0.0
 47
0.0
 48
0.0
140
0.18
141
0.09
142
0.0
143
25.4
144
1.0
145
0.0
146
1.0
147
0.09
 71
     0
 72
     0
 73
     1
 74
     1
 75
     0
 76
     0
 77
     0
 78
     0
170
     0
171
     2
172
     0
173
     0
174
     0
175
     0
176
     0
177
     0
178
     0
  0
ENDTAB
  0
ENDSEC
  0
SECTION
  2
BLOCKS
  0
BLOCK
  8
0
  2
$MODEL_SPACE
 70
     0
 10
0.0
 20
0.0
 30
0.0
  3
$MODEL_SPACE
  1

  0
ENDBLK
  5
2F
  8
0
  0
BLOCK
 67
     1
  8
0
  2
$PAPER_SPACE
 70
     0
 10
0.0
 20
0.0
 30
0.0
  3
$PAPER_SPACE
  1

  0
ENDBLK
  5
2D
 67
     1
  8
0
  0
BLOCK
  8
0
  2
BNC-SIDE
 70
     0
 10
0.0
 20
0.0
 30
0.0
  3
BNC-SIDE
  1

  0
LINE
  5
67F
  8
0
 10
-0.032
 20
0.219
 30
0.0
 11
0.0
 21
0.219
 31
0.0
  0
LINE
  5
680
  8
0
 10
-0.032
 20
-0.219
 30
0.0
 11
0.0
 21
-0.219
 31
0.0
  0
LINE
  5
681
  8
0
 10
-0.561
 20
-0.043
 30
0.0
 11
-0.408
 21
-0.043
 31
0.0
  0
LINE
  5
682
  8
0
 10
-0.561
 20
0.043
 30
0.0
 11
-0.408
 21
0.043
 31
0.0
  0
LINE
  5
683
  8
0
 10
-0.561
 20
-0.043
 30
0.0
 11
-0.561
 21
0.043
 31
0.0
  0
LINE
  5
684
  8
0
 10
-0.309202
 20
-0.181539
 30
0.0
 11
-0.283789
 21
0.1875
 31
0.0
  0
LINE
  5
685
  8
0
 10
-0.408
 20
-0.075
 30
0.0
 11
-0.408
 21
0.075
 31
0.0
  0
LINE
  5
686
  8
0
 10
-0.318
 20
-0.1625
 30
0.0
 11
-0.318
 21
0.1625
 31
0.0
  0
LINE
  5
687
  8
0
 10
-0.109139
 20
-0.1875
 30
0.0
 11
-0.083315
 21
0.1875
 31
0.0
  0
LINE
  5
688
  8
0
 10
-0.149234
 20
-0.1875
 30
0.0
 11
-0.12341
 21
0.1875
 31
0.0
  0
LINE
  5
689
  8
0
 10
-0.189329
 20
-0.1875
 30
0.0
 11
-0.163505
 21
0.1875
 31
0.0
  0
LINE
  5
68A
  8
0
 10
-0.229423
 20
-0.1875
 30
0.0
 11
-0.2036
 21
0.1875
 31
0.0
  0
LINE
  5
68B
  8
0
 10
-0.269518
 20
-0.1875
 30
0.0
 11
-0.243694
 21
0.1875
 31
0.0
  0
LINE
  5
68C
  8
0
 10
-0.032
 20
-0.219
 30
0.0
 11
-0.032
 21
0.219
 31
0.0
  0
LINE
  5
68D
  8
0
 10
-0.293
 20
-0.1875
 30
0.0
 11
-0.032
 21
-0.1875
 31
0.0
  0
ARC
  5
68E
  8
0
 10
-0.293
 20
-0.1625
 30
0.0
 40
0.025
 50
180.0
 51
270.0
  0
LINE
  5
68F
  8
0
 10
-0.383
 20
-0.1
 30
0.0
 11
-0.318
 21
-0.1
 31
0.0
  0
ARC
  5
690
  8
0
 10
-0.383
 20
-0.075
 30
0.0
 40
0.025
 50
180.0
 51
270.0
  0
LINE
  5
691
  8
0
 10
-0.293
 20
0.1875
 30
0.0
 11
-0.032
 21
0.1875
 31
0.0
  0
LINE
  5
692
  8
0
 10
-0.383
 20
0.1
 30
0.0
 11
-0.318
 21
0.1
 31
0.0
  0
ARC
  5
693
  8
0
 10
-0.383
 20
0.075
 30
0.0
 40
0.025
 50
90.0
 51
180.0
  0
ARC
  5
694
  8
0
 10
-0.293
 20
0.1625
 30
0.0
 40
0.025
 50
90.0
 51
180.0
  0
CIRCLE
  5
695
  8
0
 10
0.29
 20
0.0
 30
0.0
 40
0.04
  0
LINE
  5
696
  8
0
 10
0.0
 20
-0.24475
 30
0.0
 11
0.0
 21
0.24475
 31
0.0
  0
LINE
  5
697
  8
0
 10
0.045
 20
-0.24475
 30
0.0
 11
0.045
 21
0.24475
 31
0.0
  0
LINE
  5
698
  8
0
 10
0.465
 20
-0.18775
 30
0.0
 11
0.465
 21
0.18775
 31
0.0
  0
LINE
  5
699
  8
0
 10
0.465
 20
-0.18775
 30
0.0
 11
0.045
 21
-0.18775
 31
0.0
  0
LINE
  5
69A
  8
0
 10
0.0
 20
-0.24475
 30
0.0
 11
0.045
 21
-0.24475
 31
0.0
  0
LINE
  5
69B
  8
0
 10
0.465
 20
0.18775
 30
0.0
 11
0.045
 21
0.18775
 31
0.0
  0
LINE
  5
69C
  8
0
 10
0.0
 20
0.24475
 30
0.0
 11
0.045
 21
0.24475
 31
0.0
  0
ENDBLK
  5
69E
  8
0
  0
BLOCK
  8
0
  2
TOGGLE-SIDE
 70
     0
 10
0.0
 20
0.0
 30
0.0
  3
TOGGLE-SIDE
  1

  0
LINE
  5
6A1
  8
DIM1
 10
-0.22
 20
0.051214
 30
0.0
 11
-0.543212
 21
-0.02044
 31
0.0
  0
LINE
  5
6A2
  8
DIM1
 10
-0.22
 20
-0.051214
 30
0.0
 11
-0.521568
 21
-0.11807
 31
0.0
  0
POLYLINE
  5
6A3
  8
DIM1
 66
     1
 10
0.0
 20
0.0
 30
0.0
 70
     1
  0
VERTEX
  5
2688
  8
DIM1
 10
0.0
 20
-0.16
 30
0.0
  0
VERTEX
  5
2689
  8
DIM1
 10
0.0
 20
0.16
 30
0.0
  0
VERTEX
  5
268A
  8
DIM1
 10
0.34
 20
0.16
 30
0.0
  0
VERTEX
  5
268B
  8
DIM1
 10
0.34
 20
-0.16
 30
0.0
  0
SEQEND
  5
268C
  8
DIM1
  0
POLYLINE
  5
6A9
  8
DIM1
 66
     1
 10
0.0
 20
0.0
 30
0.0
 70
     1
  0
VERTEX
  5
268D
  8
DIM1
 10
-0.22
 20
-0.0875
 30
0.0
  0
VERTEX
  5
268E
  8
DIM1
 10
-0.22
 20
0.0875
 30
0.0
  0
VERTEX
  5
268F
  8
DIM1
 10
0.0
 20
0.0875
 30
0.0
  0
VERTEX
  5
2690
  8
DIM1
 10
0.0
 20
-0.0875
 30
0.0
  0
SEQEND
  5
2691
  8
DIM1
  0
LINE
  5
6AF
  8
DIM1
 10
-0.22
 20
0.0875
 30
0.0
 11
-0.203719
 21
-0.0875
 31
0.0
  0
LINE
  5
6B0
  8
DIM1
 10
-0.2
 20
0.0875
 30
0.0
 11
-0.183719
 21
-0.0875
 31
0.0
  0
LINE
  5
6B1
  8
DIM1
 10
-0.14
 20
0.0875
 30
0.0
 11
-0.123719
 21
-0.0875
 31
0.0
  0
LINE
  5
6B2
  8
DIM1
 10
-0.12
 20
0.0875
 30
0.0
 11
-0.103719
 21
-0.0875
 31
0.0
  0
LINE
  5
6B3
  8
DIM1
 10
-0.1
 20
0.0875
 30
0.0
 11
-0.083719
 21
-0.0875
 31
0.0
  0
LINE
  5
6B4
  8
DIM1
 10
-0.08
 20
0.0875
 30
0.0
 11
-0.063719
 21
-0.0875
 31
0.0
  0
LINE
  5
6B5
  8
DIM1
 10
-0.06
 20
0.0875
 30
0.0
 11
-0.043719
 21
-0.0875
 31
0.0
  0
LINE
  5
6B6
  8
DIM1
 10
-0.04
 20
0.0875
 30
0.0
 11
-0.023719
 21
-0.0875
 31
0.0
  0
LINE
  5
6B7
  8
DIM1
 10
-0.02
 20
0.0875
 30
0.0
 11
-0.003719
 21
-0.0875
 31
0.0
  0
LINE
  5
6B8
  8
DIM1
 10
-0.18
 20
0.0875
 30
0.0
 11
-0.163719
 21
-0.0875
 31
0.0
  0
LINE
  5
6B9
  8
DIM1
 10
-0.16
 20
0.0875
 30
0.0
 11
-0.143719
 21
-0.0875
 31
0.0
  0
LINE
  5
6BA
  8
DIM1
 10
0.47
 20
0.015
 30
0.0
 11
0.47
 21
-0.015
 31
0.0
  0
LINE
  5
6BB
  8
DIM1
 10
0.34
 20
-0.085
 30
0.0
 11
0.47
 21
-0.085
 31
0.0
  0
LINE
  5
6BC
  8
DIM1
 10
0.34
 20
-0.115
 30
0.0
 11
0.47
 21
-0.115
 31
0.0
  0
LINE
  5
6BD
  8
DIM1
 10
0.47
 20
-0.085
 30
0.0
 11
0.47
 21
-0.115
 31
0.0
  0
LINE
  5
6BE
  8
DIM1
 10
0.34
 20
-0.015
 30
0.0
 11
0.47
 21
-0.015
 31
0.0
  0
LINE
  5
6BF
  8
DIM1
 10
0.34
 20
0.115
 30
0.0
 11
0.47
 21
0.115
 31
0.0
  0
LINE
  5
6C0
  8
DIM1
 10
0.34
 20
0.085
 30
0.0
 11
0.47
 21
0.085
 31
0.0
  0
LINE
  5
6C1
  8
DIM1
 10
0.47
 20
0.115
 30
0.0
 11
0.47
 21
0.085
 31
0.0
  0
LINE
  5
6C2
  8
DIM1
 10
0.34
 20
0.015
 30
0.0
 11
0.47
 21
0.015
 31
0.0
  0
ARC
  5
6C3
  8
DIM1
 10
-0.530835
 20
-0.06891
 30
0.0
 40
0.050025
 50
104.324647
 51
280.675353
  0
ENDBLK
  5
6C5
  8
0
  0
BLOCK
  8
0
  2
BNC
 70
     0
 10
0.0
 20
0.0
 30
0.0
  3
BNC
  1

  0
CIRCLE
  5
EC8
  8
0
 10
0.0
 20
0.0
 30
0.0
 40
0.2445
  0
CIRCLE
  5
EC9
  8
0
 10
0.0
 20
0.0
 30
0.0
 40
0.16925
  0
CIRCLE
  5
ECA
  8
0
 10
0.0
 20
0.0
 30
0.0
 40
0.18925
  0
CIRCLE
  5
ECB
  8
0
 10
0.0
 20
0.0
 30
0.0
 40
0.0875
  0
CIRCLE
  5
ECC
  8
0
 10
0.0
 20
0.0
 30
0.0
 40
0.0335
  0
ARC
  5
ECD
  8
0
 10
0.0
 20
0.0
 30
0.0
 40
0.2175
 50
169.804264
 51
190.195736
  0
LINE
  5
ECE
  8
0
 10
-0.214065
 20
-0.0385
 30
0.0
 11
-0.185293
 21
-0.0385
 31
0.0
  0
LINE
  5
ECF
  8
0
 10
-0.214065
 20
0.0385
 30
0.0
 11
-0.185293
 21
0.0385
 31
0.0
  0
ARC
  5
ED0
  8
0
 10
0.0
 20
0.0
 30
0.0
 40
0.2175
 50
349.804264
 51
10.195736
  0
LINE
  5
ED1
  8
0
 10
0.185293
 20
-0.0385
 30
0.0
 11
0.214065
 21
-0.0385
 31
0.0
  0
LINE
  5
ED2
  8
0
 10
0.185293
 20
0.0385
 30
0.0
 11
0.214065
 21
0.0385
 31
0.0
  0
ENDBLK
  5
ED4
  8
0
  0
BLOCK
  8
0
  2
LOGO
 70
     0
 10
0.0
 20
0.0
 30
0.0
  3
LOGO
  1

  0
SOLID
  5
EDC
  8
0
 10
0.3969
 20
0.168869
 30
0.34938
 11
0.283625
 21
0.168869
 31
0.34938
 12
0.3969
 22
0.122467
 32
0.34938
 13
0.283625
 23
0.122467
 33
0.34938
  0
SOLID
  5
EDD
  8
0
 10
-0.000246
 20
0.275321
 30
0.34938
 11
0.229034
 21
0.275321
 31
0.34938
 12
-0.000246
 22
0.230284
 32
0.34938
 13
0.229034
 23
0.230284
 33
0.34938
  0
SOLID
  5
EDE
  8
0
 10
0.229034
 20
0.275321
 30
0.34938
 11
0.283625
 21
0.275321
 31
0.34938
 12
0.229034
 22
0.002368
 32
0.34938
 13
0.283625
 23
0.002368
 33
0.34938
  0
SOLID
  5
EDF
  8
0
 10
0.087099
 20
0.002368
 30
0.34938
 11
0.141689
 21
0.002368
 31
0.34938
 12
0.087099
 22
0.230284
 32
0.34938
 13
0.141689
 23
0.230284
 33
0.34938
  0
POLYLINE
  5
EE0
  8
0
 66
     1
 10
0.0
 20
0.0
 30
0.34938
  0
VERTEX
  5
26B0
  8
0
 10
1.654341
 20
0.173622
 30
0.34938
 42
0.001957
  0
VERTEX
  5
26B1
  8
0
 10
1.732505
 20
0.157697
 30
0.34938
 42
-0.213696
  0
VERTEX
  5
26B2
  8
0
 10
1.785667
 20
0.120541
 30
0.34938
 42
-0.207559
  0
VERTEX
  5
26B3
  8
0
 10
1.793018
 20
0.06449
 30
0.34938
 42
-0.231198
  0
VERTEX
  5
26B4
  8
0
 10
1.741309
 20
0.007092
 30
0.34938
 42
-0.176336
  0
VERTEX
  5
26B5
  8
0
 10
1.633376
 20
0.003421
 30
0.34938
 42
-0.211591
  0
VERTEX
  5
26B6
  8
0
 10
1.575984
 20
0.055002
 30
0.34938
  0
SEQEND
  5
26B7
  8
0
  0
POLYLINE
  5
EE9
  8
0
 66
     1
 10
0.0
 20
0.0
 30
0.34938
  0
VERTEX
  5
26B8
  8
0
 10
1.5793
 20
0.084397
 30
0.34938
  0
VERTEX
  5
26B9
  8
0
 10
1.623066
 20
0.084397
 30
0.34938
 42
0.302044
  0
VERTEX
  5
26BA
  8
0
 10
1.651056
 20
0.043161
 30
0.34938
 42
0.26537
  0
VERTEX
  5
26BB
  8
0
 10
1.726099
 20
0.053047
 30
0.34938
 42
0.635606
  0
VERTEX
  5
26BC
  8
0
 10
1.713987
 20
0.109502
 30
0.34938
 42
-0.000944
  0
VERTEX
  5
26BD
  8
0
 10
1.624514
 20
0.130353
 30
0.34938
 42
-0.344245
  0
VERTEX
  5
26BE
  8
0
 10
1.571718
 20
0.196061
 30
0.34938
 42
-0.322222
  0
VERTEX
  5
26BF
  8
0
 10
1.625865
 20
0.273592
 30
0.34938
 42
-0.141736
  0
VERTEX
  5
26C0
  8
0
 10
1.718419
 20
0.278792
 30
0.34938
 42
-0.333774
  0
VERTEX
  5
26C1
  8
0
 10
1.784829
 20
0.200112
 30
0.34938
  0
VERTEX
  5
26C2
  8
0
 10
1.730856
 20
0.200112
 30
0.34938
 42
0.301979
  0
VERTEX
  5
26C3
  8
0
 10
1.705072
 20
0.235944
 30
0.34938
 42
0.197288
  0
VERTEX
  5
26C4
  8
0
 10
1.647834
 20
0.23428
 30
0.34938
 42
0.728374
  0
VERTEX
  5
26C5
  8
0
 10
1.654341
 20
0.173622
 30
0.34938
 42
0.001957
  0
SEQEND
  5
26C6
  8
0
  0
LINE
  5
EF9
  8
0
 10
0.990573
 20
0.275321
 30
0.34938
 11
0.933253
 21
0.275321
 31
0.34938
  0
LINE
  5
EFA
  8
0
 10
0.933253
 20
0.002368
 30
0.34938
 11
1.12705
 21
0.002368
 31
0.34938
  0
SOLID
  5
EFB
  8
0
 10
0.581308
 20
0.001222
 30
0.34938
 11
0.581308
 21
0.03571
 31
0.34938
 12
0.652536
 22
0.025747
 32
0.34938
 13
0.633389
 23
0.051805
 33
0.34938
  0
POLYLINE
  5
EFC
  8
0
 66
     1
 10
0.0
 20
0.0
 30
0.34938
 40
0.010918
 41
0.010918
  0
VERTEX
  5
26C7
  8
0
 10
0.463009
 20
0.092598
 30
0.34938
 42
0.761639
  0
VERTEX
  5
26C8
  8
0
 10
0.700334
 20
0.095097
 30
0.34938
 42
0.761639
  0
SEQEND
  5
26C9
  8
0
  0
POLYLINE
  5
F00
  8
0
 66
     1
 10
0.0
 20
0.0
 30
0.34938
 40
0.010918
 41
0.010918
  0
VERTEX
  5
26CA
  8
0
 10
0.698301
 20
0.191392
 30
0.34938
 42
0.741471
  0
VERTEX
  5
26CB
  8
0
 10
0.463464
 20
0.190005
 30
0.34938
 42
0.741471
  0
SEQEND
  5
26CC
  8
0
  0
POLYLINE
  5
F04
  8
0
 66
     1
 10
0.0
 20
0.0
 30
0.34938
 70
     1
 40
0.010918
 41
0.010918
  0
VERTEX
  5
26CD
  8
0
 10
0.514044
 20
0.199799
 30
0.34938
 42
0.228527
  0
VERTEX
  5
26CE
  8
0
 10
0.515319
 20
0.075867
 30
0.34938
 42
0.623004
  0
VERTEX
  5
26CF
  8
0
 10
0.64663
 20
0.076281
 30
0.34938
 42
0.229006
  0
VERTEX
  5
26D0
  8
0
 10
0.647011
 20
0.20034
 30
0.34938
 42
0.632312
  0
SEQEND
  5
26D1
  8
0
  0
SOLID
  5
F0A
  8
0
 10
0.684704
 20
0.227311
 30
0.34938
 11
0.644111
 21
0.208151
 31
0.34938
 12
0.630325
 22
0.27023
 32
0.34938
 13
0.616539
 23
0.231143
 33
0.34938
  0
SOLID
  5
F0B
  8
0
 10
0.652536
 20
0.025747
 30
0.34938
 11
0.633389
 21
0.051805
 31
0.34938
 12
0.690831
 22
0.068666
 32
0.34938
 13
0.658663
 23
0.102387
 33
0.34938
  0
SOLID
  5
F0C
  8
0
 10
0.630325
 20
0.27023
 30
0.34938
 11
0.616539
 21
0.231143
 31
0.34938
 12
0.580302
 22
0.280859
 32
0.34938
 13
0.579149
 23
0.24163
 33
0.34938
  0
SOLID
  5
F0D
  8
0
 10
0.470766
 20
0.21394
 30
0.34938
 11
0.509968
 21
0.186249
 31
0.34938
 12
0.454935
 22
0.138408
 32
0.34938
 13
0.499357
 23
0.134576
 33
0.34938
  0
SOLID
  5
F0E
  8
0
 10
0.507662
 20
0.255476
 30
0.34938
 11
0.528417
 21
0.224324
 31
0.34938
 12
0.470766
 22
0.21394
 32
0.34938
 13
0.509968
 23
0.186249
 33
0.34938
  0
SOLID
  5
F0F
  8
0
 10
0.474849
 20
0.060235
 30
0.34938
 11
0.513909
 21
0.074797
 31
0.34938
 12
0.532291
 22
0.010419
 32
0.34938
 13
0.552204
 23
0.038776
 33
0.34938
  0
SOLID
  5
F10
  8
0
 10
0.3969
 20
0.275321
 30
0.34938
 11
0.451491
 21
0.275321
 31
0.34938
 12
0.3969
 22
0.002368
 32
0.34938
 13
0.451491
 23
0.002368
 33
0.34938
  0
SOLID
  5
F11
  8
0
 10
0.454935
 20
0.138408
 30
0.34938
 11
0.499357
 21
0.134576
 31
0.34938
 12
0.474849
 22
0.060235
 32
0.34938
 13
0.513909
 23
0.074797
 33
0.34938
  0
POLYLINE
  5
F12
  8
0
 66
     1
 10
0.0
 20
0.0
 30
0.34938
 40
0.010918
 41
0.010918
  0
VERTEX
  5
26D2
  8
0
 10
0.463464
 20
0.190005
 30
0.34938
 42
0.143054
  0
VERTEX
  5
26D3
  8
0
 10
0.463009
 20
0.092598
 30
0.34938
 42
0.143054
  0
SEQEND
  5
26D4
  8
0
  0
SOLID
  5
F16
  8
0
 10
0.532291
 20
0.010419
 30
0.34938
 11
0.552204
 21
0.038776
 31
0.34938
 12
0.581308
 22
0.001222
 32
0.34938
 13
0.581308
 23
0.03571
 33
0.34938
  0
SOLID
  5
F17
  8
0
 10
0.580302
 20
0.280859
 30
0.34938
 11
0.579149
 21
0.24163
 31
0.34938
 12
0.507662
 22
0.255476
 32
0.34938
 13
0.528417
 23
0.224324
 33
0.34938
  0
SOLID
  5
F18
  8
0
 10
0.876074
 20
0.009958
 30
0.34938
 11
0.926705
 21
0.015279
 31
0.34938
 12
0.874125
 22
0.016303
 32
0.34938
 13
0.927759
 23
0.020455
 33
0.34938
  0
SOLID
  5
F19
  8
0
 10
0.878652
 20
0.002368
 30
0.34938
 11
0.934928
 21
0.002368
 31
0.34938
 12
0.876074
 22
0.009958
 32
0.34938
 13
0.926705
 23
0.015279
 33
0.34938
  0
SOLID
  5
F1A
  8
0
 10
0.878499
 20
0.216933
 30
0.34938
 11
0.920883
 21
0.238987
 31
0.34938
 12
0.85985
 22
0.236725
 32
0.34938
 13
0.879064
 23
0.267827
 33
0.34938
  0
SOLID
  5
F1B
  8
0
 10
0.88415
 20
0.194313
 30
0.34938
 11
0.926534
 21
0.180741
 31
0.34938
 12
0.878499
 22
0.216933
 32
0.34938
 13
0.920883
 23
0.238987
 33
0.34938
  0
SOLID
  5
F1C
  8
0
 10
0.865126
 20
0.151636
 30
0.34938
 11
0.885986
 21
0.141911
 31
0.34938
 12
0.88415
 22
0.194313
 32
0.34938
 13
0.926534
 23
0.180741
 33
0.34938
  0
SOLID
  5
F1D
  8
0
 10
0.871006
 20
0.081775
 30
0.34938
 11
0.915289
 21
0.097284
 31
0.34938
 12
0.858459
 22
0.098762
 32
0.34938
 13
0.887981
 23
0.119441
 33
0.34938
  0
SOLID
  5
F1E
  8
0
 10
0.869912
 20
0.065481
 30
0.34938
 11
0.921776
 21
0.081179
 31
0.34938
 12
0.871006
 22
0.081775
 32
0.34938
 13
0.915289
 23
0.097284
 33
0.34938
  0
SOLID
  5
F1F
  8
0
 10
0.869912
 20
0.065481
 30
0.34938
 11
0.874125
 21
0.016303
 31
0.34938
 12
0.921776
 22
0.081179
 32
0.34938
 13
0.927759
 23
0.020455
 33
0.34938
  0
POLYLINE
  5
F20
  8
0
 66
     1
 10
0.0
 20
0.0
 30
0.34938
 40
0.010918
 41
0.010918
  0
VERTEX
  5
26D5
  8
0
 10
0.916343
 20
0.080643
 30
0.34938
 42
0.358135
  0
VERTEX
  5
26D6
  8
0
 10
0.869897
 20
0.127031
 30
0.34938
 42
0.358135
  0
SEQEND
  5
26D7
  8
0
  0
POLYLINE
  5
F24
  8
0
 66
     1
 10
0.0
 20
0.0
 30
0.34938
 40
0.010918
 41
0.010918
  0
VERTEX
  5
26D8
  8
0
 10
0.869751
 20
0.137882
 30
0.34938
 42
0.939934
  0
VERTEX
  5
26D9
  8
0
 10
0.861571
 20
0.269862
 30
0.34938
 42
0.939934
  0
SEQEND
  5
26DA
  8
0
  0
SOLID
  5
F28
  8
0
 10
0.865126
 20
0.151636
 30
0.34938
 11
0.885986
 21
0.141911
 31
0.34938
 12
0.836424
 22
0.152601
 32
0.34938
 13
0.870426
 23
0.132465
 33
0.34938
  0
SOLID
  5
F29
  8
0
 10
0.85985
 20
0.236725
 30
0.34938
 11
0.879064
 21
0.267827
 31
0.34938
 12
0.836424
 22
0.233709
 32
0.34938
 13
0.861571
 23
0.275321
 33
0.34938
  0
SOLID
  5
F2A
  8
0
 10
0.843648
 20
0.113502
 30
0.34938
 11
0.870426
 21
0.132465
 31
0.34938
 12
0.819831
 22
0.111455
 32
0.34938
 13
0.836424
 23
0.152601
 33
0.34938
  0
SOLID
  5
F2B
  8
0
 10
0.858459
 20
0.098762
 30
0.34938
 11
0.887981
 21
0.119441
 31
0.34938
 12
0.843648
 22
0.113502
 32
0.34938
 13
0.870426
 23
0.132465
 33
0.34938
  0
SOLID
  5
F2C
  8
0
 10
0.766667
 20
0.152601
 30
0.34938
 11
0.766667
 21
0.111455
 31
0.34938
 12
0.836424
 22
0.152601
 32
0.34938
 13
0.819831
 23
0.111455
 33
0.34938
  0
SOLID
  5
F2D
  8
0
 10
0.766667
 20
0.233709
 30
0.34938
 11
0.766667
 21
0.269374
 31
0.34938
 12
0.836424
 22
0.233709
 32
0.34938
 13
0.861571
 23
0.275321
 33
0.34938
  0
POLYLINE
  5
F2E
  8
0
 66
     1
 10
0.0
 20
0.0
 30
0.34938
 40
0.010918
 41
0.010918
  0
VERTEX
  5
26DB
  8
0
 10
0.836424
 20
0.147142
 30
0.34938
 42
1.0
  0
VERTEX
  5
26DC
  8
0
 10
0.836424
 20
0.239168
 30
0.34938
 42
1.0
  0
SEQEND
  5
26DD
  8
0
  0
SOLID
  5
F32
  8
0
 10
0.70768
 20
0.149904
 30
0.34938
 11
0.660195
 21
0.154503
 31
0.34938
 12
0.684704
 22
0.227311
 32
0.34938
 13
0.644111
 23
0.208151
 33
0.34938
  0
POLYLINE
  5
F33
  8
0
 66
     1
 10
0.0
 20
0.0
 30
0.34938
 40
0.010918
 41
0.010918
  0
VERTEX
  5
26DE
  8
0
 10
0.861571
 20
0.269862
 30
0.34938
  0
VERTEX
  5
26DF
  8
0
 10
0.710907
 20
0.269862
 30
0.34938
  0
SEQEND
  5
26E0
  8
0
  0
POLYLINE
  5
F37
  8
0
 66
     1
 10
0.0
 20
0.0
 30
0.34938
 40
0.010918
 41
0.010918
  0
VERTEX
  5
26E1
  8
0
 10
0.879564
 20
0.016769
 30
0.34938
 42
0.114836
  0
VERTEX
  5
26E2
  8
0
 10
0.883327
 20
0.005188
 30
0.34938
 42
0.114836
  0
SEQEND
  5
26E3
  8
0
  0
SOLID
  5
F3B
  8
0
 10
0.690831
 20
0.068666
 30
0.34938
 11
0.658663
 21
0.102387
 31
0.34938
 12
0.70768
 22
0.149904
 32
0.34938
 13
0.660195
 23
0.154503
 33
0.34938
  0
POLYLINE
  5
F3C
  8
0
 66
     1
 10
0.0
 20
0.0
 30
0.34938
 40
0.010918
 41
0.010918
  0
VERTEX
  5
26E4
  8
0
 10
0.700334
 20
0.095097
 30
0.34938
 42
0.140695
  0
VERTEX
  5
26E5
  8
0
 10
0.698301
 20
0.191392
 30
0.34938
 42
0.140695
  0
SEQEND
  5
26E6
  8
0
  0
POLYLINE
  5
F40
  8
0
 66
     1
 10
0.0
 20
0.0
 30
0.34938
 40
0.010918
 41
0.010918
  0
VERTEX
  5
26E7
  8
0
 10
0.875351
 20
0.065947
 30
0.34938
 42
0.389398
  0
VERTEX
  5
26E8
  8
0
 10
0.819831
 20
0.116914
 30
0.34938
 42
0.389398
  0
SEQEND
  5
26E9
  8
0
  0
SOLID
  5
F44
  8
0
 10
0.710907
 20
0.002368
 30
0.34938
 11
0.710907
 21
0.275321
 31
0.34938
 12
0.766667
 22
0.002368
 32
0.34938
 13
0.766667
 23
0.269374
 33
0.34938
  0
POLYLINE
  5
F45
  8
0
 66
     1
 10
0.0
 20
0.0
 30
0.34938
 40
0.010918
 41
0.010918
  0
VERTEX
  5
26EA
  8
0
 10
0.922326
 20
0.019919
 30
0.34938
 42
0.095067
  0
VERTEX
  5
26EB
  8
0
 10
0.926686
 20
0.005189
 30
0.34938
 42
0.140492
  0
SEQEND
  5
26EC
  8
0
  0
LINE
  5
F49
  8
0
 10
0.933253
 20
0.275321
 30
0.34938
 11
0.933253
 21
0.002368
 31
0.34938
  0
POLYLINE
  5
F4A
  8
0
 66
     1
 10
0.0
 20
0.0
 30
0.34938
  0
VERTEX
  5
26ED
  8
0
 10
1.124416
 20
0.04877
 30
0.34938
  0
VERTEX
  5
26EE
  8
0
 10
1.204842
 20
0.275321
 30
0.34938
  0
VERTEX
  5
26EF
  8
0
 10
1.266256
 20
0.275321
 30
0.34938
  0
VERTEX
  5
26F0
  8
0
 10
1.356301
 20
0.021673
 30
0.34938
  0
SEQEND
  5
26F1
  8
0
  0
POLYLINE
  5
F50
  8
0
 66
     1
 10
0.0
 20
0.0
 30
0.34938
  0
VERTEX
  5
26F2
  8
0
 10
1.287756
 20
0.061053
 30
0.34938
  0
VERTEX
  5
26F3
  8
0
 10
1.183342
 20
0.061053
 30
0.34938
  0
VERTEX
  5
26F4
  8
0
 10
1.165263
 20
0.002368
 30
0.34938
  0
VERTEX
  5
26F5
  8
0
 10
1.107943
 20
0.002368
 30
0.34938
  0
SEQEND
  5
26F6
  8
0
  0
LINE
  5
F56
  8
0
 10
1.195955
 20
0.101996
 30
0.34938
 11
1.275143
 21
0.101996
 31
0.34938
  0
LINE
  5
F57
  8
0
 10
1.275143
 20
0.101996
 30
0.34938
 11
1.235549
 21
0.230521
 31
0.34938
  0
LINE
  5
F58
  8
0
 10
1.235549
 20
0.230521
 30
0.34938
 11
1.195955
 21
0.101996
 31
0.34938
  0
LINE
  5
F59
  8
0
 10
1.124416
 20
0.04877
 30
0.34938
 11
0.990573
 21
0.04877
 31
0.34938
  0
LINE
  5
F5A
  8
0
 10
0.990573
 20
0.04877
 30
0.34938
 11
0.990573
 21
0.275321
 31
0.34938
  0
ARC
  5
F5B
  8
0
 10
1.47913
 20
0.249391
 30
0.34938
 40
0.111232
 50
295.378395
 51
313.157563
  0
ARC
  5
F5C
  8
0
 10
1.488851
 20
0.058557
 30
0.34938
 40
0.097985
 50
41.821431
 51
67.21117
  0
ARC
  5
F5D
  8
0
 10
1.483826
 20
0.163076
 30
0.34938
 40
0.112245
 50
58.670206
 51
90.0
  0
ARC
  5
F5E
  8
0
 10
1.488684
 20
0.118086
 30
0.34938
 40
0.115718
 50
270.0
 51
297.452648
  0
LINE
  5
F5F
  8
0
 10
1.479912
 20
0.234378
 30
0.34938
 11
1.410892
 21
0.234378
 31
0.34938
  0
LINE
  5
F60
  8
0
 10
1.410892
 20
0.234378
 30
0.34938
 11
1.410892
 21
0.16614
 31
0.34938
  0
LINE
  5
F61
  8
0
 10
1.410892
 20
0.16614
 30
0.34938
 11
1.479912
 21
0.16614
 31
0.34938
  0
ARC
  5
F62
  8
0
 10
1.479912
 20
0.200259
 30
0.34938
 40
0.034119
 50
270.0
 51
90.000005
  0
LINE
  5
F63
  8
0
 10
1.483439
 20
0.123832
 30
0.34938
 11
1.410892
 21
0.123832
 31
0.34938
  0
LINE
  5
F64
  8
0
 10
1.483826
 20
0.275321
 30
0.34938
 11
1.356301
 21
0.275321
 31
0.34938
  0
LINE
  5
F65
  8
0
 10
1.410892
 20
0.044676
 30
0.34938
 11
1.476401
 21
0.044676
 31
0.34938
  0
ARC
  5
F66
  8
0
 10
1.476401
 20
0.093136
 30
0.34938
 40
0.04846
 50
270.0
 51
313.227508
  0
POLYLINE
  5
F67
  8
0
 66
     1
 10
0.0
 20
0.0
 30
0.34938
  0
VERTEX
  5
26F7
  8
0
 10
1.363154
 20
0.002368
 30
0.34938
  0
VERTEX
  5
26F8
  8
0
 10
1.305834
 20
0.002368
 30
0.34938
  0
VERTEX
  5
26F9
  8
0
 10
1.287756
 20
0.061053
 30
0.34938
  0
SEQEND
  5
26FA
  8
0
  0
LINE
  5
F6C
  8
0
 10
1.356301
 20
0.002368
 30
0.34938
 11
1.488684
 21
0.002368
 31
0.34938
  0
LINE
  5
F6D
  8
0
 10
1.356301
 20
0.275321
 30
0.34938
 11
1.356301
 21
0.021673
 31
0.34938
  0
LINE
  5
F6E
  8
0
 10
1.410892
 20
0.123832
 30
0.34938
 11
1.410892
 21
0.044676
 31
0.34938
  0
ARC
  5
F6F
  8
0
 10
1.483439
 20
0.085648
 30
0.34938
 40
0.038184
 50
313.227508
 51
90.0
  0
ARC
  5
F70
  8
0
 10
1.509849
 20
0.077346
 30
0.34938
 40
0.069808
 50
5.797667
 51
41.821431
  0
ARC
  5
F71
  8
0
 10
1.510244
 20
0.206477
 30
0.34938
 40
0.061436
 50
358.653261
 51
58.670206
  0
ARC
  5
F72
  8
0
 10
1.519575
 20
0.206257
 30
0.34938
 40
0.052103
 50
313.157563
 51
358.653261
  0
ARC
  5
F73
  8
0
 10
1.509849
 20
0.077346
 30
0.34938
 40
0.069808
 50
297.452648
 51
341.332312
  0
POLYLINE
  5
F74
  8
0
 66
     1
 10
0.0
 20
0.0
 30
0.34938
 40
0.005136
 41
0.005136
  0
VERTEX
  5
26FB
  8
0
 10
1.875604
 20
0.25848
 30
0.34938
 42
0.342627
  0
VERTEX
  5
26FC
  8
0
 10
1.850842
 20
0.232147
 30
0.34938
 42
0.294281
  0
VERTEX
  5
26FD
  8
0
 10
1.868487
 20
0.198078
 30
0.34938
 42
0.273538
  0
VERTEX
  5
26FE
  8
0
 10
1.932709
 20
0.198947
 30
0.34938
 42
0.20817
  0
VERTEX
  5
26FF
  8
0
 10
1.949032
 20
0.222163
 30
0.34938
 42
0.418985
  0
VERTEX
  5
2700
  8
0
 10
1.923866
 20
0.25965
 30
0.34938
 42
0.418985
  0
SEQEND
  5
2701
  8
0
  0
SOLID
  5
F7C
  8
0
 10
1.836454
 20
0.072473
 30
0.34938
 11
1.964849
 21
0.153314
 31
0.34938
 12
1.836464
 22
0.046743
 32
0.34938
 13
1.964852
 23
0.1264
 33
0.34938
  0
SOLID
  5
F7D
  8
0
 10
1.836454
 20
0.154005
 30
0.34938
 11
1.964852
 21
0.154005
 31
0.34938
 12
1.836454
 22
0.127042
 32
0.34938
 13
1.964852
 23
0.127042
 33
0.34938
  0
SOLID
  5
F7E
  8
0
 10
1.964852
 20
0.044868
 30
0.34938
 11
1.836454
 21
0.044868
 31
0.34938
 12
1.964852
 22
0.071831
 32
0.34938
 13
1.836454
 23
0.071831
 33
0.34938
  0
SOLID
  5
F7F
  8
0
 10
1.836454
 20
-0.004565
 30
0.34938
 11
1.836454
 21
0.022398
 31
0.34938
 12
1.964852
 22
-0.004565
 32
0.34938
 13
1.964852
 23
0.022398
 33
0.34938
  0
SOLID
  5
F80
  8
0
 10
1.878119
 20
0.192202
 30
0.34938
 11
1.864941
 21
0.176447
 31
0.34938
 12
1.904474
 22
0.190086
 32
0.34938
 13
1.905886
 23
0.168216
 33
0.34938
  0
POLYLINE
  5
F81
  8
0
 66
     1
 10
0.0
 20
0.0
 30
0.34938
 40
0.005136
 41
0.005136
  0
VERTEX
  5
2702
  8
0
 10
1.872741
 20
0.174151
 30
0.34938
 42
0.270661
  0
VERTEX
  5
2703
  8
0
 10
1.945662
 20
0.185515
 30
0.34938
 42
0.270661
  0
SEQEND
  5
2704
  8
0
  0
POLYLINE
  5
F85
  8
0
 66
     1
 10
0.0
 20
0.0
 30
0.34938
 40
0.005136
 41
0.005136
  0
VERTEX
  5
2705
  8
0
 10
1.875529
 20
0.278407
 30
0.34938
 42
0.284121
  0
VERTEX
  5
2706
  8
0
 10
1.838437
 20
0.247379
 30
0.34938
 42
0.288845
  0
SEQEND
  5
2707
  8
0
  0
SOLID
  5
F89
  8
0
 10
1.853646
 20
0.21172
 30
0.34938
 11
1.838115
 21
0.205371
 31
0.34938
 12
1.878119
 22
0.192202
 32
0.34938
 13
1.864941
 23
0.176447
 33
0.34938
  0
SOLID
  5
F8A
  8
0
 10
1.851058
 20
0.238999
 30
0.34938
 11
1.836233
 21
0.245113
 31
0.34938
 12
1.853646
 22
0.21172
 32
0.34938
 13
1.838115
 23
0.205371
 33
0.34938
  0
SOLID
  5
F8B
  8
0
 10
1.867059
 20
0.256165
 30
0.34938
 11
1.854117
 21
0.270275
 31
0.34938
 12
1.851058
 22
0.238999
 32
0.34938
 13
1.836233
 23
0.245113
 33
0.34938
  0
POLYLINE
  5
F8C
  8
0
 66
     1
 10
0.0
 20
0.0
 30
0.34938
 40
0.005136
 41
0.005136
  0
VERTEX
  5
2708
  8
0
 10
1.838437
 20
0.247379
 30
0.34938
 42
0.398621
  0
VERTEX
  5
2709
  8
0
 10
1.872741
 20
0.174151
 30
0.34938
 42
0.398621
  0
SEQEND
  5
270A
  8
0
  0
SOLID
  5
F90
  8
0
 10
1.872479
 20
0.257553
 30
0.34938
 11
1.870809
 21
0.279779
 31
0.34938
 12
1.876003
 22
0.255943
 32
0.34938
 13
1.876003
 23
0.281062
 33
0.34938
  0
SOLID
  5
F91
  8
0
 10
1.867059
 20
0.256165
 30
0.34938
 11
1.854117
 21
0.270275
 31
0.34938
 12
1.872479
 22
0.257553
 32
0.34938
 13
1.870809
 23
0.279779
 33
0.34938
  0
SOLID
  5
F92
  8
0
 10
1.926919
 20
0.257989
 30
0.34938
 11
1.92965
 21
0.281568
 31
0.34938
 12
1.923391
 22
0.257126
 32
0.34938
 13
1.923391
 23
0.283097
 33
0.34938
  0
POLYLINE
  5
F93
  8
0
 66
     1
 10
0.0
 20
0.0
 30
0.34938
 40
0.005136
 41
0.005136
  0
VERTEX
  5
270B
  8
0
 10
1.960118
 20
0.253768
 30
0.34938
 42
0.261966
  0
VERTEX
  5
270C
  8
0
 10
1.923746
 20
0.280472
 30
0.34938
 42
0.265647
  0
SEQEND
  5
270D
  8
0
  0
SOLID
  5
F97
  8
0
 10
1.943043
 20
0.248492
 30
0.34938
 11
1.958902
 21
0.259144
 31
0.34938
 12
1.926919
 22
0.257989
 32
0.34938
 13
1.92965
 23
0.281568
 33
0.34938
  0
SOLID
  5
F98
  8
0
 10
1.949802
 20
0.226148
 30
0.34938
 11
1.966441
 21
0.217834
 31
0.34938
 12
1.943043
 22
0.248492
 32
0.34938
 13
1.958902
 23
0.259144
 33
0.34938
  0
SOLID
  5
F99
  8
0
 10
1.938623
 20
0.200947
 30
0.34938
 11
1.948242
 21
0.185098
 31
0.34938
 12
1.949802
 22
0.226148
 32
0.34938
 13
1.966441
 23
0.217834
 33
0.34938
  0
SOLID
  5
F9A
  8
0
 10
1.904474
 20
0.190086
 30
0.34938
 11
1.905886
 21
0.168216
 31
0.34938
 12
1.938623
 22
0.200947
 32
0.34938
 13
1.948242
 23
0.185098
 33
0.34938
  0
POLYLINE
  5
F9B
  8
0
 66
     1
 10
0.0
 20
0.0
 30
0.34938
 40
0.005136
 41
0.005136
  0
VERTEX
  5
270E
  8
0
 10
1.964592
 20
0.217581
 30
0.34938
 42
0.152191
  0
VERTEX
  5
270F
  8
0
 10
1.960118
 20
0.253768
 30
0.34938
 42
0.152191
  0
SEQEND
  5
2710
  8
0
  0
POLYLINE
  5
F9F
  8
0
 66
     1
 10
0.0
 20
0.0
 30
0.34938
 40
0.005136
 41
0.005136
  0
VERTEX
  5
2711
  8
0
 10
1.945662
 20
0.185515
 30
0.34938
 42
0.179001
  0
VERTEX
  5
2712
  8
0
 10
1.964592
 20
0.217581
 30
0.34938
 42
0.179001
  0
SEQEND
  5
2713
  8
0
  0
ENDBLK
  5
FA4
  8
0
  0
BLOCK
  8
0
  2
TOGGLE-TOP
 70
     0
 10
0.0
 20
0.0
 30
0.0
  3
TOGGLE-TOP
  1

  0
CIRCLE
  5
11B2
  8
0
 10
0.0
 20
0.0
 30
0.0
 40
0.119852
  0
LINE
  5
11B3
  8
0
 10
-0.0775
 20
0.134234
 30
0.0
 11
-0.155
 21
0.0
 31
0.0
  0
LINE
  5
11B4
  8
0
 10
0.155
 20
0.0
 30
0.0
 11
0.0775
 21
0.134234
 31
0.0
  0
LINE
  5
11B5
  8
0
 10
-0.0775
 20
-0.134234
 30
0.0
 11
0.0775
 21
-0.134234
 31
0.0
  0
ARC
  5
11B6
  8
0
 10
0.0
 20
0.0
 30
0.0
 40
0.092
 50
297.825437
 51
242.174563
  0
ARC
  5
11B7
  8
0
 10
0.0
 20
0.0
 30
0.0
 40
0.0625
 50
318.755237
 51
221.244763
  0
ARC
  5
11B8
  8
0
 10
0.0
 20
-0.057765
 30
0.0
 40
0.049
 50
171.036583
 51
8.963417
  0
ARC
  5
11B9
  8
0
 10
0.0
 20
0.0
 30
0.0
 40
0.04
 50
8.963417
 51
171.036583
  0
LINE
  5
11BA
  8
0
 10
-0.155
 20
0.0
 30
0.0
 11
-0.0775
 21
-0.134234
 31
0.0
  0
LINE
  5
11BB
  8
0
 10
-0.048402
 20
-0.050131
 30
0.0
 11
-0.039512
 21
0.006232
 31
0.0
  0
LINE
  5
11BC
  8
0
 10
0.0775
 20
-0.134234
 30
0.0
 11
0.155
 21
0.0
 31
0.0
  0
LINE
  5
11BD
  8
0
 10
0.039512
 20
0.006232
 30
0.0
 11
0.048402
 21
-0.050131
 31
0.0
  0
LINE
  5
11BE
  8
0
 10
0.0775
 20
0.134234
 30
0.0
 11
-0.0775
 21
0.134234
 31
0.0
  0
ENDBLK
  5
11BF
  8
0
  0
BLOCK
  8
0
  2
CE-MARK
 70
     0
 10
0.0
 20
0.0
 30
0.0
  3
CE-MARK
  1

  0
POLYLINE
  5
1BE2
  8
0
 66
     1
 10
0.0
 20
0.0
 30
0.0
 40
0.04
 41
0.04
  0
VERTEX
  5
2719
  8
0
 10
-0.036733
 20
0.083781
 30
0.0
 42
1.0
  0
VERTEX
  5
271A
  8
0
 10
-0.036733
 20
-0.086219
 30
0.0
 42
1.0
  0
SEQEND
  5
271B
  8
0
  0
POLYLINE
  5
1BE6
  8
0
 66
     1
 10
0.0
 20
0.0
 30
0.0
 40
0.04
 41
0.04
  0
VERTEX
  5
271C
  8
0
 10
0.029728
 20
-0.001189
 30
0.0
  0
VERTEX
  5
271D
  8
0
 10
0.119728
 20
-0.001189
 30
0.0
  0
SEQEND
  5
271E
  8
0
  0
POLYLINE
  5
1BEA
  8
0
 66
     1
 10
0.0
 20
0.0
 30
0.0
 40
0.04
 41
0.04
  0
VERTEX
  5
271F
  8
0
 10
0.133267
 20
0.083781
 30
0.0
 42
1.0
  0
VERTEX
  5
2720
  8
0
 10
0.133267
 20
-0.086219
 30
0.0
 42
1.0
  0
SEQEND
  5
2721
  8
0
  0
ENDBLK
  5
1BEF
  8
0
  0
BLOCK
  8
0
  2
*X8
 70
     1
 10
0.0
 20
0.0
 30
0.0
  3
*X8
  1

  0
LINE
  5
1FF5
  8
0
 62
     0
 10
8.994075
 20
12.466615
 30
0.0
 11
8.94787
 21
12.512821
 31
0.0
  0
LINE
  5
1FF6
  8
0
 62
     0
 10
8.94787
 20
12.512821
 30
0.0
 11
8.931575
 21
12.529115
 31
0.0
  0
LINE
  5
1FF7
  8
0
 62
     0
 10
8.994075
 20
12.43126
 30
0.0
 11
8.931575
 21
12.49376
 31
0.0
  0
LINE
  5
1FF8
  8
0
 62
     0
 10
8.994075
 20
12.395905
 30
0.0
 11
8.931575
 21
12.458405
 31
0.0
  0
LINE
  5
1FF9
  8
0
 62
     0
 10
8.994075
 20
12.360549
 30
0.0
 11
8.931575
 21
12.423049
 31
0.0
  0
LINE
  5
1FFA
  8
0
 62
     0
 10
8.994075
 20
12.325194
 30
0.0
 11
8.931575
 21
12.387694
 31
0.0
  0
LINE
  5
1FFB
  8
0
 62
     0
 10
8.994075
 20
12.289839
 30
0.0
 11
8.931575
 21
12.352339
 31
0.0
  0
LINE
  5
1FFC
  8
0
 62
     0
 10
8.994075
 20
12.254483
 30
0.0
 11
8.931575
 21
12.316983
 31
0.0
  0
LINE
  5
1FFD
  8
0
 62
     0
 10
8.991883
 20
12.221321
 30
0.0
 11
8.931575
 21
12.281628
 31
0.0
  0
LINE
  5
1FFE
  8
0
 62
     0
 10
8.956527
 20
12.221321
 30
0.0
 11
8.931575
 21
12.246273
 31
0.0
  0
LINE
  5
1FFF
  8
0
 62
     0
 10
8.994075
 20
12.042351
 30
0.0
 11
8.990106
 21
12.046321
 31
0.0
  0
LINE
  5
2000
  8
0
 62
     0
 10
8.994075
 20
12.006996
 30
0.0
 11
8.954751
 21
12.046321
 31
0.0
  0
LINE
  5
2001
  8
0
 62
     0
 10
8.994075
 20
11.971641
 30
0.0
 11
8.931575
 21
12.034141
 31
0.0
  0
LINE
  5
2002
  8
0
 62
     0
 10
8.994075
 20
11.936285
 30
0.0
 11
8.931575
 21
11.998785
 31
0.0
  0
LINE
  5
2003
  8
0
 62
     0
 10
8.994075
 20
11.90093
 30
0.0
 11
8.931575
 21
11.96343
 31
0.0
  0
LINE
  5
2004
  8
0
 62
     0
 10
8.994075
 20
11.865575
 30
0.0
 11
8.931575
 21
11.928075
 31
0.0
  0
LINE
  5
2005
  8
0
 62
     0
 10
8.994075
 20
11.830219
 30
0.0
 11
8.931575
 21
11.892719
 31
0.0
  0
LINE
  5
2006
  8
0
 62
     0
 10
8.994075
 20
11.794864
 30
0.0
 11
8.931575
 21
11.857364
 31
0.0
  0
LINE
  5
2007
  8
0
 62
     0
 10
8.990763
 20
11.762821
 30
0.0
 11
8.931575
 21
11.822009
 31
0.0
  0
LINE
  5
2008
  8
0
 62
     0
 10
8.955408
 20
11.762821
 30
0.0
 11
8.931575
 21
11.786653
 31
0.0
  0
LINE
  5
2009
  8
0
 62
     0
 10
8.994075
 20
12.501971
 30
0.0
 11
8.983226
 21
12.512821
 31
0.0
  0
LINE
  5
200A
  8
0
 62
     0
 10
8.983226
 20
12.512821
 30
0.0
 11
8.931575
 21
12.564471
 31
0.0
  0
LINE
  5
200B
  8
0
 62
     0
 10
8.994075
 20
12.537326
 30
0.0
 11
8.942581
 21
12.588821
 31
0.0
  0
LINE
  5
200C
  8
0
 62
     0
 10
8.994075
 20
12.572681
 30
0.0
 11
8.963575
 21
12.603181
 31
0.0
  0
LINE
  5
200D
  8
0
 62
     0
 10
8.994075
 20
12.608037
 30
0.0
 11
8.981792
 21
12.620321
 31
0.0
  0
LINE
  5
200E
  8
0
 62
     0
 10
8.994075
 20
12.996945
 30
0.0
 11
8.931575
 21
13.059445
 31
0.0
  0
LINE
  5
200F
  8
0
 62
     0
 10
8.994075
 20
13.032301
 30
0.0
 11
8.931575
 21
13.094801
 31
0.0
  0
LINE
  5
2010
  8
0
 62
     0
 10
8.994075
 20
13.067656
 30
0.0
 11
8.931575
 21
13.130156
 31
0.0
  0
LINE
  5
2011
  8
0
 62
     0
 10
8.994075
 20
13.103012
 30
0.0
 11
8.931575
 21
13.165512
 31
0.0
  0
LINE
  5
2012
  8
0
 62
     0
 10
8.994075
 20
13.138367
 30
0.0
 11
8.931575
 21
13.200867
 31
0.0
  0
LINE
  5
2013
  8
0
 62
     0
 10
8.994075
 20
13.173722
 30
0.0
 11
8.931575
 21
13.236222
 31
0.0
  0
LINE
  5
2014
  8
0
 62
     0
 10
8.994075
 20
13.209078
 30
0.0
 11
8.940332
 21
13.262821
 31
0.0
  0
LINE
  5
2015
  8
0
 62
     0
 10
8.994075
 20
13.244433
 30
0.0
 11
8.975688
 21
13.262821
 31
0.0
  0
ENDBLK
  5
2016
  8
0
  0
BLOCK
  8
0
  2
*X9
 70
     1
 10
0.0
 20
0.0
 30
0.0
  3
*X9
  1

  0
LINE
  5
21DE
  8
0
 62
     0
 10
9.146667
 20
13.141821
 30
0.0
 11
9.181575
 21
13.176729
 31
0.0
  0
LINE
  5
21DF
  8
0
 62
     0
 10
9.111312
 20
13.141821
 30
0.0
 11
9.181575
 21
13.212084
 31
0.0
  0
LINE
  5
21E0
  8
0
 62
     0
 10
9.075957
 20
13.141821
 30
0.0
 11
9.161957
 21
13.227821
 31
0.0
  0
LINE
  5
21E1
  8
0
 62
     0
 10
9.040601
 20
13.141821
 30
0.0
 11
9.126601
 21
13.227821
 31
0.0
  0
LINE
  5
21E2
  8
0
 62
     0
 10
9.005246
 20
13.141821
 30
0.0
 11
9.091246
 21
13.227821
 31
0.0
  0
LINE
  5
21E3
  8
0
 62
     0
 10
8.994075
 20
13.166005
 30
0.0
 11
9.055891
 21
13.227821
 31
0.0
  0
LINE
  5
21E4
  8
0
 62
     0
 10
8.994075
 20
13.201361
 30
0.0
 11
9.020535
 21
13.227821
 31
0.0
  0
LINE
  5
21E5
  8
0
 62
     0
 10
8.994075
 20
11.893213
 30
0.0
 11
8.999683
 21
11.898821
 31
0.0
  0
LINE
  5
21E6
  8
0
 62
     0
 10
8.994075
 20
11.857858
 30
0.0
 11
9.035038
 21
11.898821
 31
0.0
  0
LINE
  5
21E7
  8
0
 62
     0
 10
8.994075
 20
11.822503
 30
0.0
 11
9.070394
 21
11.898821
 31
0.0
  0
LINE
  5
21E8
  8
0
 62
     0
 10
8.994075
 20
11.787147
 30
0.0
 11
9.105749
 21
11.898821
 31
0.0
  0
LINE
  5
21E9
  8
0
 62
     0
 10
9.005104
 20
11.762821
 30
0.0
 11
9.141104
 21
11.898821
 31
0.0
  0
LINE
  5
21EA
  8
0
 62
     0
 10
9.04046
 20
11.762821
 30
0.0
 11
9.162075
 21
11.884437
 31
0.0
  0
LINE
  5
21EB
  8
0
 62
     0
 10
9.075815
 20
11.762821
 30
0.0
 11
9.162075
 21
11.849081
 31
0.0
  0
LINE
  5
21EC
  8
0
 62
     0
 10
9.11117
 20
11.762821
 30
0.0
 11
9.162075
 21
11.813726
 31
0.0
  0
LINE
  5
21ED
  8
0
 62
     0
 10
9.146526
 20
11.762821
 30
0.0
 11
9.162075
 21
11.778371
 31
0.0
  0
ENDBLK
  5
21EE
  8
0
  0
BLOCK
  8
0
  2
*X10
 70
     1
 10
0.0
 20
0.0
 30
0.0
  3
*X10
  1

  0
LINE
  5
2208
  8
0
 62
     0
 10
9.485221
 20
13.126821
 30
0.0
 11
9.535304
 21
13.176904
 31
0.0
  0
LINE
  5
2209
  8
0
 62
     0
 10
9.449865
 20
13.126821
 30
0.0
 11
9.525662
 21
13.202617
 31
0.0
  0
LINE
  5
220A
  8
0
 62
     0
 10
9.41451
 20
13.126821
 30
0.0
 11
9.516019
 21
13.22833
 31
0.0
  0
LINE
  5
220B
  8
0
 62
     0
 10
9.379155
 20
13.126821
 30
0.0
 11
9.506377
 21
13.254043
 31
0.0
  0
LINE
  5
220C
  8
0
 62
     0
 10
9.343799
 20
13.126821
 30
0.0
 11
9.479799
 21
13.262821
 31
0.0
  0
LINE
  5
220D
  8
0
 62
     0
 10
9.308444
 20
13.126821
 30
0.0
 11
9.444444
 21
13.262821
 31
0.0
  0
LINE
  5
220E
  8
0
 62
     0
 10
9.273089
 20
13.126821
 30
0.0
 11
9.409089
 21
13.262821
 31
0.0
  0
LINE
  5
220F
  8
0
 62
     0
 10
9.237733
 20
13.126821
 30
0.0
 11
9.373733
 21
13.262821
 31
0.0
  0
LINE
  5
2210
  8
0
 62
     0
 10
9.202378
 20
13.126821
 30
0.0
 11
9.338378
 21
13.262821
 31
0.0
  0
LINE
  5
2211
  8
0
 62
     0
 10
9.167023
 20
13.126821
 30
0.0
 11
9.303023
 21
13.262821
 31
0.0
  0
LINE
  5
2212
  8
0
 62
     0
 10
9.131667
 20
13.126821
 30
0.0
 11
9.146667
 21
13.141821
 31
0.0
  0
LINE
  5
2213
  8
0
 62
     0
 10
9.181575
 20
13.176729
 30
0.0
 11
9.267667
 21
13.262821
 31
0.0
  0
LINE
  5
2214
  8
0
 62
     0
 10
9.096312
 20
13.126821
 30
0.0
 11
9.111312
 21
13.141821
 31
0.0
  0
LINE
  5
2215
  8
0
 62
     0
 10
9.181575
 20
13.212084
 30
0.0
 11
9.232312
 21
13.262821
 31
0.0
  0
LINE
  5
2216
  8
0
 62
     0
 10
9.060957
 20
13.126821
 30
0.0
 11
9.075957
 21
13.141821
 31
0.0
  0
LINE
  5
2217
  8
0
 62
     0
 10
9.161957
 20
13.227821
 30
0.0
 11
9.196957
 21
13.262821
 31
0.0
  0
LINE
  5
2218
  8
0
 62
     0
 10
9.025601
 20
13.126821
 30
0.0
 11
9.040601
 21
13.141821
 31
0.0
  0
LINE
  5
2219
  8
0
 62
     0
 10
9.126601
 20
13.227821
 30
0.0
 11
9.161601
 21
13.262821
 31
0.0
  0
LINE
  5
221A
  8
0
 62
     0
 10
8.994075
 20
13.13065
 30
0.0
 11
9.005246
 21
13.141821
 31
0.0
  0
LINE
  5
221B
  8
0
 62
     0
 10
9.091246
 20
13.227821
 30
0.0
 11
9.126246
 21
13.262821
 31
0.0
  0
LINE
  5
221C
  8
0
 62
     0
 10
9.055891
 20
13.227821
 30
0.0
 11
9.090891
 21
13.262821
 31
0.0
  0
LINE
  5
221D
  8
0
 62
     0
 10
9.020535
 20
13.227821
 30
0.0
 11
9.055535
 21
13.262821
 31
0.0
  0
LINE
  5
221E
  8
0
 62
     0
 10
8.994075
 20
13.236716
 30
0.0
 11
9.02018
 21
13.262821
 31
0.0
  0
LINE
  5
221F
  8
0
 62
     0
 10
9.504648
 20
13.110892
 30
0.0
 11
9.544946
 21
13.151191
 31
0.0
  0
LINE
  5
2220
  8
0
 62
     0
 10
9.504648
 20
13.075537
 30
0.0
 11
9.554589
 21
13.125478
 31
0.0
  0
LINE
  5
2221
  8
0
 62
     0
 10
9.504648
 20
13.040182
 30
0.0
 11
9.554648
 21
13.090182
 31
0.0
  0
LINE
  5
2222
  8
0
 62
     0
 10
9.504648
 20
13.004826
 30
0.0
 11
9.554648
 21
13.054826
 31
0.0
  0
LINE
  5
2223
  8
0
 62
     0
 10
9.504648
 20
12.969471
 30
0.0
 11
9.554684
 21
13.019508
 31
0.0
  0
LINE
  5
2224
  8
0
 62
     0
 10
9.528353
 20
12.957821
 30
0.0
 11
9.572103
 21
13.001571
 31
0.0
  0
LINE
  5
2225
  8
0
 62
     0
 10
9.563708
 20
12.957821
 30
0.0
 11
9.610458
 21
13.004571
 31
0.0
  0
LINE
  5
2226
  8
0
 62
     0
 10
9.570648
 20
12.929405
 30
0.0
 11
9.645813
 21
13.004571
 31
0.0
  0
LINE
  5
2227
  8
0
 62
     0
 10
9.570648
 20
12.89405
 30
0.0
 11
9.654075
 21
12.977477
 31
0.0
  0
LINE
  5
2228
  8
0
 62
     0
 10
9.570648
 20
12.858694
 30
0.0
 11
9.654075
 21
12.942122
 31
0.0
  0
LINE
  5
2229
  8
0
 62
     0
 10
9.570648
 20
12.823339
 30
0.0
 11
9.654075
 21
12.906767
 31
0.0
  0
LINE
  5
222A
  8
0
 62
     0
 10
9.570648
 20
12.787984
 30
0.0
 11
9.654075
 21
12.871411
 31
0.0
  0
LINE
  5
222B
  8
0
 62
     0
 10
9.570648
 20
12.752628
 30
0.0
 11
9.654075
 21
12.836056
 31
0.0
  0
LINE
  5
222C
  8
0
 62
     0
 10
9.570648
 20
12.717273
 30
0.0
 11
9.654075
 21
12.800701
 31
0.0
  0
LINE
  5
222D
  8
0
 62
     0
 10
9.570648
 20
12.681918
 30
0.0
 11
9.654075
 21
12.765345
 31
0.0
  0
LINE
  5
222E
  8
0
 62
     0
 10
9.605906
 20
12.681821
 30
0.0
 11
9.654075
 21
12.72999
 31
0.0
  0
LINE
  5
222F
  8
0
 62
     0
 10
9.641261
 20
12.681821
 30
0.0
 11
9.654075
 21
12.694635
 31
0.0
  0
ENDBLK
  5
2230
  8
0
  0
BLOCK
  8
0
  2
*X11
 70
     1
 10
0.0
 20
0.0
 30
0.0
  3
*X11
  1

  0
LINE
  5
236A
  8
0
 62
     0
 10
9.326075
 20
11.87166
 30
0.0
 11
9.353236
 21
11.898821
 31
0.0
  0
LINE
  5
236B
  8
0
 62
     0
 10
9.570648
 20
12.116232
 30
0.0
 11
9.654075
 21
12.19966
 31
0.0
  0
LINE
  5
236C
  8
0
 62
     0
 10
9.504648
 20
12.050232
 30
0.0
 11
9.522236
 21
12.067821
 31
0.0
  0
LINE
  5
236D
  8
0
 62
     0
 10
9.570648
 20
12.151588
 30
0.0
 11
9.654075
 21
12.235015
 31
0.0
  0
LINE
  5
236E
  8
0
 62
     0
 10
9.570648
 20
12.186943
 30
0.0
 11
9.654075
 21
12.270371
 31
0.0
  0
LINE
  5
236F
  8
0
 62
     0
 10
9.570648
 20
12.222298
 30
0.0
 11
9.654075
 21
12.305726
 31
0.0
  0
LINE
  5
2370
  8
0
 62
     0
 10
9.570648
 20
12.257654
 30
0.0
 11
9.650445
 21
12.337451
 31
0.0
  0
LINE
  5
2371
  8
0
 62
     0
 10
9.570648
 20
12.293009
 30
0.0
 11
9.62146
 21
12.343821
 31
0.0
  0
LINE
  5
2372
  8
0
 62
     0
 10
9.570648
 20
12.328364
 30
0.0
 11
9.586104
 21
12.343821
 31
0.0
  0
LINE
  5
2373
  8
0
 62
     0
 10
9.326075
 20
11.836304
 30
0.0
 11
9.388592
 21
11.898821
 31
0.0
  0
LINE
  5
2374
  8
0
 62
     0
 10
9.570648
 20
12.080877
 30
0.0
 11
9.654075
 21
12.164304
 31
0.0
  0
LINE
  5
2375
  8
0
 62
     0
 10
9.504648
 20
12.014877
 30
0.0
 11
9.557592
 21
12.067821
 31
0.0
  0
LINE
  5
2376
  8
0
 62
     0
 10
9.326075
 20
11.800949
 30
0.0
 11
9.423947
 21
11.898821
 31
0.0
  0
LINE
  5
2377
  8
0
 62
     0
 10
9.504648
 20
11.979522
 30
0.0
 11
9.654075
 21
12.128949
 31
0.0
  0
LINE
  5
2378
  8
0
 62
     0
 10
9.326075
 20
11.765594
 30
0.0
 11
9.459302
 21
11.898821
 31
0.0
  0
LINE
  5
2379
  8
0
 62
     0
 10
9.574364
 20
12.013883
 30
0.0
 11
9.654075
 21
12.093594
 31
0.0
  0
LINE
  5
237A
  8
0
 62
     0
 10
9.504648
 20
11.944166
 30
0.0
 11
9.554648
 21
11.994166
 31
0.0
  0
LINE
  5
237B
  8
0
 62
     0
 10
9.358658
 20
11.762821
 30
0.0
 11
9.494658
 21
11.898821
 31
0.0
  0
LINE
  5
237C
  8
0
 62
     0
 10
9.606908
 20
12.011071
 30
0.0
 11
9.654075
 21
12.058238
 31
0.0
  0
LINE
  5
237D
  8
0
 62
     0
 10
9.504648
 20
11.908811
 30
0.0
 11
9.554648
 21
11.958811
 31
0.0
  0
LINE
  5
237E
  8
0
 62
     0
 10
9.394013
 20
11.762821
 30
0.0
 11
9.554648
 21
11.923456
 31
0.0
  0
LINE
  5
237F
  8
0
 62
     0
 10
9.642263
 20
12.011071
 30
0.0
 11
9.654075
 21
12.022883
 31
0.0
  0
LINE
  5
2380
  8
0
 62
     0
 10
9.429368
 20
11.762821
 30
0.0
 11
9.553316
 21
11.886768
 31
0.0
  0
LINE
  5
2381
  8
0
 62
     0
 10
9.464724
 20
11.762821
 30
0.0
 11
9.532102
 21
11.830199
 31
0.0
  0
LINE
  5
2382
  8
0
 62
     0
 10
9.500079
 20
11.762821
 30
0.0
 11
9.510889
 21
11.773631
 31
0.0
  0
ENDBLK
  5
2383
  8
0
  0
BLOCK
  8
0
  2
*X12
 70
     1
 10
0.0
 20
0.0
 30
0.0
  3
*X12
  1

  0
LINE
  5
24BC
  8
0
 62
     0
 10
10.483986
 20
13.029571
 30
0.0
 11
10.506613
 21
13.052198
 31
0.0
  0
LINE
  5
24BD
  8
0
 62
     0
 10
10.448631
 20
13.029571
 30
0.0
 11
10.506613
 21
13.087553
 31
0.0
  0
LINE
  5
24BE
  8
0
 62
     0
 10
10.413276
 20
13.029571
 30
0.0
 11
10.491526
 21
13.107821
 31
0.0
  0
LINE
  5
24BF
  8
0
 62
     0
 10
10.37792
 20
13.029571
 30
0.0
 11
10.45617
 21
13.107821
 31
0.0
  0
LINE
  5
24C0
  8
0
 62
     0
 10
10.342565
 20
13.029571
 30
0.0
 11
10.420815
 21
13.107821
 31
0.0
  0
LINE
  5
24C1
  8
0
 62
     0
 10
10.30721
 20
13.029571
 30
0.0
 11
10.38546
 21
13.107821
 31
0.0
  0
LINE
  5
24C2
  8
0
 62
     0
 10
10.271854
 20
13.029571
 30
0.0
 11
10.350104
 21
13.107821
 31
0.0
  0
LINE
  5
24C3
  8
0
 62
     0
 10
10.236499
 20
13.029571
 30
0.0
 11
10.314749
 21
13.107821
 31
0.0
  0
LINE
  5
24C4
  8
0
 62
     0
 10
10.226613
 20
13.05504
 30
0.0
 11
10.279394
 21
13.107821
 31
0.0
  0
LINE
  5
24C5
  8
0
 62
     0
 10
10.226613
 20
13.090396
 30
0.0
 11
10.244038
 21
13.107821
 31
0.0
  0
LINE
  5
24C6
  8
0
 62
     0
 10
10.226613
 20
11.99438
 30
0.0
 11
10.228304
 21
11.996071
 31
0.0
  0
LINE
  5
24C7
  8
0
 62
     0
 10
10.226613
 20
11.959025
 30
0.0
 11
10.263659
 21
11.996071
 31
0.0
  0
LINE
  5
24C8
  8
0
 62
     0
 10
10.226613
 20
11.92367
 30
0.0
 11
10.299014
 21
11.996071
 31
0.0
  0
LINE
  5
24C9
  8
0
 62
     0
 10
10.25612
 20
11.917821
 30
0.0
 11
10.33437
 21
11.996071
 31
0.0
  0
LINE
  5
24CA
  8
0
 62
     0
 10
10.291475
 20
11.917821
 30
0.0
 11
10.369725
 21
11.996071
 31
0.0
  0
LINE
  5
24CB
  8
0
 62
     0
 10
10.32683
 20
11.917821
 30
0.0
 11
10.40508
 21
11.996071
 31
0.0
  0
LINE
  5
24CC
  8
0
 62
     0
 10
10.362186
 20
11.917821
 30
0.0
 11
10.440436
 21
11.996071
 31
0.0
  0
LINE
  5
24CD
  8
0
 62
     0
 10
10.397541
 20
11.917821
 30
0.0
 11
10.475791
 21
11.996071
 31
0.0
  0
LINE
  5
24CE
  8
0
 62
     0
 10
10.432896
 20
11.917821
 30
0.0
 11
10.506613
 21
11.991538
 31
0.0
  0
LINE
  5
24CF
  8
0
 62
     0
 10
10.468252
 20
11.917821
 30
0.0
 11
10.506613
 21
11.956182
 31
0.0
  0
LINE
  5
24D0
  8
0
 62
     0
 10
10.503607
 20
11.917821
 30
0.0
 11
10.506613
 21
11.920827
 31
0.0
  0
ENDBLK
  5
24D1
  8
0
  0
BLOCK
  8
0
  2
COPYRIGHT99
 70
     0
 10
0.0
 20
0.0
 30
0.0
  3
COPYRIGHT99
  1

  0
TEXT
  8
0
  40
0.25
  5
2743
  72
0
  71
0
 10
0.0258730
 20
-0.00195500
 30
0.000000
  1
COPYRIGHT У 1999 by THORLABS INC.
  0
ENDBLK
  5
2615
  8
0
  0
ENDSEC
  0
SECTION
  2
ENTITIES
  0
INSERT
  5
69F
  8
BODY
  2
BNC-SIDE
 10
8.931575
 20
12.807821
 30
0.0
 50
180.0
1001
ACAD
1000
ASC_BOUNDS
1002
{
1070
    19
1002
}
  0
INSERT
  5
6C6
  8
BODY
  2
TOGGLE-SIDE
 10
8.994075
 20
12.133821
 30
0.0
1001
ACAD
1000
ASC_BOUNDS
1002
{
1070
    19
1002
}
  0
POLYLINE
  5
6C9
  8
BODY
 66
     1
 10
0.0
 20
0.0
 30
0.0
 70
     1
  0
VERTEX
  5
2692
  8
BODY
 10
9.407067
 20
12.337821
 30
0.0
  0
VERTEX
  5
2693
  8
BODY
 10
9.407067
 20
12.687821
 30
0.0
  0
VERTEX
  5
2694
  8
BODY
 10
9.532067
 20
12.687821
 30
0.0
  0
VERTEX
  5
2695
  8
BODY
 10
9.532067
 20
12.337821
 30
0.0
  0
SEQEND
  5
2696
  8
BODY
  0
LINE
  5
72A
  8
BODY
 10
9.532067
 20
12.333821
 30
0.0
 11
9.532067
 21
12.691821
 31
0.0
  0
LINE
  5
72B
  8
BODY
 10
9.552067
 20
12.691821
 30
0.0
 11
9.552067
 21
12.333821
 31
0.0
  0
LINE
  5
72C
  8
BODY
 10
9.693067
 20
12.353321
 30
0.0
 11
9.552067
 21
12.353321
 31
0.0
  0
LINE
  5
72D
  8
BODY
 10
9.552067
 20
12.672321
 30
0.0
 11
9.693067
 21
12.672321
 31
0.0
  0
LINE
  5
72E
  8
BODY
 10
9.532067
 20
12.691821
 30
0.0
 11
9.552067
 21
12.691821
 31
0.0
  0
LINE
  5
72F
  8
BODY
 10
9.552067
 20
12.353321
 30
0.0
 11
9.552067
 21
12.672321
 31
0.0
  0
LINE
  5
730
  8
BODY
 10
9.621996
 20
12.583821
 30
0.0
 11
9.621996
 21
12.441821
 31
0.0
  0
LINE
  5
731
  8
BODY
 10
9.642067
 20
12.441821
 30
0.0
 11
9.642067
 21
12.583821
 31
0.0
  0
LINE
  5
732
  8
BODY
 10
9.693067
 20
12.672321
 30
0.0
 11
9.693067
 21
12.353321
 31
0.0
  0
LINE
  5
733
  8
BODY
 10
9.642067
 20
12.583821
 30
0.0
 11
9.621996
 21
12.583821
 31
0.0
  0
LINE
  5
734
  8
BODY
 10
9.642067
 20
12.441821
 30
0.0
 11
9.621996
 21
12.441821
 31
0.0
  0
LINE
  5
736
  8
BODY
 10
9.312496
 20
12.403821
 30
0.0
 11
9.312496
 21
12.421821
 31
0.0
  0
POLYLINE
  5
737
  8
BODY
 66
     1
 10
0.0
 20
0.0
 30
0.0
  0
VERTEX
  5
2697
  8
BODY
 10
9.312496
 20
12.421821
 30
0.0
  0
VERTEX
  5
2698
  8
BODY
 10
9.532067
 20
12.421821
 30
0.0
  0
VERTEX
  5
2699
  8
BODY
 10
9.532067
 20
12.403821
 30
0.0
  0
VERTEX
  5
269A
  8
BODY
 10
9.312496
 20
12.403821
 30
0.0
  0
SEQEND
  5
269B
  8
BODY
  0
POLYLINE
  5
73D
  8
BODY
 66
     1
 10
0.0
 20
0.0
 30
0.0
  0
VERTEX
  5
269C
  8
BODY
 10
9.312496
 20
12.621821
 30
0.0
  0
VERTEX
  5
269D
  8
BODY
 10
9.532067
 20
12.621821
 30
0.0
  0
VERTEX
  5
269E
  8
BODY
 10
9.532067
 20
12.603821
 30
0.0
  0
VERTEX
  5
269F
  8
BODY
 10
9.312496
 20
12.603821
 30
0.0
  0
SEQEND
  5
26A0
  8
BODY
  0
LINE
  5
743
  8
BODY
 10
9.312496
 20
12.603821
 30
0.0
 11
9.312496
 21
12.621821
 31
0.0
  0
LINE
  5
747
  8
0
 10
9.554648
 20
13.125321
 30
0.0
 11
9.554648
 21
13.019571
 31
0.0
1001
ACAD
1000
ASC_BOUNDS
1002
{
1070
    19
1005
2207
1005
21DD
1002
}
  0
LINE
  5
748
  8
0
 10
9.504648
 20
13.126821
 30
0.0
 11
9.504648
 21
12.957821
 31
0.0
1001
ACAD
1000
ASC_BOUNDS
1002
{
1070
    19
1005
2207
1005
21DD
1002
}
  0
LINE
  5
750
  8
BODY
 10
8.931575
 20
11.762821
 30
0.0
 11
8.931575
 21
13.262821
 31
0.0
1001
ACAD
1000
ASC_BOUNDS
1002
{
1070
    19
1002
}
  0
LINE
  5
751
  8
BODY
 10
8.994075
 20
11.762821
 30
0.0
 11
8.994075
 21
13.262821
 31
0.0
1001
ACAD
1000
ASC_BOUNDS
1002
{
1070
    19
1002
}
  0
POLYLINE
  5
754
  8
BODY
 66
     1
 10
0.0
 20
0.0
 30
0.0
 70
     1
1001
ACAD
1000
ASC_BOUNDS
1002
{
1070
    19
1002
}
  0
VERTEX
  5
26A1
  8
BODY
 10
8.888575
 20
11.975321
 30
0.0
  0
VERTEX
  5
26A2
  8
BODY
 10
8.888575
 20
12.292321
 30
0.0
  0
VERTEX
  5
26A3
  8
BODY
 10
8.931575
 20
12.292321
 30
0.0
  0
VERTEX
  5
26A4
  8
BODY
 10
8.931575
 20
11.975321
 30
0.0
  0
SEQEND
  5
26A5
  8
BODY
  0
LINE
  5
75E
  8
0
 10
9.554648
 20
13.125321
 30
0.0
 11
9.503085
 21
13.262821
 31
0.0
1001
ACAD
1000
ASC_BOUNDS
1002
{
1070
    19
1005
2207
1005
21DD
1002
}
  0
CIRCLE
  5
76C
  8
BODY
 10
14.327226
 20
12.507821
 30
0.0
 40
0.1595
  0
CIRCLE
  5
773
  8
BODY
 10
14.327226
 20
12.507821
 30
0.0
 40
0.127651
  0
POLYLINE
  5
774
  8
BODY
 66
     1
 10
0.0
 20
0.0
 30
0.0
 70
     1
  0
VERTEX
  5
26A6
  8
BODY
 10
14.256226
 20
12.436821
 30
0.0
  0
VERTEX
  5
26A7
  8
BODY
 10
14.256226
 20
12.578821
 30
0.0
  0
VERTEX
  5
26A8
  8
BODY
 10
14.398226
 20
12.578821
 30
0.0
  0
VERTEX
  5
26A9
  8
BODY
 10
14.398226
 20
12.436821
 30
0.0
  0
SEQEND
  5
26AA
  8
BODY
  0
POLYLINE
  5
907
  8
BODY
 66
     1
 10
0.0
 20
0.0
 30
0.0
 70
     1
  0
VERTEX
  5
26AB
  8
BODY
 10
8.994075
 20
12.522821
 30
0.0
  0
VERTEX
  5
26AC
  8
BODY
 10
8.994075
 20
13.092821
 30
0.0
  0
VERTEX
  5
26AD
  8
BODY
 10
9.094075
 20
13.092821
 30
0.0
  0
VERTEX
  5
26AE
  8
BODY
 10
9.094075
 20
12.522821
 30
0.0
  0
SEQEND
  5
26AF
  8
BODY
  0
LINE
  5
11DA
  8
0
 10
9.181575
 20
13.217821
 30
0.0
 11
8.994075
 21
13.217821
 31
0.0
  0
LINE
  5
11DB
  8
0
 10
9.181575
 20
13.151821
 30
0.0
 11
8.994075
 21
13.151821
 31
0.0
  0
LINE
  5
11DC
  8
0
  6
HIDDEN
 10
9.181575
 20
13.227821
 30
0.0
 11
8.994075
 21
13.227821
 31
0.0
1001
ACAD
1000
ASC_BOUNDS
1002
{
1070
    19
1005
2207
1005
21DD
1002
}
  0
LINE
  5
11DD
  8
0
  6
HIDDEN
 10
9.181575
 20
13.141821
 30
0.0
 11
8.994075
 21
13.141821
 31
0.0
1001
ACAD
1000
ASC_BOUNDS
1002
{
1070
    19
1005
2207
1005
21DD
1002
}
  0
LINE
  5
125A
  8
0
 39
0.18
 10
9.647004
 20
13.016642
 30
0.0
 11
9.644075
 21
13.019571
 31
0.0
  0
LINE
  5
125B
  8
0
 39
0.18
 10
9.554648
 20
13.019571
 30
0.0
 11
9.56504
 21
13.001571
 31
0.0
1001
ACAD
1000
ASC_BOUNDS
1002
{
1070
    19
1005
2207
1005
21DD
1002
}
  0
LINE
  5
125C
  8
0
 39
0.18
 10
9.584648
 20
13.019571
 30
0.0
 11
9.574256
 21
13.001571
 31
0.0
1001
ACAD
1000
ASC_BOUNDS
1002
{
1070
    19
1005
2207
1005
21DD
1002
}
  0
LINE
  5
125D
  8
0
 39
0.18
 10
9.56504
 20
13.001571
 30
0.0
 11
9.574256
 21
13.001571
 31
0.0
1001
ACAD
1000
ASC_BOUNDS
1002
{
1070
    19
1005
2207
1005
21DD
1002
}
  0
LINE
  5
1260
  8
0
  6
CONTINUOUS
 39
0.18
 10
9.644075
 20
13.019571
 30
0.0
 11
9.584648
 21
13.019571
 31
0.0
  0
LINE
  5
1263
  8
0
  6
HIDDEN
 39
0.18
 10
9.575988
 20
13.004571
 30
0.0
 11
9.652004
 21
13.004571
 31
0.0
1001
ACAD
1000
ASC_BOUNDS
1002
{
1070
    19
1005
2207
1005
21DD
1002
}
  0
LINE
  5
1370
  8
D1
  6
CENTER
 10
9.244075
 20
12.091935
 30
0.0
 11
9.244075
 21
11.56894
 31
0.0
1001
ACAD
1000
ASC_BOUNDS
1002
{
1070
    19
1002
}
  0
LINE
  5
1371
  8
0
 10
9.309075
 20
11.898821
 30
0.0
 11
9.309075
 21
11.762821
 31
0.0
1001
ACAD
1000
ASC_BOUNDS
1002
{
1070
    19
1002
}
  0
LINE
  5
1372
  8
0
 10
9.179075
 20
11.898821
 30
0.0
 11
9.179075
 21
11.762821
 31
0.0
1001
ACAD
1000
ASC_BOUNDS
1002
{
1070
    19
1002
}
  0
LINE
  5
1373
  8
0
  6
HIDDEN
 10
9.326075
 20
11.898821
 30
0.0
 11
9.326075
 21
11.762821
 31
0.0
1001
ACAD
1000
ASC_BOUNDS
1002
{
1070
    19
1005
21DD
1005
2369
1002
}
  0
LINE
  5
1374
  8
0
  6
HIDDEN
 10
9.162075
 20
11.898821
 30
0.0
 11
9.162075
 21
11.762821
 31
0.0
1001
ACAD
1000
ASC_BOUNDS
1002
{
1070
    19
1005
21DD
1002
}
  0
CIRCLE
  5
14A2
  8
0
 10
6.920274
 20
13.184821
 30
0.0
 40
0.03335
  0
CIRCLE
  5
14A3
  8
0
 10
6.920274
 20
13.184821
 30
0.0
 40
0.043
  0
ARC
  5
14A8
  8
0
 10
6.920274
 20
12.507821
 30
0.0
 40
0.75
 50
279.366789
 51
260.633211
  0
CIRCLE
  5
14CD
  8
0
 10
14.327226
 20
12.507821
 30
0.0
 40
0.19375
  0
CIRCLE
  5
14D2
  8
0
  6
HIDDEN
 10
14.327226
 20
12.507821
 30
0.0
 40
0.49675
  0
CIRCLE
  5
14D3
  8
0
 10
14.327226
 20
12.507821
 30
0.0
 40
0.51175
  0
CIRCLE
  5
14D4
  8
0
 10
14.327226
 20
12.507821
 30
0.0
 40
0.6125
  0
LINE
  5
14D7
  8
0
 10
14.449291
 20
11.767821
 30
0.0
 11
14.20516
 21
11.767821
 31
0.0
  0
LINE
  5
14DA
  8
0
 10
9.644075
 20
12.681821
 30
0.0
 11
9.654075
 21
12.691821
 31
0.0
1001
ACAD
1000
ASC_BOUNDS
1002
{
1070
    19
1005
2207
1005
21DD
1002
}
  0
LINE
  5
14DC
  8
0
 10
9.647004
 20
13.016642
 30
0.0
 11
9.654075
 21
12.999571
 31
0.0
1001
ACAD
1000
ASC_BOUNDS
1002
{
1070
    19
1005
2207
1005
21DD
1002
}
  0
LINE
  5
14DF
  8
0
 10
7.04234
 20
11.767821
 30
0.0
 11
6.798209
 21
11.767821
 31
0.0
  0
CIRCLE
  5
14E0
  8
0
 10
6.333975
 20
12.169321
 30
0.0
 40
0.043
  0
CIRCLE
  5
14E1
  8
0
 10
6.333975
 20
12.169321
 30
0.0
 40
0.03335
  0
CIRCLE
  5
14E2
  8
0
 10
7.506573
 20
12.169321
 30
0.0
 40
0.043
  0
CIRCLE
  5
14E3
  8
0
 10
7.506573
 20
12.169321
 30
0.0
 40
0.03335
  0
LINE
  5
1581
  8
0
  6
HIDDEN
 10
6.838274
 20
11.899321
 30
0.0
 11
6.838274
 21
11.767821
 31
0.0
1001
ACAD
1000
ASC_BOUNDS
1002
{
1070
    19
1002
}
  0
LINE
  5
1582
  8
0
  6
HIDDEN
 10
7.002274
 20
11.899321
 30
0.0
 11
7.002274
 21
11.767821
 31
0.0
1001
ACAD
1000
ASC_BOUNDS
1002
{
1070
    19
1002
}
  0
LINE
  5
1583
  8
0
 10
6.855274
 20
11.897271
 30
0.0
 11
6.855274
 21
11.767821
 31
0.0
1001
ACAD
1000
ASC_BOUNDS
1002
{
1070
    19
1002
}
  0
LINE
  5
1584
  8
0
 10
6.985274
 20
11.897271
 30
0.0
 11
6.985274
 21
11.767821
 31
0.0
1001
ACAD
1000
ASC_BOUNDS
1002
{
1070
    19
1002
}
  0
LINE
  5
15A5
  8
0
  6
HIDDEN
 39
0.18
 10
9.575988
 20
12.011071
 30
0.0
 11
9.652004
 21
12.011071
 31
0.0
1001
ACAD
1000
ASC_BOUNDS
1002
{
1070
    19
1005
21DD
1005
2369
1002
}
  0
LINE
  5
15A6
  8
0
 39
0.18
 10
9.584648
 20
11.996071
 30
0.0
 11
9.574256
 21
12.014071
 31
0.0
1001
ACAD
1000
ASC_BOUNDS
1002
{
1070
    19
1002
}
  0
LINE
  5
15A7
  8
0
 39
0.18
 10
9.56504
 20
12.014071
 30
0.0
 11
9.574256
 21
12.014071
 31
0.0
1001
ACAD
1000
ASC_BOUNDS
1002
{
1070
    19
1005
21DD
1005
2369
1002
}
  0
LINE
  5
15A8
  8
0
 39
0.18
 10
9.554648
 20
11.996071
 30
0.0
 11
9.56504
 21
12.014071
 31
0.0
1001
ACAD
1000
ASC_BOUNDS
1002
{
1070
    19
1005
21DD
1005
2369
1002
}
  0
LINE
  5
15A9
  8
0
 39
0.18
 10
9.647004
 20
11.999
 30
0.0
 11
9.644075
 21
11.996071
 31
0.0
  0
LINE
  5
15AA
  8
0
  6
CONTINUOUS
 39
0.18
 10
9.644075
 20
11.996071
 30
0.0
 11
9.584648
 21
11.996071
 31
0.0
  0
LINE
  5
15AC
  8
0
 10
9.554648
 20
11.890321
 30
0.0
 11
9.506835
 21
11.762821
 31
0.0
1001
ACAD
1000
ASC_BOUNDS
1002
{
1070
    19
1005
21DD
1005
2369
1002
}
  0
LINE
  5
15AF
  8
0
 10
9.644075
 20
12.343821
 30
0.0
 11
9.654075
 21
12.333821
 31
0.0
1001
ACAD
1000
ASC_BOUNDS
1002
{
1070
    19
1005
21DD
1005
2369
1002
}
  0
LINE
  5
15B2
  8
0
 10
9.504648
 20
11.898821
 30
0.0
 11
9.504648
 21
12.067821
 31
0.0
1001
ACAD
1000
ASC_BOUNDS
1002
{
1070
    19
1005
21DD
1005
2369
1002
}
  0
LINE
  5
15B4
  8
0
 10
9.554648
 20
11.890321
 30
0.0
 11
9.554648
 21
11.996071
 31
0.0
1001
ACAD
1000
ASC_BOUNDS
1002
{
1070
    19
1005
21DD
1005
2369
1002
}
  0
LINE
  5
15B5
  8
0
 10
9.647004
 20
11.999
 30
0.0
 11
9.654075
 21
12.016071
 31
0.0
1001
ACAD
1000
ASC_BOUNDS
1002
{
1070
    19
1005
21DD
1005
2369
1002
}
  0
LINE
  5
15BA
  8
0
 10
9.570648
 20
12.957821
 30
0.0
 11
9.570648
 21
12.672321
 31
0.0
1001
ACAD
1000
ASC_BOUNDS
1002
{
1070
    19
1005
0
1005
2207
1005
21DD
1005
21DD
1002
}
  0
ARC
  5
15C8
  8
0
 10
14.327226
 20
12.507821
 30
0.0
 40
0.75
 50
279.366789
 51
260.633211
  0
LINE
  5
15C9
  8
0
 10
9.506835
 20
11.762821
 30
0.0
 11
8.994075
 21
11.762821
 31
0.0
1001
ACAD
1000
ASC_BOUNDS
1002
{
1070
    19
1005
0
1005
21DD
1005
21DD
1005
2369
1002
}
  0
LINE
  5
1731
  8
D1
 10
8.994075
 20
11.742821
 30
0.0
 11
8.994075
 21
11.400131
 31
0.0
  0
LINE
  5
1732
  8
D1
 10
9.244075
 20
11.54394
 30
0.0
 11
9.244075
 21
11.400131
 31
0.0
  0
LINE
  5
1733
  8
D1
 10
8.894075
 20
11.424131
 30
0.0
 11
8.794075
 21
11.424131
 31
0.0
  0
LINE
  5
1734
  8
D1
 10
9.344075
 20
11.424131
 30
0.0
 11
9.444075
 21
11.424131
 31
0.0
  0
SOLID
  5
1735
  8
D1
 10
8.894075
 20
11.440798
 30
0.0
 11
8.894075
 21
11.407465
 31
0.0
 12
8.994075
 22
11.424131
 32
0.0
 13
8.994075
 23
11.424131
 33
0.0
  0
SOLID
  5
1736
  8
D1
 10
9.344075
 20
11.440798
 30
0.0
 11
9.344075
 21
11.407465
 31
0.0
 12
9.244075
 22
11.424131
 32
0.0
 13
9.244075
 23
11.424131
 33
0.0
  0
TEXT
  8
0
  40
0.08
  5
2744
  72
0
  71
0
 10
8.40461
 20
11.2825
 30
0.000000
  1
0.250
  0
SOLID
  5
17FB
  8
D1
 10
14.607889
 20
13.332756
 30
0.0
 11
14.578996
 21
13.349378
 31
0.0
 12
14.543577
 22
13.254387
 32
0.0
 13
14.543577
 23
13.254387
 33
0.0
  0
LINE
  5
17FC
  8
D1
 10
14.593443
 20
13.341067
 30
0.0
 11
14.720176
 21
13.561361
 31
0.0
  0
LINE
  5
17FD
  8
D1
 10
14.720176
 20
13.561361
 30
0.0
 11
14.820176
 21
13.561361
 31
0.0
  0
TEXT
  8
0
  40
0.08
  5
2745
  72
0
  71
0
 10
14.8562
 20
13.4574
 30
0.000000
  1
%%%%%%c1.5" DIA.
  0
LINE
  5
17FF
  8
D1
 10
14.291226
 20
12.507821
 30
0.0
 11
14.363226
 21
12.507821
 31
0.0
  0
LINE
  5
1800
  8
D1
 10
14.327226
 20
12.471821
 30
0.0
 11
14.327226
 21
12.543821
 31
0.0
  0
LINE
  5
1801
  8
D1
 10
14.388226
 20
12.507821
 30
0.0
 11
15.350755
 21
12.507821
 31
0.0
  0
LINE
  5
1802
  8
D1
 10
14.474291
 20
11.767821
 30
0.0
 11
15.350755
 21
11.767821
 31
0.0
  0
LINE
  5
1803
  8
D1
 10
15.326755
 20
12.407821
 30
0.0
 11
15.326755
 21
12.213821
 31
0.0
  0
LINE
  5
1804
  8
D1
 10
15.326755
 20
11.867821
 30
0.0
 11
15.326755
 21
12.061821
 31
0.0
  0
SOLID
  5
1805
  8
D1
 10
15.310088
 20
12.407821
 30
0.0
 11
15.343422
 21
12.407821
 31
0.0
 12
15.326755
 22
12.507821
 32
0.0
 13
15.326755
 23
12.507821
 33
0.0
  0
SOLID
  5
1806
  8
D1
 10
15.310088
 20
11.867821
 30
0.0
 11
15.343422
 21
11.867821
 31
0.0
 12
15.326755
 22
11.767821
 32
0.0
 13
15.326755
 23
11.767821
 33
0.0
  0
TEXT
  8
0
  40
0.08
  5
2746
  72
0
  71
0
 10
15.1668
 20
11.9962
 30
0.000000
  1
0.740
  0
TEXT
  8
0
  40
0.08
  5
2747
  72
0
  71
0
 10
10.0508
 20
11.2061
 30
0.000000
  1
1.035-40
  0
TEXT
  8
0
  40
0.08
  5
2748
  72
0
  71
0
 10
10.0508
 20
11.1021
 30
0.000000
  1
THREAD
  0
SOLID
  5
182E
  8
D1
 10
9.329169
 20
11.63342
 30
0.0
 11
9.356369
 21
11.652688
 31
0.0
 12
9.284965
 22
11.724655
 32
0.0
 13
9.284965
 23
11.724655
 33
0.0
  0
LINE
  5
182F
  8
D1
 10
9.342769
 20
11.643054
 30
0.0
 11
9.790233
 21
11.011708
 31
0.0
  0
LINE
  5
1830
  8
D1
 10
9.790233
 20
11.011708
 30
0.0
 11
9.890233
 21
11.011708
 31
0.0
  0
LINE
  5
1835
  8
0
 10
9.654075
 20
12.016071
 30
0.0
 11
9.654075
 21
12.353321
 31
0.0
1001
ACAD
1000
ASC_BOUNDS
1002
{
1070
    19
1005
0
1005
21DD
1005
21DD
1005
2369
1002
}
  0
LINE
  5
183A
  8
0
 10
9.181575
 20
13.141821
 30
0.0
 11
9.181575
 21
13.227821
 31
0.0
1001
ACAD
1000
ASC_BOUNDS
1002
{
1070
    19
1005
2207
1005
21DD
1002
}
  0
TEXT
  5
1864
  8
D1
 10
9.918231
 20
10.975707
 30
0.0
 40
0.08
  1
#8-32 TAP THRU
  0
POLYLINE
  5
187F
  8
BODY
 66
     1
 10
0.0
 20
0.0
 30
0.0
 70
     1
  0
VERTEX
  5
2714
  8
BODY
 10
9.163425
 20
11.767821
 30
0.0
  0
VERTEX
  5
2715
  8
BODY
 10
9.163425
 20
11.997821
 30
0.0
  0
VERTEX
  5
2716
  8
BODY
 10
9.324725
 20
11.997821
 30
0.0
  0
VERTEX
  5
2717
  8
BODY
 10
9.324725
 20
11.767821
 30
0.0
  0
SEQEND
  5
2718
  8
BODY
  0
LINE
  5
188D
  8
0
 10
8.994075
 20
13.262821
 30
0.0
 11
9.503085
 21
13.262821
 31
0.0
1001
ACAD
1000
ASC_BOUNDS
1002
{
1070
    19
1005
2207
1005
21DD
1002
}
  0
LINE
  5
1893
  8
0
 10
8.994075
 20
13.126821
 30
0.0
 11
9.504648
 21
13.126821
 31
0.0
1001
ACAD
1000
ASC_BOUNDS
1002
{
1070
    19
1005
2207
1005
21DD
1002
}
  0
LINE
  5
1894
  8
0
 10
8.994075
 20
11.898821
 30
0.0
 11
9.504648
 21
11.898821
 31
0.0
1001
ACAD
1000
ASC_BOUNDS
1002
{
1070
    19
1005
0
1005
21DD
1005
21DD
1005
2369
1002
}
  0
LINE
  5
1895
  8
0
 10
9.504648
 20
12.957821
 30
0.0
 11
9.570648
 21
12.957821
 31
0.0
1001
ACAD
1000
ASC_BOUNDS
1002
{
1070
    19
1005
2207
1005
21DD
1002
}
  0
LINE
  5
1896
  8
0
 10
9.504648
 20
12.067821
 30
0.0
 11
9.570648
 21
12.067821
 31
0.0
1001
ACAD
1000
ASC_BOUNDS
1002
{
1070
    19
1005
21DD
1005
2369
1002
}
  0
LINE
  5
189B
  8
0
 10
9.570648
 20
12.681821
 30
0.0
 11
9.644075
 21
12.681821
 31
0.0
1001
ACAD
1000
ASC_BOUNDS
1002
{
1070
    19
1005
2207
1005
21DD
1002
}
  0
LINE
  5
189C
  8
0
 10
9.570648
 20
12.343821
 30
0.0
 11
9.644075
 21
12.343821
 31
0.0
1001
ACAD
1000
ASC_BOUNDS
1002
{
1070
    19
1005
21DD
1005
2369
1002
}
  0
LINE
  5
18A4
  8
BODY
 10
9.532067
 20
12.333821
 30
0.0
 11
9.552067
 21
12.333821
 31
0.0
  0
LINE
  5
18A6
  8
0
 10
8.994075
 20
11.762821
 30
0.0
 11
8.994075
 21
13.262821
 31
0.0
1001
ACAD
1000
ASC_BOUNDS
1002
{
1070
    19
1005
0
1005
2207
1005
21DD
1005
21DD
1002
}
  0
LINE
  5
18A8
  8
BODY
 10
9.407067
 20
13.092821
 30
0.0
 11
9.344567
 21
13.092821
 31
0.0
  0
LINE
  5
18A9
  8
BODY
 10
9.407067
 20
11.932821
 30
0.0
 11
9.344567
 21
11.932821
 31
0.0
  0
LINE
  5
18AA
  8
BODY
 10
9.407067
 20
11.932821
 30
0.0
 11
9.407067
 21
13.092821
 31
0.0
  0
LINE
  5
18AB
  8
BODY
 10
9.344567
 20
11.932821
 30
0.0
 11
9.344567
 21
13.092821
 31
0.0
  0
LINE
  5
18AC
  8
BODY
 10
8.994075
 20
13.262821
 30
0.0
 11
8.931575
 21
13.262821
 31
0.0
1001
ACAD
1000
ASC_BOUNDS
1002
{
1070
    19
1002
}
  0
LINE
  5
18AD
  8
BODY
 10
8.994075
 20
11.762821
 30
0.0
 11
8.931575
 21
11.762821
 31
0.0
1001
ACAD
1000
ASC_BOUNDS
1002
{
1070
    19
1002
}
  0
CIRCLE
  5
1C1C
  8
0
 39
0.18
 10
6.920274
 20
12.098049
 30
0.0
 40
0.156
  0
TEXT
  5
1C1D
  8
SILK-SCREEN
 10
6.397696
 20
12.810339
 30
0.0
 40
0.075
  1
PDA255
  7
HL-HD
  0
ARC
  5
1C1E
  8
0
 10
6.625274
 20
12.507821
 30
0.0
 40
0.21875
 50
122.251453
 51
57.748547
  0
INSERT
  5
1C1F
  8
BODY
  2
BNC
 10
6.625274
 20
12.507821
 30
0.0
  0
LINE
  5
1C24
  8
0
 10
6.508541
 20
12.692821
 30
0.0
 11
6.742007
 21
12.692821
 31
0.0
  0
INSERT
  5
1C27
  8
SILK-SCREEN
  2
LOGO
 10
6.617552
 20
13.012503
 30
0.0
 41
0.3
 42
0.3
 43
0.3
  0
CIRCLE
  5
1C28
  8
0
 10
7.506573
 20
12.169321
 30
0.0
 40
0.048
  0
CIRCLE
  5
1C29
  8
0
 10
7.299274
 20
12.511821
 30
0.0
 40
0.0955
  0
INSERT
  5
1C2A
  8
BODY
  2
TOGGLE-TOP
 10
7.299274
 20
12.511821
 30
0.0
  0
TEXT
  5
1C2B
  8
SILK-SCREEN
 10
7.205355
 20
12.229257
 30
0.0
 40
0.075
  1
OFF
  7
HL-HD
  0
TEXT
  5
1C2C
  8
SILK-SCREEN
 10
7.215566
 20
12.70963
 30
0.0
 40
0.075
  1
ON
  7
HL-HD
  0
INSERT
  5
1C2D
  8
SILK-SCREEN
  2
CE-MARK
 10
6.542444
 20
12.106421
 30
0.0
 41
0.5
 42
0.5
 43
0.5
  0
CIRCLE
  5
1C2E
  8
0
 10
6.333975
 20
12.169321
 30
0.0
 40
0.048
  0
CIRCLE
  5
1C2F
  8
0
 10
6.920274
 20
13.184821
 30
0.0
 40
0.048
  0
INSERT
  5
1FF4
  8
0
  2
*X8
 10
0.0
 20
0.0
 30
0.0
1001
ACAD
1000
HATCH
1002
{
1070
    19
1000
ANSI31
1040
0.2
1040
1.570796
1002
}
  0
LINE
  5
2017
  8
0
 10
9.654075
 20
12.672321
 30
0.0
 11
9.654075
 21
12.999571
 31
0.0
1001
ACAD
1000
ASC_BOUNDS
1002
{
1070
    19
1005
2207
1002
}
  0
LINE
  5
21CE
  8
0
 10
9.570648
 20
12.353321
 30
0.0
 11
9.570648
 21
12.067821
 31
0.0
1001
ACAD
1000
ASC_BOUNDS
1002
{
1070
    19
1005
2369
1002
}
  0
INSERT
  5
21DD
  8
0
  2
*X9
 10
0.0
 20
0.0
 30
0.0
1001
ACAD
1000
HATCH
1002
{
1070
    19
1000
ANSI31
1040
0.2
1040
0.0
1000
ASC_BOUNDS
1070
     3
1070
     1
1070
     4
1005
1894
1005
18A6
1005
15C9
1005
1374
1070
     1
1070
    15
1005
15AF
1005
189C
1005
15BA
1005
1896
1005
15B2
1005
1894
1005
1373
1005
15C9
1005
15AC
1005
15B4
1005
15A8
1005
15A7
1005
15A5
1005
15B5
1005
1835
1070
     1
1070
    19
1005
188D
1005
18A6
1005
11DC
1005
183A
1005
11DD
1005
1893
1005
748
1005
1895
1005
15BA
1005
189B
1005
14DA
1005
1835
1005
14DC
1005
1263
1005
125C
1005
125D
1005
125B
1005
747
1005
75E
1000
ASC_SEEDPOINT
1011
9.164121
1021
0.0
1031
0.0
1021
13.159275
1031
0.0
1002
}
  0
INSERT
  5
2207
  8
0
  2
*X10
 10
0.0
 20
0.0
 30
0.0
1001
ACAD
1000
HATCH
1002
{
1070
    19
1000
ANSI31
1040
0.2
1040
0.0
1000
ASC_BOUNDS
1070
     1
1070
     1
1070
    19
1005
14DC
1005
1263
1005
125C
1005
125D
1005
125B
1005
747
1005
75E
1005
188D
1005
18A6
1005
11DC
1005
183A
1005
11DD
1005
1893
1005
748
1005
1895
1005
15BA
1005
189B
1005
14DA
1005
2017
1000
ASC_SEEDPOINT
1011
9.510262
1021
0.0
1031
0.0
1021
13.151862
1031
0.0
1002
}
  0
INSERT
  5
2369
  8
0
  2
*X11
 10
0.0
 20
0.0
 30
0.0
1001
ACAD
1000
HATCH
1002
{
1070
    19
1000
ANSI31
1040
0.2
1040
0.0
1000
ASC_BOUNDS
1070
     1
1070
     1
1070
    15
1005
15AF
1005
189C
1005
21CE
1005
1896
1005
15B2
1005
1894
1005
1373
1005
15C9
1005
15AC
1005
15B4
1005
15A8
1005
15A7
1005
15A5
1005
15B5
1005
1835
1000
ASC_SEEDPOINT
1011
9.612585
1021
0.0
1031
0.0
1021
12.153905
1031
0.0
1002
}
  0
LINE
  5
2393
  8
0
 10
12.886321
 20
11.890321
 30
0.0
 11
12.838509
 21
11.762821
 31
0.0
1001
ACAD
1000
ASC_BOUNDS
1002
{
1070
    19
1002
}
  0
LINE
  5
2396
  8
0
 10
12.325749
 20
11.762821
 30
0.0
 11
12.325749
 21
13.262821
 31
0.0
1001
ACAD
1000
ASC_BOUNDS
1002
{
1070
    19
1002
}
  0
LINE
  5
2397
  8
BODY
 10
12.263249
 20
11.762821
 30
0.0
 11
12.263249
 21
13.262821
 31
0.0
1001
ACAD
1000
ASC_BOUNDS
1002
{
1070
    19
1002
}
  0
LINE
  5
23A2
  8
BODY
 10
12.325749
 20
11.762821
 30
0.0
 11
12.325749
 21
13.262821
 31
0.0
1001
ACAD
1000
ASC_BOUNDS
1002
{
1070
    19
1002
}
  0
LINE
  5
23A3
  8
0
 10
12.838509
 20
11.762821
 30
0.0
 11
12.325749
 21
11.762821
 31
0.0
1001
ACAD
1000
ASC_BOUNDS
1002
{
1070
    19
1002
}
  0
LINE
  5
23A4
  8
BODY
 10
12.325749
 20
11.762821
 30
0.0
 11
12.263249
 21
11.762821
 31
0.0
1001
ACAD
1000
ASC_BOUNDS
1002
{
1070
    19
1002
}
  0
POLYLINE
  5
23B0
  8
BODY
 66
     1
 10
0.0
 20
0.0
 30
0.0
 70
     1
1001
ACAD
1000
ASC_BOUNDS
1002
{
1070
    19
1002
}
  0
VERTEX
  5
2725
  8
BODY
 10
12.220249
 20
11.975321
 30
0.0
  0
VERTEX
  5
2726
  8
BODY
 10
12.220249
 20
12.292321
 30
0.0
  0
VERTEX
  5
2727
  8
BODY
 10
12.263249
 20
12.292321
 30
0.0
  0
VERTEX
  5
2728
  8
BODY
 10
12.263249
 20
11.975321
 30
0.0
  0
SEQEND
  5
2729
  8
BODY
  0
LINE
  5
23E6
  8
0
 10
12.325749
 20
13.262821
 30
0.0
 11
12.834759
 21
13.262821
 31
0.0
1001
ACAD
1000
ASC_BOUNDS
1002
{
1070
    19
1002
}
  0
LINE
  5
23EC
  8
BODY
 10
12.325749
 20
13.262821
 30
0.0
 11
12.263249
 21
13.262821
 31
0.0
1001
ACAD
1000
ASC_BOUNDS
1002
{
1070
    19
1002
}
  0
LINE
  5
23EF
  8
0
 10
12.886321
 20
13.125321
 30
0.0
 11
12.886321
 21
11.890321
 31
0.0
1001
ACAD
1000
ASC_BOUNDS
1002
{
1070
    19
1002
}
  0
LINE
  5
23F0
  8
0
 10
12.886321
 20
13.125321
 30
0.0
 11
12.834759
 21
13.262821
 31
0.0
1001
ACAD
1000
ASC_BOUNDS
1002
{
1070
    19
1002
}
  0
CIRCLE
  5
2407
  8
0
 10
11.973249
 20
12.807821
 30
0.0
 40
0.04
  0
LINE
  5
2408
  8
0
 10
12.263249
 20
13.052571
 30
0.0
 11
12.263249
 21
12.563071
 31
0.0
  0
LINE
  5
2409
  8
0
 10
12.218249
 20
13.052571
 30
0.0
 11
12.218249
 21
12.563071
 31
0.0
  0
LINE
  5
240A
  8
0
 10
11.798249
 20
12.995571
 30
0.0
 11
11.798249
 21
12.620071
 31
0.0
  0
LINE
  5
240B
  8
0
 10
11.798249
 20
12.995571
 30
0.0
 11
12.218249
 21
12.995571
 31
0.0
  0
LINE
  5
240C
  8
0
 10
12.263249
 20
13.052571
 30
0.0
 11
12.218249
 21
13.052571
 31
0.0
  0
LINE
  5
240D
  8
0
 10
11.798249
 20
12.620071
 30
0.0
 11
12.218249
 21
12.620071
 31
0.0
  0
LINE
  5
240E
  8
0
 10
12.263249
 20
12.563071
 30
0.0
 11
12.218249
 21
12.563071
 31
0.0
  0
LINE
  5
2412
  8
DIM1
 10
12.105749
 20
12.185035
 30
0.0
 11
11.782537
 21
12.11338
 31
0.0
  0
LINE
  5
2413
  8
DIM1
 10
12.105749
 20
12.082607
 30
0.0
 11
11.804181
 21
12.015751
 31
0.0
  0
LINE
  5
2420
  8
DIM1
 10
12.105749
 20
12.221321
 30
0.0
 11
12.12203
 21
12.046321
 31
0.0
  0
LINE
  5
2421
  8
DIM1
 10
12.125749
 20
12.221321
 30
0.0
 11
12.14203
 21
12.046321
 31
0.0
  0
LINE
  5
2422
  8
DIM1
 10
12.185749
 20
12.221321
 30
0.0
 11
12.20203
 21
12.046321
 31
0.0
  0
LINE
  5
2423
  8
DIM1
 10
12.205749
 20
12.221321
 30
0.0
 11
12.220249
 21
12.065465
 31
0.0
  0
LINE
  5
2429
  8
DIM1
 10
12.145749
 20
12.221321
 30
0.0
 11
12.16203
 21
12.046321
 31
0.0
  0
LINE
  5
242A
  8
DIM1
 10
12.165749
 20
12.221321
 30
0.0
 11
12.18203
 21
12.046321
 31
0.0
  0
ARC
  5
2434
  8
DIM1
 10
11.794914
 20
12.06491
 30
0.0
 40
0.050025
 50
104.324647
 51
280.675353
  0
POLYLINE
  5
2435
  8
DIM1
 66
     1
 10
0.0
 20
0.0
 30
0.0
  0
VERTEX
  5
272A
  8
DIM1
 10
12.105749
 20
12.046321
 30
0.0
  0
VERTEX
  5
272B
  8
DIM1
 10
12.105749
 20
12.221321
 30
0.0
  0
VERTEX
  5
272C
  8
DIM1
 10
12.220249
 20
12.221321
 30
0.0
  0
SEQEND
  5
272D
  8
DIM1
  0
POLYLINE
  5
2446
  8
DIM1
 66
     1
 10
0.0
 20
0.0
 30
0.0
  0
VERTEX
  5
272E
  8
DIM1
 10
12.220249
 20
12.046321
 30
0.0
  0
VERTEX
  5
272F
  8
DIM1
 10
12.105749
 20
12.046321
 30
0.0
  0
SEQEND
  5
2730
  8
DIM1
  0
LINE
  5
2455
  8
0
 10
12.220249
 20
12.203348
 30
0.0
 11
12.263249
 21
12.203348
 31
0.0
  0
LINE
  5
2456
  8
0
 10
12.220249
 20
12.064293
 30
0.0
 11
12.263249
 21
12.064293
 31
0.0
  0
SOLID
  5
2457
  8
D1
 10
9.711031
 20
11.813417
 30
0.0
 11
9.737447
 21
11.833747
 31
0.0
 12
9.663249
 22
11.90283
 32
0.0
 13
9.663249
 23
11.90283
 33
0.0
  0
LINE
  5
2458
  8
D1
 10
9.724239
 20
11.823582
 30
0.0
 11
9.993496
 21
11.473725
 31
0.0
  0
POLYLINE
  5
2459
  8
0
 66
     1
 10
0.0
 20
0.0
 30
0.0
 70
     1
1001
ACAD
1000
ASC_BOUNDS
1002
{
1070
    19
1005
24BB
1005
24BB
1002
}
  0
VERTEX
  5
2731
  8
0
 10
10.226613
 20
11.917821
 30
0.0
  0
VERTEX
  5
2732
  8
0
 10
10.226613
 20
13.107821
 30
0.0
  0
VERTEX
  5
2733
  8
0
 10
10.506613
 20
13.107821
 30
0.0
  0
VERTEX
  5
2734
  8
0
 10
10.506613
 20
11.917821
 30
0.0
  0
SEQEND
  5
2735
  8
0
  0
LINE
  5
2460
  8
0
  6
HIDDEN
 10
10.226613
 20
11.996071
 30
0.0
 11
10.506613
 21
11.996071
 31
0.0
1001
ACAD
1000
ASC_BOUNDS
1002
{
1070
    19
1005
24BB
1002
}
  0
LINE
  5
2461
  8
0
  6
HIDDEN
 10
10.226613
 20
12.011071
 30
0.0
 11
10.506613
 21
12.011071
 31
0.0
  0
LINE
  5
2462
  8
0
  6
HIDDEN
 10
10.226613
 20
13.014571
 30
0.0
 11
10.506613
 21
13.014571
 31
0.0
  0
LINE
  5
2463
  8
0
  6
HIDDEN
 10
10.226613
 20
13.029571
 30
0.0
 11
10.506613
 21
13.029571
 31
0.0
1001
ACAD
1000
ASC_BOUNDS
1002
{
1070
    19
1005
24BB
1002
}
  0
INSERT
  5
24BB
  8
0
  2
*X12
 10
0.0
 20
0.0
 30
0.0
1001
ACAD
1000
HATCH
1002
{
1070
    19
1000
ANSI31
1040
0.2
1040
0.0
1000
ASC_BOUNDS
1070
     2
1070
     1
1070
     2
1005
2460
1005
2459
1070
     1
1070
     2
1005
2459
1005
2463
1000
ASC_SEEDPOINT
1011
10.36538
1021
0.0
1031
0.0
1021
13.058048
1031
0.0
1002
}
  0
LINE
  5
24D2
  8
0
  6
HIDDEN
 10
9.761147
 20
12.512821
 30
0.0
 11
10.158533
 21
12.512821
 31
0.0
  0
POLYLINE
  5
24D4
  8
0
 66
     1
 10
0.0
 20
0.0
 30
0.0
 70
     1
1001
ACAD
1000
ASC_BOUNDS
1002
{
1070
    19
1002
}
  0
VERTEX
  5
2736
  8
0
 10
12.886321
 20
11.912821
 30
0.0
  0
VERTEX
  5
2737
  8
0
 10
12.886321
 20
13.102821
 30
0.0
  0
VERTEX
  5
2738
  8
0
 10
13.166321
 20
13.102821
 30
0.0
  0
VERTEX
  5
2739
  8
0
 10
13.166321
 20
11.912821
 30
0.0
  0
SEQEND
  5
273A
  8
0
  0
POLYLINE
  5
24E2
  8
0
 66
     1
 10
0.0
 20
0.0
 30
0.0
 70
     4
 40
0.16
 41
0.16
 75
     6
  0
VERTEX
  5
24E3
  8
0
 10
6.920274
 20
12.098049
 30
0.0
 70
    16
  0
VERTEX
  5
24F8
  8
0
 10
6.920274
 20
12.098049
 30
0.0
 70
     8
  0
VERTEX
  5
24F9
  8
0
 10
6.728084
 20
11.823426
 30
0.0
 70
     8
  0
VERTEX
  5
24FA
  8
0
 10
6.562406
 20
11.594111
 30
0.0
 70
     8
  0
VERTEX
  5
24FB
  8
0
 10
6.419805
 20
11.404746
 30
0.0
 70
     8
  0
VERTEX
  5
24FC
  8
0
 10
6.296847
 20
11.249973
 30
0.0
 70
     8
  0
VERTEX
  5
24FD
  8
0
 10
6.190096
 20
11.124435
 30
0.0
 70
     8
  0
VERTEX
  5
24FE
  8
0
 10
6.096118
 20
11.022775
 30
0.0
 70
     8
  0
VERTEX
  5
24FF
  8
0
 10
6.011479
 20
10.939633
 30
0.0
 70
     8
  0
VERTEX
  5
2500
  8
0
 10
5.932742
 20
10.869654
 30
0.0
 70
     8
  0
VERTEX
  5
2501
  8
0
 10
5.856984
 20
10.808296
 30
0.0
 70
     8
  0
VERTEX
  5
2502
  8
0
 10
5.783314
 20
10.754298
 30
0.0
 70
     8
  0
VERTEX
  5
2503
  8
0
 10
5.711351
 20
10.707215
 30
0.0
 70
     8
  0
VERTEX
  5
2504
  8
0
 10
5.640717
 20
10.666601
 30
0.0
 70
     8
  0
VERTEX
  5
2505
  8
0
 10
5.571029
 20
10.632012
 30
0.0
 70
     8
  0
VERTEX
  5
2506
  8
0
 10
5.501909
 20
10.603003
 30
0.0
 70
     8
  0
VERTEX
  5
2507
  8
0
 10
5.432975
 20
10.57913
 30
0.0
 70
     8
  0
VERTEX
  5
2508
  8
0
 10
5.363847
 20
10.559948
 30
0.0
 70
     8
  0
VERTEX
  5
2509
  8
0
 10
5.294264
 20
10.545036
 30
0.0
 70
     8
  0
VERTEX
  5
250A
  8
0
 10
5.224437
 20
10.534069
 30
0.0
 70
     8
  0
VERTEX
  5
250B
  8
0
 10
5.154696
 20
10.526746
 30
0.0
 70
     8
  0
VERTEX
  5
250C
  8
0
 10
5.085371
 20
10.522765
 30
0.0
 70
     8
  0
VERTEX
  5
250D
  8
0
 10
5.016792
 20
10.521826
 30
0.0
 70
     8
  0
VERTEX
  5
250E
  8
0
 10
4.94929
 20
10.523626
 30
0.0
 70
     8
  0
VERTEX
  5
250F
  8
0
 10
4.883194
 20
10.527865
 30
0.0
 70
     8
  0
VERTEX
  5
2510
  8
0
 10
4.818835
 20
10.534242
 30
0.0
 70
     8
  0
VERTEX
  5
2511
  8
0
 10
4.756507
 20
10.542516
 30
0.0
 70
     8
  0
VERTEX
  5
2512
  8
0
 10
4.69636
 20
10.552699
 30
0.0
 70
     8
  0
VERTEX
  5
2513
  8
0
 10
4.63851
 20
10.564862
 30
0.0
 70
     8
  0
VERTEX
  5
2514
  8
0
 10
4.583071
 20
10.579075
 30
0.0
 70
     8
  0
VERTEX
  5
2515
  8
0
 10
4.530159
 20
10.595412
 30
0.0
 70
     8
  0
VERTEX
  5
2516
  8
0
 10
4.479886
 20
10.613944
 30
0.0
 70
     8
  0
VERTEX
  5
2517
  8
0
 10
4.43237
 20
10.634742
 30
0.0
 70
     8
  0
VERTEX
  5
2518
  8
0
 10
4.387724
 20
10.657879
 30
0.0
 70
     8
  0
VERTEX
  5
2519
  8
0
 10
4.346033
 20
10.683361
 30
0.0
 70
     8
  0
VERTEX
  5
251A
  8
0
 10
4.307255
 20
10.710937
 30
0.0
 70
     8
  0
VERTEX
  5
251B
  8
0
 10
4.271318
 20
10.740293
 30
0.0
 70
     8
  0
VERTEX
  5
251C
  8
0
 10
4.238152
 20
10.771111
 30
0.0
 70
     8
  0
VERTEX
  5
251D
  8
0
 10
4.207684
 20
10.803077
 30
0.0
 70
     8
  0
VERTEX
  5
251E
  8
0
 10
4.179843
 20
10.835875
 30
0.0
 70
     8
  0
VERTEX
  5
251F
  8
0
 10
4.154556
 20
10.86919
 30
0.0
 70
     8
  0
VERTEX
  5
2520
  8
0
 10
4.131752
 20
10.902705
 30
0.0
 70
     8
  0
VERTEX
  5
2521
  8
0
 10
4.111376
 20
10.936168
 30
0.0
 70
     8
  0
VERTEX
  5
2522
  8
0
 10
4.093441
 20
10.969573
 30
0.0
 70
     8
  0
VERTEX
  5
2523
  8
0
 10
4.077973
 20
11.002979
 30
0.0
 70
     8
  0
VERTEX
  5
2524
  8
0
 10
4.065004
 20
11.036441
 30
0.0
 70
     8
  0
VERTEX
  5
2525
  8
0
 10
4.05456
 20
11.070019
 30
0.0
 70
     8
  0
VERTEX
  5
2526
  8
0
 10
4.046671
 20
11.103769
 30
0.0
 70
     8
  0
VERTEX
  5
2527
  8
0
 10
4.041365
 20
11.137748
 30
0.0
 70
     8
  0
VERTEX
  5
2528
  8
0
 10
4.038671
 20
11.172014
 30
0.0
 70
     8
  0
VERTEX
  5
2529
  8
0
 10
4.038607
 20
11.2066
 30
0.0
 70
     8
  0
VERTEX
  5
252A
  8
0
 10
4.04114
 20
11.241445
 30
0.0
 70
     8
  0
VERTEX
  5
252B
  8
0
 10
4.046228
 20
11.276462
 30
0.0
 70
     8
  0
VERTEX
  5
252C
  8
0
 10
4.053828
 20
11.311565
 30
0.0
 70
     8
  0
VERTEX
  5
252D
  8
0
 10
4.063896
 20
11.346668
 30
0.0
 70
     8
  0
VERTEX
  5
252E
  8
0
 10
4.07639
 20
11.381685
 30
0.0
 70
     8
  0
VERTEX
  5
252F
  8
0
 10
4.091266
 20
11.416529
 30
0.0
 70
     8
  0
VERTEX
  5
2530
  8
0
 10
4.108482
 20
11.451116
 30
0.0
 70
     8
  0
VERTEX
  5
2531
  8
0
 10
4.127992
 20
11.48532
 30
0.0
 70
     8
  0
VERTEX
  5
2532
  8
0
 10
4.149741
 20
11.518864
 30
0.0
 70
     8
  0
VERTEX
  5
2533
  8
0
 10
4.173671
 20
11.551432
 30
0.0
 70
     8
  0
VERTEX
  5
2534
  8
0
 10
4.199726
 20
11.58271
 30
0.0
 70
     8
  0
VERTEX
  5
2535
  8
0
 10
4.227847
 20
11.612381
 30
0.0
 70
     8
  0
VERTEX
  5
2536
  8
0
 10
4.257978
 20
11.640129
 30
0.0
 70
     8
  0
VERTEX
  5
2537
  8
0
 10
4.29006
 20
11.66564
 30
0.0
 70
     8
  0
VERTEX
  5
2538
  8
0
 10
4.324037
 20
11.688597
 30
0.0
 70
     8
  0
VERTEX
  5
2539
  8
0
 10
4.359864
 20
11.708759
 30
0.0
 70
     8
  0
VERTEX
  5
253A
  8
0
 10
4.397541
 20
11.726182
 30
0.0
 70
     8
  0
VERTEX
  5
253B
  8
0
 10
4.437085
 20
11.740993
 30
0.0
 70
     8
  0
VERTEX
  5
253C
  8
0
 10
4.478509
 20
11.753323
 30
0.0
 70
     8
  0
VERTEX
  5
253D
  8
0
 10
4.521827
 20
11.7633
 30
0.0
 70
     8
  0
VERTEX
  5
253E
  8
0
 10
4.567054
 20
11.771054
 30
0.0
 70
     8
  0
VERTEX
  5
253F
  8
0
 10
4.614204
 20
11.776713
 30
0.0
 70
     8
  0
VERTEX
  5
2540
  8
0
 10
4.663292
 20
11.780407
 30
0.0
 70
     8
  0
VERTEX
  5
2541
  8
0
 10
4.714237
 20
11.78225
 30
0.0
 70
     8
  0
VERTEX
  5
2542
  8
0
 10
4.766573
 20
11.7823
 30
0.0
 70
     8
  0
VERTEX
  5
2543
  8
0
 10
4.819742
 20
11.780601
 30
0.0
 70
     8
  0
VERTEX
  5
2544
  8
0
 10
4.873183
 20
11.777194
 30
0.0
 70
     8
  0
VERTEX
  5
2545
  8
0
 10
4.926338
 20
11.772122
 30
0.0
 70
     8
  0
VERTEX
  5
2546
  8
0
 10
4.978645
 20
11.76543
 30
0.0
 70
     8
  0
VERTEX
  5
2547
  8
0
 10
5.029547
 20
11.75716
 30
0.0
 70
     8
  0
VERTEX
  5
2548
  8
0
 10
5.078481
 20
11.747355
 30
0.0
 70
     8
  0
VERTEX
  5
2549
  8
0
 10
5.125041
 20
11.735994
 30
0.0
 70
     8
  0
VERTEX
  5
254A
  8
0
 10
5.169419
 20
11.722796
 30
0.0
 70
     8
  0
VERTEX
  5
254B
  8
0
 10
5.21196
 20
11.707418
 30
0.0
 70
     8
  0
VERTEX
  5
254C
  8
0
 10
5.253008
 20
11.689515
 30
0.0
 70
     8
  0
VERTEX
  5
254D
  8
0
 10
5.292908
 20
11.668743
 30
0.0
 70
     8
  0
VERTEX
  5
254E
  8
0
 10
5.332004
 20
11.644758
 30
0.0
 70
     8
  0
VERTEX
  5
254F
  8
0
 10
5.370641
 20
11.617215
 30
0.0
 70
     8
  0
VERTEX
  5
2550
  8
0
 10
5.409163
 20
11.58577
 30
0.0
 70
     8
  0
VERTEX
  5
2551
  8
0
 10
5.44781
 20
11.550249
 30
0.0
 70
     8
  0
VERTEX
  5
2552
  8
0
 10
5.486399
 20
11.511155
 30
0.0
 70
     8
  0
VERTEX
  5
2553
  8
0
 10
5.524643
 20
11.469164
 30
0.0
 70
     8
  0
VERTEX
  5
2554
  8
0
 10
5.562256
 20
11.42495
 30
0.0
 70
     8
  0
VERTEX
  5
2555
  8
0
 10
5.598951
 20
11.379186
 30
0.0
 70
     8
  0
VERTEX
  5
2556
  8
0
 10
5.63444
 20
11.332547
 30
0.0
 70
     8
  0
VERTEX
  5
2557
  8
0
 10
5.668436
 20
11.285707
 30
0.0
 70
     8
  0
VERTEX
  5
2558
  8
0
 10
5.700653
 20
11.239341
 30
0.0
 70
     8
  0
VERTEX
  5
2559
  8
0
 10
5.730889
 20
11.193974
 30
0.0
 70
     8
  0
VERTEX
  5
255A
  8
0
 10
5.759288
 20
11.14954
 30
0.0
 70
     8
  0
VERTEX
  5
255B
  8
0
 10
5.786079
 20
11.105822
 30
0.0
 70
     8
  0
VERTEX
  5
255C
  8
0
 10
5.811492
 20
11.062607
 30
0.0
 70
     8
  0
VERTEX
  5
255D
  8
0
 10
5.835758
 20
11.019679
 30
0.0
 70
     8
  0
VERTEX
  5
255E
  8
0
 10
5.859104
 20
10.976822
 30
0.0
 70
     8
  0
VERTEX
  5
255F
  8
0
 10
5.881762
 20
10.933822
 30
0.0
 70
     8
  0
VERTEX
  5
2560
  8
0
 10
5.903961
 20
10.890464
 30
0.0
 70
     8
  0
VERTEX
  5
2561
  8
0
 10
5.92593
 20
10.846582
 30
0.0
 70
     8
  0
VERTEX
  5
2562
  8
0
 10
5.947899
 20
10.802212
 30
0.0
 70
     8
  0
VERTEX
  5
2563
  8
0
 10
5.970097
 20
10.75744
 30
0.0
 70
     8
  0
VERTEX
  5
2564
  8
0
 10
5.992755
 20
10.712353
 30
0.0
 70
     8
  0
VERTEX
  5
2565
  8
0
 10
6.016102
 20
10.667036
 30
0.0
 70
     8
  0
VERTEX
  5
2566
  8
0
 10
6.040367
 20
10.621576
 30
0.0
 70
     8
  0
VERTEX
  5
2567
  8
0
 10
6.065781
 20
10.576058
 30
0.0
 70
     8
  0
VERTEX
  5
2568
  8
0
 10
6.092572
 20
10.530569
 30
0.0
 70
     8
  0
VERTEX
  5
2569
  8
0
 10
6.120932
 20
10.485236
 30
0.0
 70
     8
  0
VERTEX
  5
256A
  8
0
 10
6.1509
 20
10.440347
 30
0.0
 70
     8
  0
VERTEX
  5
256B
  8
0
 10
6.182476
 20
10.396233
 30
0.0
 70
     8
  0
VERTEX
  5
256C
  8
0
 10
6.215659
 20
10.353223
 30
0.0
 70
     8
  0
VERTEX
  5
256D
  8
0
 10
6.250449
 20
10.311648
 30
0.0
 70
     8
  0
VERTEX
  5
256E
  8
0
 10
6.286847
 20
10.271838
 30
0.0
 70
     8
  0
VERTEX
  5
256F
  8
0
 10
6.324853
 20
10.234122
 30
0.0
 70
     8
  0
VERTEX
  5
2570
  8
0
 10
6.364466
 20
10.19883
 30
0.0
 70
     8
  0
VERTEX
  5
2571
  8
0
 10
6.405721
 20
10.166222
 30
0.0
 70
     8
  0
VERTEX
  5
2572
  8
0
 10
6.448791
 20
10.136275
 30
0.0
 70
     8
  0
VERTEX
  5
2573
  8
0
 10
6.493886
 20
10.108896
 30
0.0
 70
     8
  0
VERTEX
  5
2574
  8
0
 10
6.541212
 20
10.083991
 30
0.0
 70
     8
  0
VERTEX
  5
2575
  8
0
 10
6.590978
 20
10.061468
 30
0.0
 70
     8
  0
VERTEX
  5
2576
  8
0
 10
6.643392
 20
10.041232
 30
0.0
 70
     8
  0
VERTEX
  5
2577
  8
0
 10
6.698662
 20
10.023192
 30
0.0
 70
     8
  0
VERTEX
  5
2578
  8
0
 10
6.756997
 20
10.007253
 30
0.0
 70
     8
  0
VERTEX
  5
2579
  8
0
 10
6.818465
 20
9.993332
 30
0.0
 70
     8
  0
VERTEX
  5
257A
  8
0
 10
6.882581
 20
9.981384
 30
0.0
 70
     8
  0
VERTEX
  5
257B
  8
0
 10
6.948721
 20
9.971372
 30
0.0
 70
     8
  0
VERTEX
  5
257C
  8
0
 10
7.016261
 20
9.963261
 30
0.0
 70
     8
  0
VERTEX
  5
257D
  8
0
 10
7.084575
 20
9.957015
 30
0.0
 70
     8
  0
VERTEX
  5
257E
  8
0
 10
7.15304
 20
9.952598
 30
0.0
 70
     8
  0
VERTEX
  5
257F
  8
0
 10
7.221031
 20
9.949974
 30
0.0
 70
     8
  0
VERTEX
  5
2580
  8
0
 10
7.287925
 20
9.949107
 30
0.0
 70
     8
  0
VERTEX
  5
24E4
  8
0
 10
6.369365
 20
11.300548
 30
0.0
 70
    16
  0
VERTEX
  5
24E5
  8
0
 10
5.90641
 20
10.786413
 30
0.0
 70
    16
  0
VERTEX
  5
24E6
  8
0
 10
5.369971
 20
10.514656
 30
0.0
 70
    16
  0
VERTEX
  5
24E7
  8
0
 10
4.79679
 20
10.514656
 30
0.0
 70
    16
  0
VERTEX
  5
24E8
  8
0
 10
4.355881
 20
10.632172
 30
0.0
 70
    16
  0
VERTEX
  5
24E9
  8
0
 10
4.106033
 20
10.903929
 30
0.0
 70
    16
  0
VERTEX
  5
24EA
  8
0
 10
4.010502
 20
11.168341
 30
0.0
 70
    16
  0
VERTEX
  5
24EB
  8
0
 10
4.083987
 20
11.454788
 30
0.0
 70
    16
  0
VERTEX
  5
24EC
  8
0
 10
4.304442
 20
11.7192
 30
0.0
 70
    16
  0
VERTEX
  5
24ED
  8
0
 10
4.642472
 20
11.799993
 30
0.0
 70
    16
  0
VERTEX
  5
24EE
  8
0
 10
5.105426
 20
11.763269
 30
0.0
 70
    16
  0
VERTEX
  5
24EF
  8
0
 10
5.406714
 20
11.631063
 30
0.0
 70
    16
  0
VERTEX
  5
24F0
  8
0
 10
5.722698
 20
11.2271
 30
0.0
 70
    16
  0
VERTEX
  5
24F1
  8
0
 10
5.90641
 20
10.896584
 30
0.0
 70
    16
  0
VERTEX
  5
24F2
  8
0
 10
6.075425
 20
10.529345
 30
0.0
 70
    16
  0
VERTEX
  5
24F3
  8
0
 10
6.347319
 20
10.169451
 30
0.0
 70
    16
  0
VERTEX
  5
24F4
  8
0
 10
6.722092
 20
9.985831
 30
0.0
 70
    16
  0
VERTEX
  5
24F5
  8
0
 10
7.111561
 20
9.949107
 30
0.0
 70
    16
  0
VERTEX
  5
24F6
  8
0
 10
7.287925
 20
9.949107
 30
0.0
 70
    16
  0
SEQEND
  5
24F7
  8
0
  0
LINE
  5
258B
  8
0
 10
7.287925
 20
10.099107
 30
0.0
 11
8.107925
 21
10.134107
 31
0.0
  0
LINE
  5
258C
  8
0
 10
7.287925
 20
9.799107
 30
0.0
 11
8.107925
 21
9.764107
 31
0.0
  0
LINE
  5
258D
  8
0
 10
7.287925
 20
9.799107
 30
0.0
 11
7.287925
 21
10.099107
 31
0.0
  0
LINE
  5
258F
  8
0
 10
8.107925
 20
10.134107
 30
0.0
 11
8.107925
 21
9.764107
 31
0.0
  0
POLYLINE
  5
2591
  8
0
 66
     1
 10
0.0
 20
0.0
 30
0.0
 70
     1
  0
VERTEX
  5
273B
  8
0
 10
8.277925
 20
9.624107
 30
0.0
  0
VERTEX
  5
273C
  8
0
 10
8.277925
 20
10.274107
 30
0.0
  0
VERTEX
  5
273D
  8
0
 10
9.637925
 20
10.274107
 30
0.0
  0
VERTEX
  5
273E
  8
0
 10
9.637925
 20
9.624107
 30
0.0
  0
SEQEND
  5
273F
  8
0
  0
LINE
  5
2598
  8
0
 10
8.107925
 20
10.134107
 30
0.0
 11
8.277925
 21
10.274107
 31
0.0
  0
LINE
  5
2599
  8
0
 10
8.107925
 20
9.764107
 30
0.0
 11
8.277925
 21
9.624107
 31
0.0
  0
CIRCLE
  5
259B
  8
0
 10
11.08564
 20
9.949107
 30
0.0
 40
0.325
  0
CIRCLE
  5
259C
  8
0
 10
11.08564
 20
9.949107
 30
0.0
 40
0.295
  0
CIRCLE
  5
259D
  8
0
 10
11.08564
 20
9.949107
 30
0.0
 40
0.24
  0
CIRCLE
  5
25A6
  8
0
 10
10.95564
 20
9.949107
 30
0.0
 40
0.0325
  0
CIRCLE
  5
25A8
  8
0
 10
10.993716
 20
10.041031
 30
0.0
 40
0.0325
  0
CIRCLE
  5
25A9
  8
0
 10
11.08564
 20
10.079107
 30
0.0
 40
0.0325
  0
CIRCLE
  5
25AA
  8
0
 10
11.177564
 20
10.041031
 30
0.0
 40
0.0325
  0
CIRCLE
  5
25AB
  8
0
 10
11.21564
 20
9.949107
 30
0.0
 40
0.0325
  0
LINE
  5
25AD
  8
0
 10
11.03564
 20
9.789107
 30
0.0
 11
11.03564
 21
9.714373
 31
0.0
  0
LINE
  5
25AE
  8
0
 10
11.13564
 20
9.789107
 30
0.0
 11
11.13564
 21
9.714373
 31
0.0
  0
LINE
  5
25B0
  8
0
 10
11.03564
 20
9.789107
 30
0.0
 11
11.13564
 21
9.789107
 31
0.0
  0
LINE
  5
25B1
  8
D1
 10
11.279551
 20
9.949107
 30
0.0
 11
11.559627
 21
9.949107
 31
0.0
  0
LINE
  5
25B2
  8
D1
 10
11.08564
 20
10.143018
 30
0.0
 11
11.08564
 21
10.423093
 31
0.0
  0
LINE
  5
25B3
  8
D1
 10
10.891729
 20
9.949107
 30
0.0
 11
10.611654
 21
9.949107
 31
0.0
  0
LINE
  5
25B4
  8
D1
 10
11.222756
 20
10.086223
 30
0.0
 11
11.420799
 21
10.284266
 31
0.0
  0
LINE
  5
25B5
  8
D1
 10
10.948524
 20
10.086223
 30
0.0
 11
10.750481
 21
10.284266
 31
0.0
  0
TEXT
  5
25B8
  8
D1
 10
10.170966
 20
9.90663
 30
0.0
 40
0.07
  1
COMMON
  0
TEXT
  5
25B9
  8
D1
 10
11.422241
 20
10.305581
 30
0.0
 40
0.07
  1
+12VDC
  0
TEXT
  5
25BA
  8
D1
 10
10.331948
 20
10.302277
 30
0.0
 40
0.07
  1
-12VDC
  0
TEXT
  5
25BB
  8
D1
 10
11.019784
 20
10.455159
 30
0.0
 40
0.07
  1
n.c.
  0
TEXT
  5
25BD
  8
D1
 10
11.61981
 20
9.924914
 30
0.0
 40
0.07
  1
n.c.
  0
TEXT
  5
25BE
  8
D1
 10
10.268648
 20
9.317876
 30
0.0
 40
0.08
  1
END VIEW OF 5-PIN DIN
 72
     1
 11
11.081982
 21
9.317876
 31
0.0
  0
TEXT
  5
25BF
  8
D1
 10
10.215315
 20
9.184543
 30
0.0
 40
0.08
  1
RECEPTACLE ON DETECTOR
 72
     1
 11
11.081982
 21
9.184543
 31
0.0
  0
SOLID
  5
25C0
  8
D1
 10
10.665943
 20
11.817359
 30
0.0
 11
10.68653
 21
11.843575
 31
0.0
 12
10.59759
 22
11.89223
 32
0.0
 13
10.59759
 23
11.89223
 33
0.0
  0
LINE
  5
25C1
  8
D1
 10
10.676236
 20
11.830467
 30
0.0
 11
11.026251
 21
11.555594
 31
0.0
  0
TEXT
  5
25C2
  8
D1
 10
11.164035
 20
11.433181
 30
0.0
 40
0.08
  1
SM1T1, THREADED
  0
TEXT
  5
25C3
  8
D1
 10
11.164035
 20
11.299847
 30
0.0
 40
0.08
  1
COUPLER (REMOVEABLE)
  0
LINE
  5
25C4
  8
D1
 10
9.642067
 20
12.608821
 30
0.0
 11
9.642067
 21
13.42411
 31
0.0
  0
LINE
  5
25C5
  8
D1
 10
9.554648
 20
13.115182
 30
0.0
 11
9.554648
 21
13.42411
 31
0.0
  0
LINE
  5
25C6
  8
D1
 10
9.742067
 20
13.40011
 30
0.0
 11
9.842067
 21
13.40011
 31
0.0
  0
LINE
  5
25C7
  8
D1
 10
9.454648
 20
13.40011
 30
0.0
 11
9.354648
 21
13.40011
 31
0.0
  0
SOLID
  5
25C8
  8
D1
 10
9.742067
 20
13.416777
 30
0.0
 11
9.742067
 21
13.383443
 31
0.0
 12
9.642067
 22
13.40011
 32
0.0
 13
9.642067
 23
13.40011
 33
0.0
  0
SOLID
  5
25C9
  8
D1
 10
9.454648
 20
13.416777
 30
0.0
 11
9.454648
 21
13.383443
 31
0.0
 12
9.554648
 22
13.40011
 32
0.0
 13
9.554648
 23
13.40011
 33
0.0
  0
TEXT
  8
0
  40
0.08
  5
2749
  72
0
  71
0
 10
9.00059
 20
13.2619
 30
0.000000
  1
0.087
  0
LINE
  5
25D2
  8
D1
 10
12.263249
 20
13.287821
 30
0.0
 11
12.263249
 21
13.492298
 31
0.0
  0
LINE
  5
25D3
  8
D1
 10
12.886321
 20
13.127821
 30
0.0
 11
12.886321
 21
13.492298
 31
0.0
  0
LINE
  5
25D4
  8
D1
 10
12.363249
 20
13.468298
 30
0.0
 11
12.425452
 21
13.468298
 31
0.0
  0
LINE
  5
25D5
  8
D1
 10
12.786321
 20
13.468298
 30
0.0
 11
12.724118
 21
13.468298
 31
0.0
  0
SOLID
  5
25D6
  8
D1
 10
12.363249
 20
13.484965
 30
0.0
 11
12.363249
 21
13.451632
 31
0.0
 12
12.263249
 22
13.468298
 32
0.0
 13
12.263249
 23
13.468298
 33
0.0
  0
SOLID
  5
25D7
  8
D1
 10
12.786321
 20
13.484965
 30
0.0
 11
12.786321
 21
13.451632
 31
0.0
 12
12.886321
 22
13.468298
 32
0.0
 13
12.886321
 23
13.468298
 33
0.0
  0
TEXT
  8
0
  40
0.08
  5
274A
  72
0
  71
0
 10
12.4148
 20
13.3267
 30
0.000000
  1
0.62
  0
LINE
  5
25D9
  8
D1
 10
12.263249
 20
13.287821
 30
0.0
 11
12.263249
 21
13.644298
 31
0.0
  0
LINE
  5
25DA
  8
D1
 10
13.166321
 20
13.127821
 30
0.0
 11
13.166321
 21
13.644298
 31
0.0
  0
LINE
  5
25DB
  8
D1
 10
12.363249
 20
13.620298
 30
0.0
 11
12.572118
 21
13.620298
 31
0.0
  0
LINE
  5
25DC
  8
D1
 10
13.066321
 20
13.620298
 30
0.0
 11
12.857452
 21
13.620298
 31
0.0
  0
SOLID
  5
25DD
  8
D1
 10
12.363249
 20
13.636965
 30
0.0
 11
12.363249
 21
13.603632
 31
0.0
 12
12.263249
 22
13.620298
 32
0.0
 13
12.263249
 23
13.620298
 33
0.0
  0
SOLID
  5
25DE
  8
D1
 10
13.066321
 20
13.636965
 30
0.0
 11
13.066321
 21
13.603632
 31
0.0
 12
13.166321
 22
13.620298
 32
0.0
 13
13.166321
 23
13.620298
 33
0.0
  0
TEXT
  8
0
  40
0.08
  5
274B
  72
0
  71
0
 10
12.5548
 20
13.4787
 30
0.000000
  1
0.90
  0
SOLID
  5
25E0
  8
D1
 10
9.825257
 20
12.746249
 30
0.0
 11
9.797609
 21
12.764868
 31
0.0
 12
9.755576
 22
12.672613
 32
0.0
 13
9.755576
 23
12.672613
 33
0.0
  0
LINE
  5
25E1
  8
D1
 10
9.811433
 20
12.755559
 30
0.0
 11
10.291403
 21
13.468298
 31
0.0
  0
TEXT
  5
25E2
  8
D1
 10
10.092381
 20
13.544806
 30
0.0
 40
0.08
  1
DETECTOR
  0
TEXT
  5
25E3
  8
D1
 10
8.382205
 20
9.398063
 30
0.0
 40
0.08
  1
DC POWER INPUT
 72
     1
 11
8.928872
 21
9.398063
 31
0.0
  0
POLYLINE
  5
25E9
  8
BODY
 66
     1
 10
0.0
 20
0.0
 30
0.0
 70
     1
 40
0.2
 41
0.2
  0
VERTEX
  5
2740
  8
BODY
 10
6.820274
 20
12.098049
 30
0.0
 42
1.0
  0
VERTEX
  5
2741
  8
BODY
 10
7.020274
 20
12.098049
 30
0.0
 42
1.0
  0
SEQEND
  5
2742
  8
BODY
  0
LINE
  5
25F4
  8
0
 10
12.834759
 20
13.262821
 30
0.0
 11
12.834759
 21
11.762821
 31
0.0
  0
TEXT
  5
25FD
  8
D1
 10
9.918231
 20
10.828971
 30
0.0
 40
0.08
  1
(M4 TAP THRU -EC VERSION)
  0
VIEWPORT
  5
31
 67
     1
  8
0
 10
8.127787
 20
5.912162
 30
0.0
 40
21.720878
 41
11.875291
 68
     1
 69
     1
1001
ACAD
1000
MVIEW
1002
{
1070
    16
1010
0.0
1020
0.0
1030
0.0
1010
0.0
1020
0.0
1030
1.0
1040
0.0
1040
11.875291
1040
8.127787
1040
5.912162
1040
50.0
1040
0.0
1040
0.0
1070
     0
1070
     0
1070
     0
1070
     0
1070
     0
1070
     0
1070
     0
1070
     0
1040
0.0
1040
0.0
1040
0.0
1040
0.005
1040
0.005
1040
0.25
1040
0.25
1070
     0
1002
{
1002
}
1002
}
  0
TRACE
  5
32
 67
     1
  8
BORDER
 10
0.105666
 20
11.76052
 30
0.0
 11
0.138016
 21
11.72817
 31
0.0
 12
16.149909
 22
11.76052
 32
0.0
 13
16.117559
 23
11.72817
 33
0.0
  0
TRACE
  5
33
 67
     1
  8
BORDER
 10
0.121841
 20
0.096154
 30
0.0
 11
0.121841
 21
0.063804
 31
0.0
 12
16.133734
 22
0.096154
 32
0.0
 13
16.133734
 23
0.063804
 33
0.0
  0
TRACE
  5
34
 67
     1
  8
BORDER
 10
0.105666
 20
0.079979
 30
0.0
 11
0.138016
 21
0.079979
 31
0.0
 12
0.105666
 22
11.76052
 32
0.0
 13
0.138016
 23
11.72817
 33
0.0
  0
TRACE
  5
35
 67
     1
  8
BORDER
 10
16.149909
 20
11.76052
 30
0.0
 11
16.117559
 21
11.72817
 31
0.0
 12
16.149909
 22
0.079979
 32
0.0
 13
16.117559
 23
0.079979
 33
0.0
  0
TRACE
  5
36
 67
     1
  8
BORDER
 10
12.749797
 20
1.463151
 30
0.17469
 11
12.749797
 21
1.443741
 31
0.17469
 12
16.141694
 22
1.463151
 32
0.17469
 13
16.141694
 23
1.443741
 33
0.17469
 39
0.17469
  0
LINE
  5
37
 67
     1
  8
BORDER
 39
0.17469
 10
12.744944
 20
1.453446
 30
0.17469
 11
16.141694
 21
1.453446
 31
0.17469
  0
TRACE
  5
38
 67
     1
  8
BORDER
 10
16.141694
 20
1.734891
 30
0.17469
 11
16.141694
 21
1.754301
 31
0.17469
 12
12.749797
 22
1.734891
 32
0.17469
 13
12.749797
 23
1.754301
 33
0.17469
 39
0.17469
  0
TRACE
  5
39
 67
     1
  8
BORDER
 10
14.812109
 20
1.269051
 30
0.17469
 11
14.812109
 21
1.288461
 31
0.17469
 12
12.744944
 22
1.269051
 32
0.17469
 13
12.744944
 23
1.288461
 33
0.17469
 39
0.17469
  0
TRACE
  5
3A
 67
     1
  8
BORDER
 10
14.802404
 20
1.288461
 30
0.17469
 11
14.821814
 21
1.269051
 31
0.17469
 12
16.141694
 22
1.288461
 32
0.17469
 13
16.141694
 23
1.269051
 33
0.17469
 39
0.17469
  0
TRACE
  5
3B
 67
     1
  8
BORDER
 10
14.802404
 20
0.094156
 30
0.17469
 11
14.821814
 21
0.094156
 31
0.17469
 12
14.802404
 22
1.288461
 32
0.17469
 13
14.821814
 23
1.269051
 33
0.17469
 39
0.17469
  0
LINE
  5
3C
 67
     1
  8
BORDER
 39
0.17469
 10
14.123054
 20
0.405306
 30
0.17469
 11
14.123054
 21
0.696456
 31
0.17469
  0
LINE
  5
3D
 67
     1
  8
BORDER
 39
0.17469
 10
13.433999
 20
0.405306
 30
0.17469
 11
13.433999
 21
0.992458
 31
0.17469
  0
LINE
  5
3E
 67
     1
  8
BORDER
 39
0.17469
 10
14.123054
 20
0.696456
 30
0.17469
 11
14.123054
 21
0.987606
 31
0.17469
  0
LINE
  5
3F
 67
     1
  8
BORDER
 39
0.27
 10
13.778527
 20
0.696456
 30
0.0
 11
13.778527
 21
0.074042
 31
0.0
  0
TEXT
  5
40
 67
     1
  8
BORDER
 10
12.864296
 20
0.144042
 30
0.0
 40
0.11
  1
2240-E0W
  0
TEXT
  5
41
 67
     1
  8
BORDER
 10
13.589697
 20
0.739042
 30
0.0
 40
0.1
  1
EC
  0
TEXT
  5
42
 67
     1
  8
BORDER
 10
13.016983
 20
1.509006
 30
0.0
 40
0.11
  1
ENGINEERING SUPPORT DRAWING
  0
TEXT
  5
43
 67
     1
  8
BORDER
 10
12.832289
 20
1.327281
 30
0.17469
 40
0.067935
  1
TOL: X.XXX=+/-0.005 X.XX=+/-0.010 ANGULAR +/-30'
  0
TEXT
  5
44
 67
     1
  8
BORDER
 10
13.497082
 20
0.885703
 30
0.17469
 40
0.067935
  1
ENGR.
  0
LINE
  5
45
 67
     1
  8
BORDER
 10
12.744944
 20
0.405306
 30
0.17469
 11
14.809868
 21
0.405306
 31
0.17469
  0
LINE
  5
46
 67
     1
  8
BORDER
 10
12.744944
 20
0.696456
 30
0.17469
 11
14.809868
 21
0.696456
 31
0.17469
  0
LINE
  5
47
 67
     1
  8
BORDER
 10
12.744944
 20
0.987606
 30
0.17469
 11
14.809868
 21
0.987606
 31
0.17469
  0
LINE
  5
48
 67
     1
  8
BORDER
 10
12.744944
 20
1.278756
 30
0.17469
 11
16.141694
 21
1.278756
 31
0.17469
  0
TRACE
  5
49
 67
     1
  8
BORDER
 10
16.141694
 20
2.108533
 30
0.17469
 11
16.141694
 21
2.157058
 31
0.17469
 12
12.769207
 22
2.108533
 32
0.17469
 13
12.720682
 23
2.157058
 33
0.17469
  0
LINE
  5
4A
 67
     1
  8
BORDER
 10
12.744944
 20
1.744596
 30
0.17469
 11
16.141694
 21
1.744596
 31
0.17469
  0
TRACE
  5
4B
 67
     1
  8
BORDER
 10
12.769207
 20
2.108533
 30
0.17469
 11
12.720682
 21
2.157058
 31
0.17469
 12
12.769207
 22
0.079156
 32
0.17469
 13
12.720682
 23
0.079156
 33
0.17469
  0
TEXT
  5
4C
 67
     1
  8
BORDER
 10
12.832289
 20
1.642693
 30
0.17469
 40
0.067935
  1
TITLE
  0
TEXT
  5
4D
 67
     1
  8
BORDER
 10
12.899697
 20
0.739042
 30
0.0
 40
0.1
  1
TD
  0
TEXT
  5
4E
 67
     1
  8
BORDER
 10
12.844962
 20
0.449042
 30
0.0
 40
0.08
  1
07/08/99
  0
TEXT
  5
4F
 67
     1
  8
BORDER
 10
12.837142
 20
0.599406
 30
0.17469
 40
0.067935
  1
DATE
  0
TEXT
  5
50
 67
     1
  8
BORDER
 10
12.837142
 20
0.308256
 30
0.17469
 40
0.067935
  1
DWG NO.
  0
TEXT
  5
51
 67
     1
  8
BORDER
 10
13.499272
 20
0.594553
 30
0.17469
 40
0.072788
  1
REV
  0
TEXT
  5
52
 67
     1
  8
BORDER
 10
12.832289
 20
1.172001
 30
0.17469
 40
0.067935
  1
MATERIAL
  0
TEXT
  5
53
 67
     1
  8
BORDER
 10
12.832289
 20
0.885703
 30
0.17469
 40
0.067935
  1
DRAWN
  0
TEXT
  5
54
 67
     1
  8
BORDER
 10
13.913021
 20
0.4538
 30
0.0
 40
0.075
  1
B
 72
     1
 11
13.938021
 21
0.4538
 31
0.0
  0
TEXT
  5
55
 67
     1
  8
BORDER
 10
13.828021
 20
0.5963
 30
0.0
 40
0.075
  1
SIZE
 72
     1
 11
13.953021
 21
0.5963
 31
0.0
  0
TEXT
  5
56
 67
     1
  8
SHEET2
 10
14.259697
 20
0.449042
 30
0.0
 40
0.08
  1
2
  0
TEXT
  5
57
 67
     1
  8
BORDER
 10
14.599697
 20
0.449042
 30
0.0
 40
0.08
  1
1
  0
TEXT
  5
58
 67
     1
  8
BORDER
 10
14.855782
 20
1.172001
 30
0.17469
 40
0.067935
  1
WHERE USED
  0
LINE
  5
59
 67
     1
  8
BORDER
 10
14.812109
 20
1.278756
 30
0.17469
 11
14.812109
 21
0.089303
 31
0.17469
  0
TEXT
  5
5A
 67
     1
  8
BORDER
 10
14.205547
 20
0.599406
 30
0.17469
 40
0.067935
  1
SHEET
  0
TEXT
  5
5B
 67
     1
  8
BORDER
 10
13.842142
 20
0.308256
 30
0.17469
 40
0.067935
  1
PART NO.
  0
TEXT
  5
5C
 67
     1
  8
BORDER
 10
14.421549
 20
0.448978
 30
0.17469
 40
0.067935
  1
OF
  0
TEXT
  5
5D
 67
     1
  8
BORDER
 10
14.186137
 20
0.885703
 30
0.17469
 40
0.067935
  1
APPROVED
  0
POLYLINE
  5
5E
 67
     1
  8
BORDER
 66
     1
 10
0.0
 20
0.0
 30
0.34938
 40
0.010918
 41
0.010918
  0
VERTEX
  5
2624
 67
     1
  8
BORDER
 10
13.716883
 20
1.921031
 30
0.34938
 42
0.939934
  0
VERTEX
  5
2625
 67
     1
  8
BORDER
 10
13.708702
 20
2.053011
 30
0.34938
 42
0.939934
  0
SEQEND
  5
2626
 67
     1
  8
BORDER
  0
POLYLINE
  5
62
 67
     1
  8
BORDER
 66
     1
 10
0.0
 20
0.0
 30
0.34938
 40
0.010918
 41
0.010918
  0
VERTEX
  5
2627
 67
     1
  8
BORDER
 10
13.763474
 20
1.863792
 30
0.34938
 42
0.358135
  0
VERTEX
  5
2628
 67
     1
  8
BORDER
 10
13.717029
 20
1.91018
 30
0.34938
 42
0.358135
  0
SEQEND
  5
2629
 67
     1
  8
BORDER
  0
SOLID
  5
66
 67
     1
  8
BORDER
 10
13.717043
 20
1.848631
 30
0.34938
 11
13.721256
 21
1.799453
 31
0.34938
 12
13.768907
 22
1.864328
 32
0.34938
 13
13.77489
 23
1.803604
 33
0.34938
  0
SOLID
  5
67
 67
     1
  8
BORDER
 10
13.717043
 20
1.848631
 30
0.34938
 11
13.768907
 21
1.864328
 31
0.34938
 12
13.718137
 22
1.864924
 32
0.34938
 13
13.76242
 23
1.880434
 33
0.34938
  0
SOLID
  5
68
 67
     1
  8
BORDER
 10
13.718137
 20
1.864924
 30
0.34938
 11
13.76242
 21
1.880434
 31
0.34938
 12
13.705591
 22
1.881911
 32
0.34938
 13
13.735112
 23
1.90259
 33
0.34938
  0
SOLID
  5
69
 67
     1
  8
BORDER
 10
13.712257
 20
1.934786
 30
0.34938
 11
13.733117
 21
1.92506
 31
0.34938
 12
13.731281
 22
1.977462
 32
0.34938
 13
13.773665
 23
1.96389
 33
0.34938
  0
SOLID
  5
6A
 67
     1
  8
BORDER
 10
13.731281
 20
1.977462
 30
0.34938
 11
13.773665
 21
1.96389
 31
0.34938
 12
13.72563
 22
2.000082
 32
0.34938
 13
13.768014
 23
2.022136
 33
0.34938
  0
SOLID
  5
6B
 67
     1
  8
BORDER
 10
13.72563
 20
2.000082
 30
0.34938
 11
13.768014
 21
2.022136
 31
0.34938
 12
13.706981
 22
2.019874
 32
0.34938
 13
13.726195
 23
2.050976
 33
0.34938
  0
SOLID
  5
6C
 67
     1
  8
BORDER
 10
13.725784
 20
1.785517
 30
0.34938
 11
13.782059
 21
1.785517
 31
0.34938
 12
13.723206
 22
1.793107
 32
0.34938
 13
13.773836
 23
1.798429
 33
0.34938
  0
SOLID
  5
6D
 67
     1
  8
BORDER
 10
13.723206
 20
1.793107
 30
0.34938
 11
13.773836
 21
1.798429
 31
0.34938
 12
13.721256
 22
1.799453
 32
0.34938
 13
13.77489
 23
1.803604
 33
0.34938
  0
SOLID
  5
6E
 67
     1
  8
BORDER
 10
13.076166
 20
2.05847
 30
0.34938
 11
13.130756
 21
2.05847
 31
0.34938
 12
13.076166
 22
1.785517
 32
0.34938
 13
13.130756
 23
1.785517
 33
0.34938
  0
SOLID
  5
6F
 67
     1
  8
BORDER
 10
12.93423
 20
1.785517
 30
0.34938
 11
12.988821
 21
1.785517
 31
0.34938
 12
12.93423
 22
2.013433
 32
0.34938
 13
12.988821
 23
2.013433
 33
0.34938
  0
SOLID
  5
70
 67
     1
  8
BORDER
 10
12.846885
 20
2.05847
 30
0.34938
 11
13.076166
 21
2.05847
 31
0.34938
 12
12.846885
 22
2.013433
 32
0.34938
 13
13.076166
 23
2.013433
 33
0.34938
  0
POLYLINE
  5
71
 67
     1
  8
BORDER
 66
     1
 10
0.0
 20
0.0
 30
0.34938
 70
     1
 40
0.010918
 41
0.010918
  0
VERTEX
  5
262A
 67
     1
  8
BORDER
 10
13.361175
 20
1.982948
 30
0.34938
 42
0.228527
  0
VERTEX
  5
262B
 67
     1
  8
BORDER
 10
13.36245
 20
1.859016
 30
0.34938
 42
0.623004
  0
VERTEX
  5
262C
 67
     1
  8
BORDER
 10
13.493762
 20
1.859431
 30
0.34938
 42
0.229006
  0
VERTEX
  5
262D
 67
     1
  8
BORDER
 10
13.494142
 20
1.983489
 30
0.34938
 42
0.632312
  0
SEQEND
  5
262E
 67
     1
  8
BORDER
  0
POLYLINE
  5
77
 67
     1
  8
BORDER
 66
     1
 10
0.0
 20
0.0
 30
0.34938
 40
0.010918
 41
0.010918
  0
VERTEX
  5
262F
 67
     1
  8
BORDER
 10
13.545433
 20
1.974541
 30
0.34938
 42
0.741471
  0
VERTEX
  5
2630
 67
     1
  8
BORDER
 10
13.310596
 20
1.973154
 30
0.34938
 42
0.741471
  0
SEQEND
  5
2631
 67
     1
  8
BORDER
  0
POLYLINE
  5
7B
 67
     1
  8
BORDER
 66
     1
 10
0.0
 20
0.0
 30
0.34938
 40
0.010918
 41
0.010918
  0
VERTEX
  5
2632
 67
     1
  8
BORDER
 10
13.310141
 20
1.875747
 30
0.34938
 42
0.761639
  0
VERTEX
  5
2633
 67
     1
  8
BORDER
 10
13.547465
 20
1.878246
 30
0.34938
 42
0.761639
  0
SEQEND
  5
2634
 67
     1
  8
BORDER
  0
SOLID
  5
7F
 67
     1
  8
BORDER
 10
13.427434
 20
2.064008
 30
0.34938
 11
13.426281
 21
2.02478
 31
0.34938
 12
13.354794
 22
2.038625
 32
0.34938
 13
13.375548
 23
2.007473
 33
0.34938
  0
SOLID
  5
80
 67
     1
  8
BORDER
 10
13.379422
 20
1.793568
 30
0.34938
 11
13.399335
 21
1.821925
 31
0.34938
 12
13.428439
 22
1.784371
 32
0.34938
 13
13.428439
 23
1.818859
 33
0.34938
  0
POLYLINE
  5
81
 67
     1
  8
BORDER
 66
     1
 10
0.0
 20
0.0
 30
0.34938
 40
0.010918
 41
0.010918
  0
VERTEX
  5
2635
 67
     1
  8
BORDER
 10
13.310596
 20
1.973154
 30
0.34938
 42
0.143054
  0
VERTEX
  5
2636
 67
     1
  8
BORDER
 10
13.310141
 20
1.875747
 30
0.34938
 42
0.143054
  0
SEQEND
  5
2637
 67
     1
  8
BORDER
  0
SOLID
  5
85
 67
     1
  8
BORDER
 10
13.302067
 20
1.921558
 30
0.34938
 11
13.346489
 21
1.917726
 31
0.34938
 12
13.32198
 22
1.843384
 32
0.34938
 13
13.361041
 23
1.857946
 33
0.34938
  0
SOLID
  5
86
 67
     1
  8
BORDER
 10
13.244032
 20
2.05847
 30
0.34938
 11
13.298622
 21
2.05847
 31
0.34938
 12
13.244032
 22
1.785517
 32
0.34938
 13
13.298622
 23
1.785517
 33
0.34938
  0
SOLID
  5
87
 67
     1
  8
BORDER
 10
13.32198
 20
1.843384
 30
0.34938
 11
13.361041
 21
1.857946
 31
0.34938
 12
13.379422
 22
1.793568
 32
0.34938
 13
13.399335
 23
1.821925
 33
0.34938
  0
SOLID
  5
88
 67
     1
  8
BORDER
 10
13.244032
 20
1.952019
 30
0.34938
 11
13.130756
 21
1.952019
 31
0.34938
 12
13.244032
 22
1.905617
 32
0.34938
 13
13.130756
 23
1.905617
 33
0.34938
  0
SOLID
  5
89
 67
     1
  8
BORDER
 10
13.354794
 20
2.038625
 30
0.34938
 11
13.375548
 21
2.007473
 31
0.34938
 12
13.317897
 22
1.997089
 32
0.34938
 13
13.3571
 23
1.969398
 33
0.34938
  0
SOLID
  5
8A
 67
     1
  8
BORDER
 10
13.317897
 20
1.997089
 30
0.34938
 11
13.3571
 21
1.969398
 31
0.34938
 12
13.302067
 22
1.921558
 32
0.34938
 13
13.346489
 23
1.917726
 33
0.34938
  0
SOLID
  5
8B
 67
     1
  8
BORDER
 10
13.558039
 20
1.785517
 30
0.34938
 11
13.558039
 21
2.05847
 31
0.34938
 12
13.613799
 22
1.785517
 32
0.34938
 13
13.613799
 23
2.052523
 33
0.34938
  0
POLYLINE
  5
8C
 67
     1
  8
BORDER
 66
     1
 10
0.0
 20
0.0
 30
0.34938
 40
0.010918
 41
0.010918
  0
VERTEX
  5
2638
 67
     1
  8
BORDER
 10
13.722482
 20
1.849097
 30
0.34938
 42
0.389398
  0
VERTEX
  5
2639
 67
     1
  8
BORDER
 10
13.666963
 20
1.900063
 30
0.34938
 42
0.389398
  0
SEQEND
  5
263A
 67
     1
  8
BORDER
  0
POLYLINE
  5
90
 67
     1
  8
BORDER
 66
     1
 10
0.0
 20
0.0
 30
0.34938
 40
0.010918
 41
0.010918
  0
VERTEX
  5
263B
 67
     1
  8
BORDER
 10
13.547465
 20
1.878246
 30
0.34938
 42
0.140695
  0
VERTEX
  5
263C
 67
     1
  8
BORDER
 10
13.545433
 20
1.974541
 30
0.34938
 42
0.140695
  0
SEQEND
  5
263D
 67
     1
  8
BORDER
  0
SOLID
  5
94
 67
     1
  8
BORDER
 10
13.499667
 20
1.808896
 30
0.34938
 11
13.48052
 21
1.834954
 31
0.34938
 12
13.537962
 22
1.851815
 32
0.34938
 13
13.505795
 23
1.885537
 33
0.34938
  0
SOLID
  5
95
 67
     1
  8
BORDER
 10
13.537962
 20
1.851815
 30
0.34938
 11
13.505795
 21
1.885537
 31
0.34938
 12
13.554812
 22
1.933054
 32
0.34938
 13
13.507326
 23
1.937652
 33
0.34938
  0
SOLID
  5
96
 67
     1
  8
BORDER
 10
13.428439
 20
1.784371
 30
0.34938
 11
13.428439
 21
1.818859
 31
0.34938
 12
13.499667
 22
1.808896
 32
0.34938
 13
13.48052
 23
1.834954
 33
0.34938
  0
POLYLINE
  5
97
 67
     1
  8
BORDER
 66
     1
 10
0.0
 20
0.0
 30
0.34938
 40
0.010918
 41
0.010918
  0
VERTEX
  5
263E
 67
     1
  8
BORDER
 10
13.726695
 20
1.799919
 30
0.34938
 42
0.114836
  0
VERTEX
  5
263F
 67
     1
  8
BORDER
 10
13.730458
 20
1.788337
 30
0.34938
 42
0.114836
  0
SEQEND
  5
2640
 67
     1
  8
BORDER
  0
POLYLINE
  5
9B
 67
     1
  8
BORDER
 66
     1
 10
0.0
 20
0.0
 30
0.34938
 40
0.010918
 41
0.010918
  0
VERTEX
  5
2641
 67
     1
  8
BORDER
 10
13.708702
 20
2.053011
 30
0.34938
  0
VERTEX
  5
2642
 67
     1
  8
BORDER
 10
13.558039
 20
2.053011
 30
0.34938
  0
SEQEND
  5
2643
 67
     1
  8
BORDER
  0
SOLID
  5
9F
 67
     1
  8
BORDER
 10
13.554812
 20
1.933054
 30
0.34938
 11
13.507326
 21
1.937652
 31
0.34938
 12
13.531835
 22
2.01046
 32
0.34938
 13
13.491243
 23
1.9913
 33
0.34938
  0
SOLID
  5
A0
 67
     1
  8
BORDER
 10
13.531835
 20
2.01046
 30
0.34938
 11
13.491243
 21
1.9913
 31
0.34938
 12
13.477457
 22
2.053379
 32
0.34938
 13
13.46367
 23
2.014293
 33
0.34938
  0
SOLID
  5
A1
 67
     1
  8
BORDER
 10
13.477457
 20
2.053379
 30
0.34938
 11
13.46367
 21
2.014293
 31
0.34938
 12
13.427434
 22
2.064008
 32
0.34938
 13
13.426281
 23
2.02478
 33
0.34938
  0
POLYLINE
  5
A2
 67
     1
  8
BORDER
 66
     1
 10
0.0
 20
0.0
 30
0.34938
 40
0.010918
 41
0.010918
  0
VERTEX
  5
2644
 67
     1
  8
BORDER
 10
13.683555
 20
1.930291
 30
0.34938
 42
1.0
  0
VERTEX
  5
2645
 67
     1
  8
BORDER
 10
13.683555
 20
2.022317
 30
0.34938
 42
1.0
  0
SEQEND
  5
2646
 67
     1
  8
BORDER
  0
SOLID
  5
A6
 67
     1
  8
BORDER
 10
13.613799
 20
2.016858
 30
0.34938
 11
13.613799
 21
2.052523
 31
0.34938
 12
13.683555
 22
2.016858
 32
0.34938
 13
13.708702
 23
2.05847
 33
0.34938
  0
SOLID
  5
A7
 67
     1
  8
BORDER
 10
13.613799
 20
1.93575
 30
0.34938
 11
13.613799
 21
1.894604
 31
0.34938
 12
13.683555
 22
1.93575
 32
0.34938
 13
13.666963
 23
1.894604
 33
0.34938
  0
SOLID
  5
A8
 67
     1
  8
BORDER
 10
13.705591
 20
1.881911
 30
0.34938
 11
13.735112
 21
1.90259
 31
0.34938
 12
13.690779
 22
1.896652
 32
0.34938
 13
13.717557
 23
1.915614
 33
0.34938
  0
SOLID
  5
A9
 67
     1
  8
BORDER
 10
13.690779
 20
1.896652
 30
0.34938
 11
13.717557
 21
1.915614
 31
0.34938
 12
13.666963
 22
1.894604
 32
0.34938
 13
13.683555
 23
1.93575
 33
0.34938
  0
SOLID
  5
AA
 67
     1
  8
BORDER
 10
13.706981
 20
2.019874
 30
0.34938
 11
13.726195
 21
2.050976
 31
0.34938
 12
13.683555
 22
2.016858
 32
0.34938
 13
13.708702
 23
2.05847
 33
0.34938
  0
SOLID
  5
AB
 67
     1
  8
BORDER
 10
13.712257
 20
1.934786
 30
0.34938
 11
13.733117
 21
1.92506
 31
0.34938
 12
13.683555
 22
1.93575
 32
0.34938
 13
13.717557
 23
1.915614
 33
0.34938
  0
TEXT
  5
AC
 67
     1
  8
BORDER
 10
14.965664
 20
1.960207
 30
0.34938
 40
0.109181
  1
PO BOX 366
  0
TEXT
  5
AD
 67
     1
  8
BORDER
 10
14.965664
 20
1.778238
 30
0.34938
 40
0.109181
  1
NEWTON NJ
  0
ARC
  5
AE
 67
     1
  8
BORDER
 10
14.35698
 20
1.860495
 30
0.34938
 40
0.069808
 50
297.452648
 51
341.332312
  0
ARC
  5
AF
 67
     1
  8
BORDER
 10
14.366706
 20
1.989406
 30
0.34938
 40
0.052103
 50
313.157563
 51
358.653261
  0
ARC
  5
B0
 67
     1
  8
BORDER
 10
14.357376
 20
1.989626
 30
0.34938
 40
0.061436
 50
358.653261
 51
58.670206
  0
POLYLINE
  5
B1
 67
     1
  8
BORDER
 66
     1
 10
0.0
 20
0.0
 30
0.34938
  0
VERTEX
  5
2647
 67
     1
  8
BORDER
 10
14.426431
 20
1.867546
 30
0.34938
  0
VERTEX
  5
2648
 67
     1
  8
BORDER
 10
14.470198
 20
1.867546
 30
0.34938
 42
0.302044
  0
VERTEX
  5
2649
 67
     1
  8
BORDER
 10
14.498187
 20
1.826311
 30
0.34938
 42
0.26537
  0
VERTEX
  5
264A
 67
     1
  8
BORDER
 10
14.573231
 20
1.836196
 30
0.34938
 42
0.635606
  0
VERTEX
  5
264B
 67
     1
  8
BORDER
 10
14.561118
 20
1.892652
 30
0.34938
 42
-0.000944
  0
VERTEX
  5
264C
 67
     1
  8
BORDER
 10
14.471646
 20
1.913503
 30
0.34938
 42
-0.344245
  0
VERTEX
  5
264D
 67
     1
  8
BORDER
 10
14.41885
 20
1.97921
 30
0.34938
 42
-0.322222
  0
VERTEX
  5
264E
 67
     1
  8
BORDER
 10
14.472996
 20
2.056742
 30
0.34938
 42
-0.141736
  0
VERTEX
  5
264F
 67
     1
  8
BORDER
 10
14.56555
 20
2.061941
 30
0.34938
 42
-0.333774
  0
VERTEX
  5
2650
 67
     1
  8
BORDER
 10
14.63196
 20
1.983261
 30
0.34938
  0
VERTEX
  5
2651
 67
     1
  8
BORDER
 10
14.577987
 20
1.983261
 30
0.34938
 42
0.301979
  0
VERTEX
  5
2652
 67
     1
  8
BORDER
 10
14.552203
 20
2.019094
 30
0.34938
 42
0.197288
  0
VERTEX
  5
2653
 67
     1
  8
BORDER
 10
14.494965
 20
2.01743
 30
0.34938
 42
0.728374
  0
VERTEX
  5
2654
 67
     1
  8
BORDER
 10
14.501472
 20
1.956771
 30
0.34938
 42
0.001957
  0
SEQEND
  5
2655
 67
     1
  8
BORDER
  0
ARC
  5
C1
 67
     1
  8
BORDER
 10
14.35698
 20
1.860495
 30
0.34938
 40
0.069808
 50
5.797667
 51
41.821431
  0
LINE
  5
C2
 67
     1
  8
BORDER
 10
14.043087
 20
1.885145
 30
0.34938
 11
14.122274
 21
1.885145
 31
0.34938
  0
LINE
  5
C3
 67
     1
  8
BORDER
 10
14.08268
 20
2.01367
 30
0.34938
 11
14.043087
 21
1.885145
 31
0.34938
  0
POLYLINE
  5
C4
 67
     1
  8
BORDER
 66
     1
 10
0.0
 20
0.0
 30
0.34938
  0
VERTEX
  5
2656
 67
     1
  8
BORDER
 10
14.134887
 20
1.844202
 30
0.34938
  0
VERTEX
  5
2657
 67
     1
  8
BORDER
 10
14.030474
 20
1.844202
 30
0.34938
  0
VERTEX
  5
2658
 67
     1
  8
BORDER
 10
14.012395
 20
1.785517
 30
0.34938
  0
VERTEX
  5
2659
 67
     1
  8
BORDER
 10
13.955075
 20
1.785517
 30
0.34938
  0
SEQEND
  5
265A
 67
     1
  8
BORDER
  0
POLYLINE
  5
CA
 67
     1
  8
BORDER
 66
     1
 10
0.0
 20
0.0
 30
0.34938
  0
VERTEX
  5
265B
 67
     1
  8
BORDER
 10
13.971547
 20
1.831919
 30
0.34938
  0
VERTEX
  5
265C
 67
     1
  8
BORDER
 10
14.051973
 20
2.05847
 30
0.34938
  0
VERTEX
  5
265D
 67
     1
  8
BORDER
 10
14.113388
 20
2.05847
 30
0.34938
  0
VERTEX
  5
265E
 67
     1
  8
BORDER
 10
14.203433
 20
1.804822
 30
0.34938
  0
SEQEND
  5
265F
 67
     1
  8
BORDER
  0
LINE
  5
D0
 67
     1
  8
BORDER
 10
13.837705
 20
1.831919
 30
0.34938
 11
13.837705
 21
2.05847
 31
0.34938
  0
LINE
  5
D1
 67
     1
  8
BORDER
 10
13.780385
 20
2.05847
 30
0.34938
 11
13.780385
 21
1.785517
 31
0.34938
  0
LINE
  5
D2
 67
     1
  8
BORDER
 10
13.780385
 20
1.785517
 30
0.34938
 11
13.974181
 21
1.785517
 31
0.34938
  0
LINE
  5
D3
 67
     1
  8
BORDER
 10
13.971547
 20
1.831919
 30
0.34938
 11
13.837705
 21
1.831919
 31
0.34938
  0
POLYLINE
  5
D4
 67
     1
  8
BORDER
 66
     1
 10
0.0
 20
0.0
 30
0.34938
 40
0.010918
 41
0.010918
  0
VERTEX
  5
2660
 67
     1
  8
BORDER
 10
13.769457
 20
1.803068
 30
0.34938
 42
0.095067
  0
VERTEX
  5
2661
 67
     1
  8
BORDER
 10
13.773817
 20
1.788338
 30
0.34938
 42
0.140492
  0
SEQEND
  5
2662
 67
     1
  8
BORDER
  0
LINE
  5
D8
 67
     1
  8
BORDER
 10
13.837705
 20
2.05847
 30
0.34938
 11
13.780385
 21
2.05847
 31
0.34938
  0
ARC
  5
D9
 67
     1
  8
BORDER
 10
14.33057
 20
1.868797
 30
0.34938
 40
0.038184
 50
313.227508
 51
90.0
  0
LINE
  5
DA
 67
     1
  8
BORDER
 10
14.258023
 20
1.906981
 30
0.34938
 11
14.258023
 21
1.827825
 31
0.34938
  0
LINE
  5
DB
 67
     1
  8
BORDER
 10
14.203433
 20
2.05847
 30
0.34938
 11
14.203433
 21
1.804822
 31
0.34938
  0
LINE
  5
DC
 67
     1
  8
BORDER
 10
14.203433
 20
1.785517
 30
0.34938
 11
14.335815
 21
1.785517
 31
0.34938
  0
POLYLINE
  5
DD
 67
     1
  8
BORDER
 66
     1
 10
0.0
 20
0.0
 30
0.34938
  0
VERTEX
  5
2663
 67
     1
  8
BORDER
 10
14.210286
 20
1.785517
 30
0.34938
  0
VERTEX
  5
2664
 67
     1
  8
BORDER
 10
14.152966
 20
1.785517
 30
0.34938
  0
VERTEX
  5
2665
 67
     1
  8
BORDER
 10
14.134887
 20
1.844202
 30
0.34938
  0
SEQEND
  5
2666
 67
     1
  8
BORDER
  0
ARC
  5
E2
 67
     1
  8
BORDER
 10
14.323532
 20
1.876285
 30
0.34938
 40
0.04846
 50
270.0
 51
313.227508
  0
LINE
  5
E3
 67
     1
  8
BORDER
 10
14.258023
 20
1.827825
 30
0.34938
 11
14.323532
 21
1.827825
 31
0.34938
  0
ARC
  5
E4
 67
     1
  8
BORDER
 10
14.335815
 20
1.901235
 30
0.34938
 40
0.115718
 50
270.0
 51
297.452648
  0
LINE
  5
E5
 67
     1
  8
BORDER
 10
14.330957
 20
2.05847
 30
0.34938
 11
14.203433
 21
2.05847
 31
0.34938
  0
LINE
  5
E6
 67
     1
  8
BORDER
 10
14.122274
 20
1.885145
 30
0.34938
 11
14.08268
 21
2.01367
 31
0.34938
  0
LINE
  5
E7
 67
     1
  8
BORDER
 10
14.33057
 20
1.906981
 30
0.34938
 11
14.258023
 21
1.906981
 31
0.34938
  0
ARC
  5
E8
 67
     1
  8
BORDER
 10
14.327044
 20
1.983408
 30
0.34938
 40
0.034119
 50
270.0
 51
90.000005
  0
LINE
  5
E9
 67
     1
  8
BORDER
 10
14.258023
 20
1.949289
 30
0.34938
 11
14.327044
 21
1.949289
 31
0.34938
  0
LINE
  5
EA
 67
     1
  8
BORDER
 10
14.258023
 20
2.017527
 30
0.34938
 11
14.258023
 21
1.949289
 31
0.34938
  0
LINE
  5
EB
 67
     1
  8
BORDER
 10
14.327044
 20
2.017527
 30
0.34938
 11
14.258023
 21
2.017527
 31
0.34938
  0
ARC
  5
EC
 67
     1
  8
BORDER
 10
14.330957
 20
1.946225
 30
0.34938
 40
0.112245
 50
58.670206
 51
90.0
  0
ARC
  5
ED
 67
     1
  8
BORDER
 10
14.335982
 20
1.841706
 30
0.34938
 40
0.097985
 50
41.821431
 51
67.21117
  0
ARC
  5
EE
 67
     1
  8
BORDER
 10
14.326262
 20
2.03254
 30
0.34938
 40
0.111232
 50
295.378395
 51
313.157563
  0
SOLID
  5
EF
 67
     1
  8
BORDER
 10
14.683586
 20
1.778584
 30
0.34938
 11
14.683586
 21
1.805547
 31
0.34938
 12
14.811983
 22
1.778584
 32
0.34938
 13
14.811983
 23
1.805547
 33
0.34938
  0
SOLID
  5
F0
 67
     1
  8
BORDER
 10
14.811983
 20
1.828017
 30
0.34938
 11
14.683586
 21
1.828017
 31
0.34938
 12
14.811983
 22
1.85498
 32
0.34938
 13
14.683586
 23
1.85498
 33
0.34938
  0
SOLID
  5
F1
 67
     1
  8
BORDER
 10
14.683586
 20
1.937154
 30
0.34938
 11
14.811983
 21
1.937154
 31
0.34938
 12
14.683586
 22
1.910191
 32
0.34938
 13
14.811983
 23
1.910191
 33
0.34938
  0
SOLID
  5
F2
 67
     1
  8
BORDER
 10
14.683586
 20
1.855622
 30
0.34938
 11
14.81198
 21
1.936463
 31
0.34938
 12
14.683595
 22
1.829892
 32
0.34938
 13
14.811983
 23
1.909549
 33
0.34938
  0
POLYLINE
  5
F3
 67
     1
  8
BORDER
 66
     1
 10
0.0
 20
0.0
 30
0.34938
 40
0.005136
 41
0.005136
  0
VERTEX
  5
2667
 67
     1
  8
BORDER
 10
14.722736
 20
2.041629
 30
0.34938
 42
0.342627
  0
VERTEX
  5
2668
 67
     1
  8
BORDER
 10
14.697973
 20
2.015297
 30
0.34938
 42
0.294281
  0
VERTEX
  5
2669
 67
     1
  8
BORDER
 10
14.715619
 20
1.981228
 30
0.34938
 42
0.273538
  0
VERTEX
  5
266A
 67
     1
  8
BORDER
 10
14.779841
 20
1.982096
 30
0.34938
 42
0.20817
  0
VERTEX
  5
266B
 67
     1
  8
BORDER
 10
14.796164
 20
2.005312
 30
0.34938
 42
0.418985
  0
VERTEX
  5
266C
 67
     1
  8
BORDER
 10
14.770998
 20
2.042799
 30
0.34938
 42
0.418985
  0
SEQEND
  5
266D
 67
     1
  8
BORDER
  0
POLYLINE
  5
FB
 67
     1
  8
BORDER
 66
     1
 10
0.0
 20
0.0
 30
0.34938
 40
0.005136
 41
0.005136
  0
VERTEX
  5
266E
 67
     1
  8
BORDER
 10
14.719873
 20
1.9573
 30
0.34938
 42
0.270661
  0
VERTEX
  5
266F
 67
     1
  8
BORDER
 10
14.792793
 20
1.968664
 30
0.34938
 42
0.270661
  0
SEQEND
  5
2670
 67
     1
  8
BORDER
  0
SOLID
  5
FF
 67
     1
  8
BORDER
 10
14.72525
 20
1.975351
 30
0.34938
 11
14.712073
 21
1.959596
 31
0.34938
 12
14.751605
 22
1.973235
 32
0.34938
 13
14.753017
 23
1.951365
 33
0.34938
  0
POLYLINE
  5
100
 67
     1
  8
BORDER
 66
     1
 10
0.0
 20
0.0
 30
0.34938
  0
VERTEX
  5
2671
 67
     1
  8
BORDER
 10
14.501472
 20
1.956771
 30
0.34938
 42
0.001957
  0
VERTEX
  5
2672
 67
     1
  8
BORDER
 10
14.579637
 20
1.940847
 30
0.34938
 42
-0.213696
  0
VERTEX
  5
2673
 67
     1
  8
BORDER
 10
14.632798
 20
1.90369
 30
0.34938
 42
-0.207559
  0
VERTEX
  5
2674
 67
     1
  8
BORDER
 10
14.64015
 20
1.847639
 30
0.34938
 42
-0.231198
  0
VERTEX
  5
2675
 67
     1
  8
BORDER
 10
14.588441
 20
1.790241
 30
0.34938
 42
-0.176336
  0
VERTEX
  5
2676
 67
     1
  8
BORDER
 10
14.480508
 20
1.78657
 30
0.34938
 42
-0.211591
  0
VERTEX
  5
2677
 67
     1
  8
BORDER
 10
14.423116
 20
1.838151
 30
0.34938
  0
SEQEND
  5
2678
 67
     1
  8
BORDER
  0
POLYLINE
  5
109
 67
     1
  8
BORDER
 66
     1
 10
0.0
 20
0.0
 30
0.34938
 40
0.005136
 41
0.005136
  0
VERTEX
  5
2679
 67
     1
  8
BORDER
 10
14.685568
 20
2.030528
 30
0.34938
 42
0.398621
  0
VERTEX
  5
267A
 67
     1
  8
BORDER
 10
14.719873
 20
1.9573
 30
0.34938
 42
0.398621
  0
SEQEND
  5
267B
 67
     1
  8
BORDER
  0
SOLID
  5
10D
 67
     1
  8
BORDER
 10
14.71419
 20
2.039314
 30
0.34938
 11
14.701248
 21
2.053424
 31
0.34938
 12
14.698189
 22
2.022148
 32
0.34938
 13
14.683364
 23
2.028262
 33
0.34938
  0
SOLID
  5
10E
 67
     1
  8
BORDER
 10
14.698189
 20
2.022148
 30
0.34938
 11
14.683364
 21
2.028262
 31
0.34938
 12
14.700777
 22
1.994869
 32
0.34938
 13
14.685247
 23
1.98852
 33
0.34938
  0
SOLID
  5
10F
 67
     1
  8
BORDER
 10
14.700777
 20
1.994869
 30
0.34938
 11
14.685247
 21
1.98852
 31
0.34938
 12
14.72525
 22
1.975351
 32
0.34938
 13
14.712073
 23
1.959596
 33
0.34938
  0
POLYLINE
  5
110
 67
     1
  8
BORDER
 66
     1
 10
0.0
 20
0.0
 30
0.34938
 40
0.005136
 41
0.005136
  0
VERTEX
  5
267C
 67
     1
  8
BORDER
 10
14.72266
 20
2.061556
 30
0.34938
 42
0.284121
  0
VERTEX
  5
267D
 67
     1
  8
BORDER
 10
14.685568
 20
2.030528
 30
0.34938
 42
0.288845
  0
SEQEND
  5
267E
 67
     1
  8
BORDER
  0
SOLID
  5
114
 67
     1
  8
BORDER
 10
14.71419
 20
2.039314
 30
0.34938
 11
14.701248
 21
2.053424
 31
0.34938
 12
14.71961
 22
2.040702
 32
0.34938
 13
14.71794
 23
2.062929
 33
0.34938
  0
SOLID
  5
115
 67
     1
  8
BORDER
 10
14.71961
 20
2.040702
 30
0.34938
 11
14.71794
 21
2.062929
 31
0.34938
 12
14.723135
 22
2.039092
 32
0.34938
 13
14.723135
 23
2.064211
 33
0.34938
  0
POLYLINE
  5
116
 67
     1
  8
BORDER
 66
     1
 10
0.0
 20
0.0
 30
0.34938
 40
0.005136
 41
0.005136
  0
VERTEX
  5
267F
 67
     1
  8
BORDER
 10
14.792793
 20
1.968664
 30
0.34938
 42
0.179001
  0
VERTEX
  5
2680
 67
     1
  8
BORDER
 10
14.811724
 20
2.00073
 30
0.34938
 42
0.179001
  0
SEQEND
  5
2681
 67
     1
  8
BORDER
  0
POLYLINE
  5
11A
 67
     1
  8
BORDER
 66
     1
 10
0.0
 20
0.0
 30
0.34938
 40
0.005136
 41
0.005136
  0
VERTEX
  5
2682
 67
     1
  8
BORDER
 10
14.811724
 20
2.00073
 30
0.34938
 42
0.152191
  0
VERTEX
  5
2683
 67
     1
  8
BORDER
 10
14.80725
 20
2.036917
 30
0.34938
 42
0.152191
  0
SEQEND
  5
2684
 67
     1
  8
BORDER
  0
SOLID
  5
11E
 67
     1
  8
BORDER
 10
14.751605
 20
1.973235
 30
0.34938
 11
14.753017
 21
1.951365
 31
0.34938
 12
14.785754
 22
1.984096
 32
0.34938
 13
14.795374
 23
1.968247
 33
0.34938
  0
SOLID
  5
11F
 67
     1
  8
BORDER
 10
14.785754
 20
1.984096
 30
0.34938
 11
14.795374
 21
1.968247
 31
0.34938
 12
14.796934
 22
2.009297
 32
0.34938
 13
14.813573
 23
2.000984
 33
0.34938
  0
SOLID
  5
120
 67
     1
  8
BORDER
 10
14.796934
 20
2.009297
 30
0.34938
 11
14.813573
 21
2.000984
 31
0.34938
 12
14.790174
 22
2.031641
 32
0.34938
 13
14.806033
 23
2.042294
 33
0.34938
  0
SOLID
  5
121
 67
     1
  8
BORDER
 10
14.790174
 20
2.031641
 30
0.34938
 11
14.806033
 21
2.042294
 31
0.34938
 12
14.774051
 22
2.041139
 32
0.34938
 13
14.776781
 23
2.064718
 33
0.34938
  0
POLYLINE
  5
122
 67
     1
  8
BORDER
 66
     1
 10
0.0
 20
0.0
 30
0.34938
 40
0.005136
 41
0.005136
  0
VERTEX
  5
2685
 67
     1
  8
BORDER
 10
14.80725
 20
2.036917
 30
0.34938
 42
0.261966
  0
VERTEX
  5
2686
 67
     1
  8
BORDER
 10
14.770878
 20
2.063621
 30
0.34938
 42
0.265647
  0
SEQEND
  5
2687
 67
     1
  8
BORDER
  0
SOLID
  5
126
 67
     1
  8
BORDER
 10
14.774051
 20
2.041139
 30
0.34938
 11
14.776781
 21
2.064718
 31
0.34938
 12
14.770523
 22
2.040275
 32
0.34938
 13
14.770523
 23
2.066246
 33
0.34938
  0
LINE
  5
127
 67
     1
  8
BORDER
 10
9.516875
 20
11.72763
 30
0.11646
 11
16.120819
 21
11.72763
 31
0.11646
  0
LINE
  5
128
 67
     1
  8
BORDER
 10
16.120819
 20
11.51913
 30
0.11646
 11
16.120819
 21
11.72763
 31
0.11646
  0
VIEWPORT
  5
129
 67
     1
  8
VIEW-BORDER
 10
8.136188
 20
5.916481
 30
0.0
 40
15.775439
 41
11.487033
 68
     2
 69
     2
1001
ACAD
1000
MVIEW
1002
{
1070
    16
1010
0.0
1020
0.0
1030
0.0
1010
0.0
1020
0.0
1030
1.0
1040
0.0
1040
9.43517
1040
9.895573
1040
11.788147
1040
50.0
1040
0.0
1040
0.0
1070
     0
1070
   100
1070
     0
1070
     1
1070
     0
1070
     0
1070
     0
1070
     0
1040
0.0
1040
0.0
1040
0.0
1040
0.005
1040
0.005
1040
0.25
1040
0.25
1070
     0
1002
{
1002
}
1002
}
  0
TEXT
  5
12B
 67
     1
  8
BORDER
 10
14.860796
 20
1.015835
 30
0.0
 40
0.1
  1
WEB
 72
     1
 11
15.010796
 21
1.015835
 31
0.0
  0
TEXT
  5
151
 67
     1
  8
BORDER
 10
13.567577
 20
0.449042
 30
0.0
 40
0.08
  1
A
  0
TEXT
  5
66F
 67
     1
  8
BORDER
 10
13.929698
 20
0.144042
 30
0.0
 40
0.11
  1
PDA255
  0
TEXT
  5
674
 67
     1
  8
SHEET3
 10
14.256482
 20
0.449042
 30
0.0
 40
0.08
  1
3
  0
TEXT
  5
675
 67
     1
  8
SHEET1
 10
14.272557
 20
0.449042
 30
0.0
 40
0.08
  1
1
  0
TEXT
  5
2605
 67
     1
  8
BORDER
 10
14.877846
 20
0.900932
 30
0.0
 40
0.1
  1
MECHANICAL
  0
TEXT
  5
2609
 67
     1
  8
BORDER
 10
14.393741
 20
0.739042
 30
0.0
 40
0.1
  1
EC
  0
TEXT
  5
2610
 67
     1
  8
BORDER
 10
14.877846
 20
0.762765
 30
0.0
 40
0.1
  1
DRAWING
  0
INSERT
  5
2618
 67
     1
  8
BORDER
  2
COPYRIGHT99
 10
0.186659
 20
11.290792
 30
0.0
 41
0.75
 42
0.75
 43
0.75
  0
LINE
  5
2621
 67
     1
  8
D1
 10
9.446027
 20
0.231583
 30
0.0
 11
4.964611
 21
0.231583
 31
0.0
  0
LINE
  5
2622
 67
     1
  8
D1
 10
5.035886
 20
0.276088
 30
0.0
 11
9.374752
 21
0.276088
 31
0.0
  0
TEXT
  5
2623
 67
     1
  8
D1
 10
5.10918
 20
0.31125
 30
0.0
 40
0.1125
  1
INFORMATION ONLY, NOT FOR MANUFACTURING
  0
ENDSEC
  0
EOF
