ISO-10303-21;
HEADER;
FILE_DESCRIPTION (( 'STEP AP203' ),
    '1' );
FILE_NAME ('34599_34599.step',
    '2017-08-24T13:18:54',
    ( '' ),
    ( '' ),
    'SwSTEP 2.0',
    'SolidWorks 2016',
    '' );
FILE_SCHEMA (( 'CONFIG_CONTROL_DESIGN' ));
ENDSEC;

DATA;
#1 = PRODUCT_RELATED_PRODUCT_CATEGORY ( 'detail', '', ( #144 ) ) ;
#2 = ORIENTED_EDGE ( 'NONE', *, *, #157, .F. ) ;
#3 = PERSON_AND_ORGANIZATION ( #72, #54 ) ;
#4 = CARTESIAN_POINT ( 'NONE',  ( 0.0000000000000000000, 0.0000000000000000000, 0.0000000000000000000 ) ) ;
#5 = CC_DESIGN_DATE_AND_TIME_ASSIGNMENT ( #52, #50, ( #111 ) ) ;
#6 = ORIENTED_EDGE ( 'NONE', *, *, #131, .F. ) ;
#7 = VECTOR ( 'NONE', #129, 1000.000000000000000 ) ;
#8 = AXIS2_PLACEMENT_3D ( 'NONE', #108, #25, #139 ) ;
#9 = DIRECTION ( 'NONE',  ( 1.000000000000000000, 0.0000000000000000000, 0.0000000000000000000 ) ) ;
#10 = APPROVAL_STATUS ( 'not_yet_approved' ) ;
#11 = PERSON_AND_ORGANIZATION_ROLE ( 'creator' ) ;
#12 =( LENGTH_UNIT ( ) NAMED_UNIT ( * ) SI_UNIT ( .MILLI., .METRE. ) );
#13 = ORIENTED_EDGE ( 'NONE', *, *, #51, .T. ) ;
#14 = COORDINATED_UNIVERSAL_TIME_OFFSET ( 5, 0, .BEHIND. ) ;
#15 = FACE_OUTER_BOUND ( 'NONE', #97, .T. ) ;
#16 = CC_DESIGN_PERSON_AND_ORGANIZATION_ASSIGNMENT ( #22, #38, ( #89 ) ) ;
#17 = APPROVAL_PERSON_ORGANIZATION ( #20, #126, #24 ) ;
#18 = AXIS2_PLACEMENT_3D ( 'NONE', #36, #26, #106 ) ;
#19 = CARTESIAN_POINT ( 'NONE',  ( 25.00000000000000000, 3.061616997868383000E-015, 1.000000000000000000 ) ) ;
#20 = PERSON_AND_ORGANIZATION ( #72, #54 ) ;
#21 = CALENDAR_DATE ( 2017, 24, 8 ) ;
#22 = PERSON_AND_ORGANIZATION ( #72, #54 ) ;
#23 =( NAMED_UNIT ( * ) SI_UNIT ( $, .STERADIAN. ) SOLID_ANGLE_UNIT ( ) );
#24 = APPROVAL_ROLE ( '' ) ;
#25 = DIRECTION ( 'NONE',  ( 0.0000000000000000000, 0.0000000000000000000, 1.000000000000000000 ) ) ;
#26 = DIRECTION ( 'NONE',  ( 0.0000000000000000000, 0.0000000000000000000, 1.000000000000000000 ) ) ;
#27 = PERSON_AND_ORGANIZATION ( #72, #54 ) ;
#28 = AXIS2_PLACEMENT_3D ( 'NONE', #130, #143, #101 ) ;
#29 = PERSON_AND_ORGANIZATION ( #72, #54 ) ;
#30 = CYLINDRICAL_SURFACE ( 'NONE', #43, 25.00000000000000000 ) ;
#31 = COORDINATED_UNIVERSAL_TIME_OFFSET ( 5, 0, .BEHIND. ) ;
#32 = ADVANCED_FACE ( 'NONE', ( #112 ), #87, .T. ) ;
#33 = ORIENTED_EDGE ( 'NONE', *, *, #157, .T. ) ;
#34 = CARTESIAN_POINT ( 'NONE',  ( 25.00000000000000000, 3.061616997868383000E-015, 1.000000000000000000 ) ) ;
#35 = ORIENTED_EDGE ( 'NONE', *, *, #69, .T. ) ;
#36 = CARTESIAN_POINT ( 'NONE',  ( 0.0000000000000000000, 0.0000000000000000000, 1.000000000000000000 ) ) ;
#37 = CARTESIAN_POINT ( 'NONE',  ( -25.00000000000000000, 0.0000000000000000000, 1.000000000000000000 ) ) ;
#38 = PERSON_AND_ORGANIZATION_ROLE ( 'classification_officer' ) ;
#39 = FACE_OUTER_BOUND ( 'NONE', #66, .T. ) ;
#40 = CIRCLE ( 'NONE', #8, 25.00000000000000000 ) ;
#41 = LOCAL_TIME ( 9, 18, 54.00000000000000000, #31 ) ;
#42 = DIRECTION ( 'NONE',  ( -0.0000000000000000000, -0.0000000000000000000, -1.000000000000000000 ) ) ;
#43 = AXIS2_PLACEMENT_3D ( 'NONE', #128, #42, #58 ) ;
#44 = CARTESIAN_POINT ( 'NONE',  ( 0.0000000000000000000, 0.0000000000000000000, 0.0000000000000000000 ) ) ;
#45 = ADVANCED_FACE ( 'NONE', ( #15 ), #30, .T. ) ;
#46 = SECURITY_CLASSIFICATION_LEVEL ( 'unclassified' ) ;
#47 = CARTESIAN_POINT ( 'NONE',  ( 25.00000000000000000, 3.061616997868383000E-015, 0.0000000000000000000 ) ) ;
#48 = CIRCLE ( 'NONE', #169, 25.00000000000000000 ) ;
#49 = CARTESIAN_POINT ( 'NONE',  ( -25.00000000000000000, 0.0000000000000000000, 1.000000000000000000 ) ) ;
#50 = DATE_TIME_ROLE ( 'creation_date' ) ;
#51 = EDGE_CURVE ( 'NONE', #125, #174, #120, .T. ) ;
#52 = DATE_AND_TIME ( #56, #41 ) ;
#53 = APPROVAL ( #10, 'UNSPECIFIED' ) ;
#54 = ORGANIZATION ( 'UNSPECIFIED', 'UNSPECIFIED', '' ) ;
#55 = DATE_AND_TIME ( #109, #163 ) ;
#56 = CALENDAR_DATE ( 2017, 24, 8 ) ;
#57 = CC_DESIGN_PERSON_AND_ORGANIZATION_ASSIGNMENT ( #96, #11, ( #75 ) ) ;
#58 = DIRECTION ( 'NONE',  ( -1.000000000000000000, 0.0000000000000000000, 0.0000000000000000000 ) ) ;
#59 = VERTEX_POINT ( 'NONE', #73 ) ;
#60 = DIRECTION ( 'NONE',  ( 0.0000000000000000000, 0.0000000000000000000, 1.000000000000000000 ) ) ;
#61 = UNCERTAINTY_MEASURE_WITH_UNIT (LENGTH_MEASURE( 1.000000000000000100E-005 ), #12, 'distance_accuracy_value', 'NONE');
#62 = DIRECTION ( 'NONE',  ( -0.0000000000000000000, -0.0000000000000000000, -1.000000000000000000 ) ) ;
#63 = APPROVAL_PERSON_ORGANIZATION ( #3, #53, #107 ) ;
#64 = EDGE_CURVE ( 'NONE', #174, #59, #161, .T. ) ;
#65 = PERSON_AND_ORGANIZATION_ROLE ( 'creator' ) ;
#66 = EDGE_LOOP ( 'NONE', ( #115, #76 ) ) ;
#67 = PERSON_AND_ORGANIZATION ( #72, #54 ) ;
#68 = APPROVAL_DATE_TIME ( #102, #164 ) ;
#69 = EDGE_CURVE ( 'NONE', #59, #174, #82, .T. ) ;
#70 = ORIENTED_EDGE ( 'NONE', *, *, #131, .T. ) ;
#71 = CC_DESIGN_APPROVAL ( #53, ( #75 ) ) ;
#72 = PERSON ( 'UNSPECIFIED', 'UNSPECIFIED', 'UNSPECIFIED', ('UNSPECIFIED'), ('UNSPECIFIED'), ('UNSPECIFIED') ) ;
#73 = CARTESIAN_POINT ( 'NONE',  ( -25.00000000000000000, 0.0000000000000000000, 0.0000000000000000000 ) ) ;
#74 = AXIS2_PLACEMENT_3D ( 'NONE', #4, #78, #149 ) ;
#75 = PRODUCT_DEFINITION_FORMATION_WITH_SPECIFIED_SOURCE ( 'ANY', '', #144, .NOT_KNOWN. ) ;
#76 = ORIENTED_EDGE ( 'NONE', *, *, #64, .F. ) ;
#77 = EDGE_LOOP ( 'NONE', ( #70, #81 ) ) ;
#78 = DIRECTION ( 'NONE',  ( 0.0000000000000000000, 0.0000000000000000000, 1.000000000000000000 ) ) ;
#79 = APPLICATION_CONTEXT ( 'configuration controlled 3d designs of mechanical parts and assemblies' ) ;
#80 = APPROVAL_STATUS ( 'not_yet_approved' ) ;
#81 = ORIENTED_EDGE ( 'NONE', *, *, #159, .T. ) ;
#82 = CIRCLE ( 'NONE', #119, 25.00000000000000000 ) ;
#83 = AXIS2_PLACEMENT_3D ( 'NONE', #44, #60, #156 ) ;
#84 = AXIS2_PLACEMENT_3D ( 'NONE', #110, #88, #9 ) ;
#85 = CALENDAR_DATE ( 2017, 24, 8 ) ;
#86 = DESIGN_CONTEXT ( 'detailed design', #172, 'design' ) ;
#87 = CYLINDRICAL_SURFACE ( 'NONE', #28, 25.00000000000000000 ) ;
#88 = DIRECTION ( 'NONE',  ( 0.0000000000000000000, 0.0000000000000000000, 1.000000000000000000 ) ) ;
#89 = SECURITY_CLASSIFICATION ( '', '', #46 ) ;
#90 = APPLICATION_PROTOCOL_DEFINITION ( 'international standard', 'config_control_design', 1994, #172 ) ;
#91 = APPROVAL_PERSON_ORGANIZATION ( #29, #164, #94 ) ;
#92 = MECHANICAL_CONTEXT ( 'NONE', #79, 'mechanical' ) ;
#93 = CC_DESIGN_SECURITY_CLASSIFICATION ( #89, ( #75 ) ) ;
#94 = APPROVAL_ROLE ( '' ) ;
#95 = DIRECTION ( 'NONE',  ( 1.000000000000000000, 0.0000000000000000000, 0.0000000000000000000 ) ) ;
#96 = PERSON_AND_ORGANIZATION ( #72, #54 ) ;
#97 = EDGE_LOOP ( 'NONE', ( #117, #13, #147, #2 ) ) ;
#98 = MANIFOLD_SOLID_BREP ( 'Boss-Extrude1', #167 ) ;
#99 = COORDINATED_UNIVERSAL_TIME_OFFSET ( 5, 0, .BEHIND. ) ;
#100 = CC_DESIGN_PERSON_AND_ORGANIZATION_ASSIGNMENT ( #67, #65, ( #111 ) ) ;
#101 = DIRECTION ( 'NONE',  ( -1.000000000000000000, 0.0000000000000000000, 0.0000000000000000000 ) ) ;
#102 = DATE_AND_TIME ( #21, #127 ) ;
#103 = ADVANCED_FACE ( 'NONE', ( #39 ), #168, .F. ) ;
#104 = EDGE_LOOP ( 'NONE', ( #154, #6, #33, #35 ) ) ;
#105 = COORDINATED_UNIVERSAL_TIME_OFFSET ( 5, 0, .BEHIND. ) ;
#106 = DIRECTION ( 'NONE',  ( 1.000000000000000000, 0.0000000000000000000, -0.0000000000000000000 ) ) ;
#107 = APPROVAL_ROLE ( '' ) ;
#108 = CARTESIAN_POINT ( 'NONE',  ( 0.0000000000000000000, 0.0000000000000000000, 1.000000000000000000 ) ) ;
#109 = CALENDAR_DATE ( 2017, 24, 8 ) ;
#110 = CARTESIAN_POINT ( 'NONE',  ( 0.0000000000000000000, 0.0000000000000000000, 0.0000000000000000000 ) ) ;
#111 = PRODUCT_DEFINITION ( 'UNKNOWN', '', #75, #86 ) ;
#112 = FACE_OUTER_BOUND ( 'NONE', #104, .T. ) ;
#113 = PRODUCT_DEFINITION_SHAPE ( 'NONE', 'NONE',  #111 ) ;
#114 = CC_DESIGN_APPROVAL ( #164, ( #89 ) ) ;
#115 = ORIENTED_EDGE ( 'NONE', *, *, #69, .F. ) ;
#116 = CC_DESIGN_PERSON_AND_ORGANIZATION_ASSIGNMENT ( #142, #137, ( #144 ) ) ;
#117 = ORIENTED_EDGE ( 'NONE', *, *, #159, .F. ) ;
#118 = CARTESIAN_POINT ( 'NONE',  ( 0.0000000000000000000, 0.0000000000000000000, 0.0000000000000000000 ) ) ;
#119 = AXIS2_PLACEMENT_3D ( 'NONE', #118, #136, #160 ) ;
#120 = LINE ( 'NONE', #19, #7 ) ;
#121 = DIRECTION ( 'NONE',  ( 0.0000000000000000000, 0.0000000000000000000, 1.000000000000000000 ) ) ;
#122 = PERSON_AND_ORGANIZATION_ROLE ( 'design_supplier' ) ;
#123 = LOCAL_TIME ( 9, 18, 54.00000000000000000, #105 ) ;
#124 = CC_DESIGN_APPROVAL ( #126, ( #111 ) ) ;
#125 = VERTEX_POINT ( 'NONE', #34 ) ;
#126 = APPROVAL ( #80, 'UNSPECIFIED' ) ;
#127 = LOCAL_TIME ( 9, 18, 54.00000000000000000, #173 ) ;
#128 = CARTESIAN_POINT ( 'NONE',  ( 0.0000000000000000000, 0.0000000000000000000, 1.000000000000000000 ) ) ;
#129 = DIRECTION ( 'NONE',  ( -0.0000000000000000000, -0.0000000000000000000, -1.000000000000000000 ) ) ;
#130 = CARTESIAN_POINT ( 'NONE',  ( 0.0000000000000000000, 0.0000000000000000000, 1.000000000000000000 ) ) ;
#131 = EDGE_CURVE ( 'NONE', #135, #125, #48, .T. ) ;
#132 = DATE_AND_TIME ( #165, #151 ) ;
#133 = ADVANCED_FACE ( 'NONE', ( #170 ), #148, .T. ) ;
#134 =( NAMED_UNIT ( * ) PLANE_ANGLE_UNIT ( ) SI_UNIT ( $, .RADIAN. ) );
#135 = VERTEX_POINT ( 'NONE', #37 ) ;
#136 = DIRECTION ( 'NONE',  ( 0.0000000000000000000, 0.0000000000000000000, 1.000000000000000000 ) ) ;
#137 = PERSON_AND_ORGANIZATION_ROLE ( 'design_owner' ) ;
#138 = DATE_TIME_ROLE ( 'classification_date' ) ;
#139 = DIRECTION ( 'NONE',  ( 1.000000000000000000, 0.0000000000000000000, 0.0000000000000000000 ) ) ;
#140 = CC_DESIGN_PERSON_AND_ORGANIZATION_ASSIGNMENT ( #27, #122, ( #75 ) ) ;
#141 = SHAPE_DEFINITION_REPRESENTATION ( #113, #166 ) ;
#142 = PERSON_AND_ORGANIZATION ( #72, #54 ) ;
#143 = DIRECTION ( 'NONE',  ( -0.0000000000000000000, -0.0000000000000000000, -1.000000000000000000 ) ) ;
#144 = PRODUCT ( '34599_34599', '34599_34599', '', ( #92 ) ) ;
#145 = CC_DESIGN_DATE_AND_TIME_ASSIGNMENT ( #55, #138, ( #89 ) ) ;
#146 = VECTOR ( 'NONE', #62, 1000.000000000000000 ) ;
#147 = ORIENTED_EDGE ( 'NONE', *, *, #64, .T. ) ;
#148 = PLANE ( 'NONE',  #18 ) ;
#149 = DIRECTION ( 'NONE',  ( 1.000000000000000000, 0.0000000000000000000, -0.0000000000000000000 ) ) ;
#150 = APPROVAL_STATUS ( 'not_yet_approved' ) ;
#151 = LOCAL_TIME ( 9, 18, 54.00000000000000000, #14 ) ;
#152 = DATE_AND_TIME ( #85, #123 ) ;
#153 =( GEOMETRIC_REPRESENTATION_CONTEXT ( 3 ) GLOBAL_UNCERTAINTY_ASSIGNED_CONTEXT ( ( #61 ) ) GLOBAL_UNIT_ASSIGNED_CONTEXT ( ( #12, #134, #23 ) ) REPRESENTATION_CONTEXT ( 'NONE', 'WORKASPACE' ) );
#154 = ORIENTED_EDGE ( 'NONE', *, *, #51, .F. ) ;
#155 = APPROVAL_DATE_TIME ( #132, #53 ) ;
#156 = DIRECTION ( 'NONE',  ( 1.000000000000000000, 0.0000000000000000000, 0.0000000000000000000 ) ) ;
#157 = EDGE_CURVE ( 'NONE', #135, #59, #158, .T. ) ;
#158 = LINE ( 'NONE', #49, #146 ) ;
#159 = EDGE_CURVE ( 'NONE', #125, #135, #40, .T. ) ;
#160 = DIRECTION ( 'NONE',  ( 1.000000000000000000, 0.0000000000000000000, 0.0000000000000000000 ) ) ;
#161 = CIRCLE ( 'NONE', #83, 25.00000000000000000 ) ;
#162 = APPLICATION_PROTOCOL_DEFINITION ( 'international standard', 'config_control_design', 1994, #79 ) ;
#163 = LOCAL_TIME ( 9, 18, 54.00000000000000000, #99 ) ;
#164 = APPROVAL ( #150, 'UNSPECIFIED' ) ;
#165 = CALENDAR_DATE ( 2017, 24, 8 ) ;
#166 = ADVANCED_BREP_SHAPE_REPRESENTATION ( '34599_34599', ( #98, #84 ), #153 ) ;
#167 = CLOSED_SHELL ( 'NONE', ( #45, #32, #133, #103 ) ) ;
#168 = PLANE ( 'NONE',  #74 ) ;
#169 = AXIS2_PLACEMENT_3D ( 'NONE', #171, #121, #95 ) ;
#170 = FACE_OUTER_BOUND ( 'NONE', #77, .T. ) ;
#171 = CARTESIAN_POINT ( 'NONE',  ( 0.0000000000000000000, 0.0000000000000000000, 1.000000000000000000 ) ) ;
#172 = APPLICATION_CONTEXT ( 'configuration controlled 3d designs of mechanical parts and assemblies' ) ;
#173 = COORDINATED_UNIVERSAL_TIME_OFFSET ( 5, 0, .BEHIND. ) ;
#174 = VERTEX_POINT ( 'NONE', #47 ) ;
#175 = APPROVAL_DATE_TIME ( #152, #126 ) ;
ENDSEC;
END-ISO-10303-21;
