ISO-10303-21;
HEADER;
FILE_DESCRIPTION (( 'STEP AP214' ),
    '1' );
FILE_NAME ('3363-E0W.STEP',
    '2009-12-21T16:57:52',
    ( ' ' ),
    ( ' ' ),
    'SwSTEP 2.0',
    'SolidWorks 2009',
    '' );
FILE_SCHEMA (( 'AUTOMOTIVE_DESIGN' ));
ENDSEC;

DATA;
#1 = CIRCLE ( 'NONE', #141, 12.70000000000001000 ) ;
#2 = CARTESIAN_POINT ( 'NONE',  ( 12.70000000000000600, -6.274098110942214900E-015, -0.9991548502167342200 ) ) ;
#3 = CARTESIAN_POINT ( 'NONE',  ( -1.555250069354420900E-015, -12.70000000000002200, -0.9991548502167333400 ) ) ;
#4 = DIRECTION ( 'NONE',  ( -1.224606353822377300E-016, -1.000000000000000000, 0.0000000000000000000 ) ) ;
#5 = DIRECTION ( 'NONE',  ( -1.000000000000000000, 1.224606353822377300E-016, 0.0000000000000000000 ) ) ;
#6 = AXIS2_PLACEMENT_3D ( 'NONE', #27, #5, #4 ) ;
#7 = CIRCLE ( 'NONE', #6, 76.54999999999999700 ) ;
#8 = DIRECTION ( 'NONE',  ( 1.000000000000000000, 0.0000000000000000000, 0.0000000000000000000 ) ) ;
#9 = DIRECTION ( 'NONE',  ( -0.0000000000000000000, -0.0000000000000000000, 1.000000000000000000 ) ) ;
#10 = CARTESIAN_POINT ( 'NONE',  ( 0.0000000000000000000, -6.274098110942214900E-015, -0.9991548502167342200 ) ) ;
#11 = AXIS2_PLACEMENT_3D ( 'NONE', #10, #9, #8 ) ;
#12 = CARTESIAN_POINT ( 'NONE',  ( 0.0000000000000000000, 8.973599420752228400E-015, -74.48999999999998100 ) ) ;
#13 = AXIS2_PLACEMENT_3D ( 'NONE', #12, #33, #32 ) ;
#14 = CIRCLE ( 'NONE', #31, 12.70000000000001000 ) ;
#15 = SPHERICAL_SURFACE ( 'NONE', #13, 76.54999999999999700 ) ;
#16 =( GEOMETRIC_REPRESENTATION_CONTEXT ( 3 ) GLOBAL_UNCERTAINTY_ASSIGNED_CONTEXT ( ( #17 ) ) GLOBAL_UNIT_ASSIGNED_CONTEXT ( ( #94, #93, #92 ) ) REPRESENTATION_CONTEXT ( 'NONE', 'WORKASPACE' ) );
#17 = UNCERTAINTY_MEASURE_WITH_UNIT (LENGTH_MEASURE( 1.000000000000000100E-005 ), #94, 'distance_accuracy_value', 'NONE');
#18 = EDGE_CURVE ( 'NONE', #156, #109, #151, .T. ) ;
#19 = EDGE_LOOP ( 'NONE', ( #86, #21, #91, #113 ) ) ;
#20 = VERTEX_POINT ( 'NONE', #123 ) ;
#21 = ORIENTED_EDGE ( 'NONE', *, *, #55, .T. ) ;
#22 = EDGE_CURVE ( 'NONE', #56, #57, #71, .T. ) ;
#23 = ORIENTED_EDGE ( 'NONE', *, *, #61, .T. ) ;
#24 = VERTEX_POINT ( 'NONE', #67 ) ;
#25 = ORIENTED_EDGE ( 'NONE', *, *, #157, .T. ) ;
#26 = CIRCLE ( 'NONE', #11, 12.70000000000000600 ) ;
#27 = CARTESIAN_POINT ( 'NONE',  ( 0.0000000000000000000, -9.271188592945035600E-015, 74.48999999999998100 ) ) ;
#28 = DIRECTION ( 'NONE',  ( 1.000000000000000000, 0.0000000000000000000, 0.0000000000000000000 ) ) ;
#29 = DIRECTION ( 'NONE',  ( -0.0000000000000000000, -0.0000000000000000000, 1.000000000000000000 ) ) ;
#30 = CARTESIAN_POINT ( 'NONE',  ( 0.0000000000000000000, -6.274098110942214900E-015, 0.9991548502167324500 ) ) ;
#31 = AXIS2_PLACEMENT_3D ( 'NONE', #30, #29, #28 ) ;
#32 = DIRECTION ( 'NONE',  ( 0.0000000000000000000, 1.000000000000000000, 0.0000000000000000000 ) ) ;
#33 = DIRECTION ( 'NONE',  ( -1.000000000000000000, 0.0000000000000000000, 0.0000000000000000000 ) ) ;
#34 =( GEOMETRIC_REPRESENTATION_CONTEXT ( 3 ) GLOBAL_UNCERTAINTY_ASSIGNED_CONTEXT ( ( #35 ) ) GLOBAL_UNIT_ASSIGNED_CONTEXT ( ( #127, #37, #36 ) ) REPRESENTATION_CONTEXT ( 'NONE', 'WORKASPACE' ) );
#35 = UNCERTAINTY_MEASURE_WITH_UNIT (LENGTH_MEASURE( 1.000000000000000100E-005 ), #127, 'distance_accuracy_value', 'NONE');
#36 =( NAMED_UNIT ( * ) SI_UNIT ( $, .STERADIAN. ) SOLID_ANGLE_UNIT ( ) );
#37 =( NAMED_UNIT ( * ) PLANE_ANGLE_UNIT ( ) SI_UNIT ( $, .RADIAN. ) );
#38 = SURFACE_STYLE_USAGE ( .BOTH. , #39 ) ;
#39 = SURFACE_SIDE_STYLE ('',( #40 ) ) ;
#40 = SURFACE_STYLE_FILL_AREA ( #41 ) ;
#41 = FILL_AREA_STYLE ('',( #42 ) ) ;
#42 = FILL_AREA_STYLE_COLOUR ( '', #43 ) ;
#43 = COLOUR_RGB ( '',0.9568627450980391500, 0.9490196078431372100, 0.9607843137254902200 ) ;
#44 = FACE_OUTER_BOUND ( 'NONE', #51, .T. ) ;
#45 =( GEOMETRIC_REPRESENTATION_CONTEXT ( 3 ) GLOBAL_UNCERTAINTY_ASSIGNED_CONTEXT ( ( #152 ) ) GLOBAL_UNIT_ASSIGNED_CONTEXT ( ( #75, #154, #153 ) ) REPRESENTATION_CONTEXT ( 'NONE', 'WORKASPACE' ) );
#46 = ORIENTED_EDGE ( 'NONE', *, *, #108, .F. ) ;
#47 = VERTEX_POINT ( 'NONE', #66 ) ;
#48 = ORIENTED_EDGE ( 'NONE', *, *, #18, .T. ) ;
#49 = MANIFOLD_SOLID_BREP ( 'NONE', #73 ) ;
#50 = ADVANCED_FACE ( 'NONE', ( #44 ), #15, .T. ) ;
#51 = EDGE_LOOP ( 'NONE', ( #52, #48, #46, #25 ) ) ;
#52 = ORIENTED_EDGE ( 'NONE', *, *, #163, .T. ) ;
#53 = EDGE_CURVE ( 'NONE', #156, #20, #14, .T. ) ;
#54 = EDGE_CURVE ( 'NONE', #107, #56, #26, .T. ) ;
#55 = EDGE_CURVE ( 'NONE', #159, #56, #7, .T. ) ;
#56 = VERTEX_POINT ( 'NONE', #3 ) ;
#57 = VERTEX_POINT ( 'NONE', #2 ) ;
#58 = ORIENTED_EDGE ( 'NONE', *, *, #160, .T. ) ;
#59 = EDGE_CURVE ( 'NONE', #20, #47, #1, .T. ) ;
#60 = ADVANCED_FACE ( 'NONE', ( #142 ), #180, .T. ) ;
#61 = EDGE_CURVE ( 'NONE', #24, #107, #179, .T. ) ;
#62 = SURFACE_STYLE_FILL_AREA ( #63 ) ;
#63 = FILL_AREA_STYLE ('',( #64 ) ) ;
#64 = FILL_AREA_STYLE_COLOUR ( '', #65 ) ;
#65 = COLOUR_RGB ( '',0.7960784313725489700, 0.8235294117647058400, 0.9372549019607843100 ) ;
#66 = CARTESIAN_POINT ( 'NONE',  ( 0.0000000000000000000, 12.70000000000001700, 0.9991548502167324500 ) ) ;
#67 = CARTESIAN_POINT ( 'NONE',  ( 0.0000000000000000000, 12.70000000000000600, -0.9991548502167333400 ) ) ;
#68 = DIRECTION ( 'NONE',  ( 1.000000000000000000, 0.0000000000000000000, 0.0000000000000000000 ) ) ;
#69 = DIRECTION ( 'NONE',  ( -0.0000000000000000000, -0.0000000000000000000, 1.000000000000000000 ) ) ;
#70 = AXIS2_PLACEMENT_3D ( 'NONE', #122, #69, #68 ) ;
#71 = CIRCLE ( 'NONE', #70, 12.70000000000000600 ) ;
#72 = ORIENTED_EDGE ( 'NONE', *, *, #18, .F. ) ;
#73 = CLOSED_SHELL ( 'NONE', ( #50, #60, #85, #103, #88, #102 ) ) ;
#74 = ORIENTED_EDGE ( 'NONE', *, *, #59, .T. ) ;
#75 =( LENGTH_UNIT ( ) NAMED_UNIT ( * ) SI_UNIT ( .MILLI., .METRE. ) );
#76 = MECHANICAL_DESIGN_GEOMETRIC_PRESENTATION_REPRESENTATION (  '', ( #78 ), #45 ) ;
#77 = PRESENTATION_LAYER_ASSIGNMENT (  '', '', ( #78 ) ) ;
#78 = STYLED_ITEM ( 'NONE', ( #79 ), #49 ) ;
#79 = PRESENTATION_STYLE_ASSIGNMENT (( #80 ) ) ;
#80 = SURFACE_STYLE_USAGE ( .BOTH. , #81 ) ;
#81 = SURFACE_SIDE_STYLE ('',( #62 ) ) ;
#82 = VERTEX_POINT ( 'NONE', #169 ) ;
#83 = ORIENTED_EDGE ( 'NONE', *, *, #105, .F. ) ;
#84 = ORIENTED_EDGE ( 'NONE', *, *, #22, .F. ) ;
#85 = ADVANCED_FACE ( 'NONE', ( #168 ), #181, .T. ) ;
#86 = ORIENTED_EDGE ( 'NONE', *, *, #160, .F. ) ;
#87 = ORIENTED_EDGE ( 'NONE', *, *, #22, .T. ) ;
#88 = ADVANCED_FACE ( 'NONE', ( #209 ), #293, .T. ) ;
#89 = ORIENTED_EDGE ( 'NONE', *, *, #106, .F. ) ;
#90 = ORIENTED_EDGE ( 'NONE', *, *, #112, .F. ) ;
#91 = ORIENTED_EDGE ( 'NONE', *, *, #54, .F. ) ;
#92 =( NAMED_UNIT ( * ) SI_UNIT ( $, .STERADIAN. ) SOLID_ANGLE_UNIT ( ) );
#93 =( NAMED_UNIT ( * ) PLANE_ANGLE_UNIT ( ) SI_UNIT ( $, .RADIAN. ) );
#94 =( LENGTH_UNIT ( ) NAMED_UNIT ( * ) SI_UNIT ( .MILLI., .METRE. ) );
#95 = MECHANICAL_DESIGN_GEOMETRIC_PRESENTATION_REPRESENTATION (  '', ( #97 ), #16 ) ;
#96 = PRESENTATION_LAYER_ASSIGNMENT (  '', '', ( #97 ) ) ;
#97 = STYLED_ITEM ( 'NONE', ( #98 ), #50 ) ;
#98 = PRESENTATION_STYLE_ASSIGNMENT (( #38 ) ) ;
#99 = EDGE_LOOP ( 'NONE', ( #72, #100, #74, #101 ) ) ;
#100 = ORIENTED_EDGE ( 'NONE', *, *, #53, .T. ) ;
#101 = ORIENTED_EDGE ( 'NONE', *, *, #108, .T. ) ;
#102 = ADVANCED_FACE ( 'NONE', ( #185 ), #267, .T. ) ;
#103 = ADVANCED_FACE ( 'NONE', ( #265 ), #285, .T. ) ;
#104 = ORIENTED_EDGE ( 'NONE', *, *, #105, .T. ) ;
#105 = EDGE_CURVE ( 'NONE', #57, #24, #284, .T. ) ;
#106 = EDGE_CURVE ( 'NONE', #107, #82, #275, .T. ) ;
#107 = VERTEX_POINT ( 'NONE', #271 ) ;
#108 = EDGE_CURVE ( 'NONE', #47, #109, #270, .T. ) ;
#109 = VERTEX_POINT ( 'NONE', #203 ) ;
#110 = EDGE_LOOP ( 'NONE', ( #158, #58, #83, #84 ) ) ;
#111 = ORIENTED_EDGE ( 'NONE', *, *, #157, .F. ) ;
#112 = EDGE_CURVE ( 'NONE', #57, #20, #202, .T. ) ;
#113 = ORIENTED_EDGE ( 'NONE', *, *, #61, .F. ) ;
#114 =( GEOMETRIC_REPRESENTATION_CONTEXT ( 3 ) GLOBAL_UNCERTAINTY_ASSIGNED_CONTEXT ( ( #115 ) ) GLOBAL_UNIT_ASSIGNED_CONTEXT ( ( #144, #143, #116 ) ) REPRESENTATION_CONTEXT ( 'NONE', 'WORKASPACE' ) );
#115 = UNCERTAINTY_MEASURE_WITH_UNIT (LENGTH_MEASURE( 1.000000000000000100E-005 ), #144, 'distance_accuracy_value', 'NONE');
#116 =( NAMED_UNIT ( * ) SI_UNIT ( $, .STERADIAN. ) SOLID_ANGLE_UNIT ( ) );
#117 = ORIENTED_EDGE ( 'NONE', *, *, #112, .T. ) ;
#118 = ORIENTED_EDGE ( 'NONE', *, *, #163, .F. ) ;
#119 = ORIENTED_EDGE ( 'NONE', *, *, #53, .F. ) ;
#120 = EDGE_LOOP ( 'NONE', ( #89, #121, #87, #117, #119, #118 ) ) ;
#121 = ORIENTED_EDGE ( 'NONE', *, *, #54, .T. ) ;
#122 = CARTESIAN_POINT ( 'NONE',  ( 0.0000000000000000000, -6.274098110942214900E-015, -0.9991548502167342200 ) ) ;
#123 = CARTESIAN_POINT ( 'NONE',  ( 12.70000000000001000, -6.274098110942214900E-015, 0.9991548502167324500 ) ) ;
#124 = DIRECTION ( 'NONE',  ( -1.224606353822377300E-016, -1.000000000000000000, 0.0000000000000000000 ) ) ;
#125 = DIRECTION ( 'NONE',  ( -1.000000000000000000, 1.224606353822377300E-016, 0.0000000000000000000 ) ) ;
#126 = CARTESIAN_POINT ( 'NONE',  ( 0.0000000000000000000, 8.973599420752228400E-015, -74.48999999999998100 ) ) ;
#127 =( LENGTH_UNIT ( ) NAMED_UNIT ( * ) SI_UNIT ( .MILLI., .METRE. ) );
#128 = MECHANICAL_DESIGN_GEOMETRIC_PRESENTATION_REPRESENTATION (  '', ( #130 ), #34 ) ;
#129 = PRESENTATION_LAYER_ASSIGNMENT (  '', '', ( #130 ) ) ;
#130 = STYLED_ITEM ( 'NONE', ( #131 ), #60 ) ;
#131 = PRESENTATION_STYLE_ASSIGNMENT (( #132 ) ) ;
#132 = SURFACE_STYLE_USAGE ( .BOTH. , #133 ) ;
#133 = SURFACE_SIDE_STYLE ('',( #134 ) ) ;
#134 = SURFACE_STYLE_FILL_AREA ( #135 ) ;
#135 = FILL_AREA_STYLE ('',( #136 ) ) ;
#136 = FILL_AREA_STYLE_COLOUR ( '', #137 ) ;
#137 = COLOUR_RGB ( '',0.9568627450980391500, 0.9490196078431372100, 0.9607843137254902200 ) ;
#138 = DIRECTION ( 'NONE',  ( 1.000000000000000000, 0.0000000000000000000, 0.0000000000000000000 ) ) ;
#139 = DIRECTION ( 'NONE',  ( -0.0000000000000000000, -0.0000000000000000000, 1.000000000000000000 ) ) ;
#140 = CARTESIAN_POINT ( 'NONE',  ( 0.0000000000000000000, -6.274098110942214900E-015, 0.9991548502167324500 ) ) ;
#141 = AXIS2_PLACEMENT_3D ( 'NONE', #140, #139, #138 ) ;
#142 = FACE_OUTER_BOUND ( 'NONE', #162, .T. ) ;
#143 =( NAMED_UNIT ( * ) PLANE_ANGLE_UNIT ( ) SI_UNIT ( $, .RADIAN. ) );
#144 =( LENGTH_UNIT ( ) NAMED_UNIT ( * ) SI_UNIT ( .MILLI., .METRE. ) );
#145 = MECHANICAL_DESIGN_GEOMETRIC_PRESENTATION_REPRESENTATION (  '', ( #147 ), #114 ) ;
#146 = PRESENTATION_LAYER_ASSIGNMENT (  '', '', ( #147 ) ) ;
#147 = STYLED_ITEM ( 'NONE', ( #148 ), #85 ) ;
#148 = PRESENTATION_STYLE_ASSIGNMENT (( #149 ) ) ;
#149 = SURFACE_STYLE_USAGE ( .BOTH. , #164 ) ;
#150 = AXIS2_PLACEMENT_3D ( 'NONE', #126, #125, #124 ) ;
#151 = CIRCLE ( 'NONE', #150, 76.54999999999999700 ) ;
#152 = UNCERTAINTY_MEASURE_WITH_UNIT (LENGTH_MEASURE( 1.000000000000000100E-005 ), #75, 'distance_accuracy_value', 'NONE');
#153 =( NAMED_UNIT ( * ) SI_UNIT ( $, .STERADIAN. ) SOLID_ANGLE_UNIT ( ) );
#154 =( NAMED_UNIT ( * ) PLANE_ANGLE_UNIT ( ) SI_UNIT ( $, .RADIAN. ) );
#155 = ORIENTED_EDGE ( 'NONE', *, *, #106, .T. ) ;
#156 = VERTEX_POINT ( 'NONE', #198 ) ;
#157 = EDGE_CURVE ( 'NONE', #47, #82, #197, .T. ) ;
#158 = ORIENTED_EDGE ( 'NONE', *, *, #55, .F. ) ;
#159 = VERTEX_POINT ( 'NONE', #192 ) ;
#160 = EDGE_CURVE ( 'NONE', #159, #24, #191, .T. ) ;
#161 = ORIENTED_EDGE ( 'NONE', *, *, #59, .F. ) ;
#162 = EDGE_LOOP ( 'NONE', ( #23, #155, #111, #161, #90, #104 ) ) ;
#163 = EDGE_CURVE ( 'NONE', #82, #156, #186, .T. ) ;
#164 = SURFACE_SIDE_STYLE ('',( #165 ) ) ;
#165 = SURFACE_STYLE_FILL_AREA ( #166 ) ;
#166 = FILL_AREA_STYLE ('',( #174 ) ) ;
#167 = COLOUR_RGB ( '',0.9568627450980391500, 0.9490196078431372100, 0.9607843137254902200 ) ;
#168 = FACE_OUTER_BOUND ( 'NONE', #19, .T. ) ;
#169 = CARTESIAN_POINT ( 'NONE',  ( -12.70000000000001200, -4.718848041587794100E-015, 0.9991548502167324500 ) ) ;
#170 = DIRECTION ( 'NONE',  ( 1.000000000000000000, 0.0000000000000000000, 0.0000000000000000000 ) ) ;
#171 = DIRECTION ( 'NONE',  ( -0.0000000000000000000, -0.0000000000000000000, 1.000000000000000000 ) ) ;
#172 = CARTESIAN_POINT ( 'NONE',  ( 0.0000000000000000000, -6.274098110942214900E-015, -0.9991548502167342200 ) ) ;
#173 = AXIS2_PLACEMENT_3D ( 'NONE', #172, #171, #170 ) ;
#174 = FILL_AREA_STYLE_COLOUR ( '', #167 ) ;
#175 = DIRECTION ( 'NONE',  ( 1.000000000000000000, 0.0000000000000000000, 0.0000000000000000000 ) ) ;
#176 = DIRECTION ( 'NONE',  ( -0.0000000000000000000, -0.0000000000000000000, 1.000000000000000000 ) ) ;
#177 = CARTESIAN_POINT ( 'NONE',  ( 0.0000000000000000000, -6.274098110942214900E-015, 6.491000388932064000 ) ) ;
#178 = AXIS2_PLACEMENT_3D ( 'NONE', #177, #176, #175 ) ;
#179 = CIRCLE ( 'NONE', #173, 12.70000000000000600 ) ;
#180 = CYLINDRICAL_SURFACE ( 'NONE', #178, 12.70000000000000800 ) ;
#181 = SPHERICAL_SURFACE ( 'NONE', #207, 76.54999999999999700 ) ;
#182 = DIRECTION ( 'NONE',  ( -0.0000000000000000000, -0.0000000000000000000, 1.000000000000000000 ) ) ;
#183 = AXIS2_PLACEMENT_3D ( 'NONE', #292, #182, #262 ) ;
#184 = COLOUR_RGB ( '',0.9568627450980391500, 0.9490196078431372100, 0.9607843137254902200 ) ;
#185 = FACE_OUTER_BOUND ( 'NONE', #99, .T. ) ;
#186 = CIRCLE ( 'NONE', #248, 12.70000000000001000 ) ;
#187 = DIRECTION ( 'NONE',  ( 0.0000000000000000000, 0.0000000000000000000, -1.000000000000000000 ) ) ;
#188 = DIRECTION ( 'NONE',  ( 1.000000000000000000, 0.0000000000000000000, 0.0000000000000000000 ) ) ;
#189 = CARTESIAN_POINT ( 'NONE',  ( 0.0000000000000000000, -9.271188592945035600E-015, 74.48999999999998100 ) ) ;
#190 = AXIS2_PLACEMENT_3D ( 'NONE', #189, #188, #187 ) ;
#191 = CIRCLE ( 'NONE', #190, 76.54999999999999700 ) ;
#192 = CARTESIAN_POINT ( 'NONE',  ( 0.0000000000000000000, -4.584007773689887100E-015, -2.060000000000006300 ) ) ;
#193 = DIRECTION ( 'NONE',  ( 1.000000000000000000, 0.0000000000000000000, 0.0000000000000000000 ) ) ;
#194 = DIRECTION ( 'NONE',  ( -0.0000000000000000000, -0.0000000000000000000, 1.000000000000000000 ) ) ;
#195 = CARTESIAN_POINT ( 'NONE',  ( 0.0000000000000000000, -6.274098110942214900E-015, 0.9991548502167324500 ) ) ;
#196 = AXIS2_PLACEMENT_3D ( 'NONE', #195, #194, #193 ) ;
#197 = CIRCLE ( 'NONE', #196, 12.70000000000001000 ) ;
#198 = CARTESIAN_POINT ( 'NONE',  ( -1.555250069354422000E-015, -12.70000000000001500, 0.9991548502167324500 ) ) ;
#199 = DIRECTION ( 'NONE',  ( -0.0000000000000000000, -0.0000000000000000000, 1.000000000000000000 ) ) ;
#200 = VECTOR ( 'NONE', #199, 1000.000000000000000 ) ;
#201 = CARTESIAN_POINT ( 'NONE',  ( 12.70000000000000800, -6.274098110942214900E-015, 6.491000388932064000 ) ) ;
#202 = LINE ( 'NONE', #201, #200 ) ;
#203 = CARTESIAN_POINT ( 'NONE',  ( 0.0000000000000000000, 1.366078024000737800E-014, 2.060000000000006300 ) ) ;
#204 = DIRECTION ( 'NONE',  ( 0.0000000000000000000, 0.0000000000000000000, -1.000000000000000000 ) ) ;
#205 = DIRECTION ( 'NONE',  ( 1.000000000000000000, 0.0000000000000000000, 0.0000000000000000000 ) ) ;
#206 = AXIS2_PLACEMENT_3D ( 'NONE', #269, #205, #204 ) ;
#207 = AXIS2_PLACEMENT_3D ( 'NONE', #231, #250, #208 ) ;
#208 = DIRECTION ( 'NONE',  ( 0.0000000000000000000, 1.000000000000000000, 0.0000000000000000000 ) ) ;
#209 = FACE_OUTER_BOUND ( 'NONE', #120, .T. ) ;
#210 = UNCERTAINTY_MEASURE_WITH_UNIT (LENGTH_MEASURE( 1.000000000000000100E-005 ), #251, 'distance_accuracy_value', 'NONE');
#211 = PRESENTATION_LAYER_ASSIGNMENT (  '', '', ( #212 ) ) ;
#212 = STYLED_ITEM ( 'NONE', ( #213 ), #220 ) ;
#213 = PRESENTATION_STYLE_ASSIGNMENT (( #214 ) ) ;
#214 = SURFACE_STYLE_USAGE ( .BOTH. , #215 ) ;
#215 = SURFACE_SIDE_STYLE ('',( #216 ) ) ;
#216 = SURFACE_STYLE_FILL_AREA ( #217 ) ;
#217 = FILL_AREA_STYLE ('',( #218 ) ) ;
#218 = FILL_AREA_STYLE_COLOUR ( '', #219 ) ;
#219 = COLOUR_RGB ( '',0.7960784313725489700, 0.8235294117647058400, 0.9372549019607843100 ) ;
#220 = ADVANCED_BREP_SHAPE_REPRESENTATION ( '3363-E0W', ( #49, #236 ), #239 ) ;
#221 = PRODUCT_RELATED_PRODUCT_CATEGORY ( 'part', '', ( #227 ) ) ;
#222 = PRODUCT_DEFINITION_FORMATION_WITH_SPECIFIED_SOURCE ( 'ANY', '', #227, .NOT_KNOWN. ) ;
#223 = PRODUCT_DEFINITION ( 'UNKNOWN', '', #222, #224 ) ;
#224 = PRODUCT_DEFINITION_CONTEXT ( 'detailed design', #226, 'design' ) ;
#225 = APPLICATION_PROTOCOL_DEFINITION ( 'draft international standard', 'automotive_design', 1998, #226 ) ;
#226 = APPLICATION_CONTEXT ( 'automotive_design' ) ;
#227 = PRODUCT ( '3363-E0W', '3363-E0W', '', ( #228 ) ) ;
#228 = PRODUCT_CONTEXT ( 'NONE', #230, 'mechanical' ) ;
#229 = APPLICATION_PROTOCOL_DEFINITION ( 'draft international standard', 'automotive_design', 1998, #230 ) ;
#230 = APPLICATION_CONTEXT ( 'automotive_design' ) ;
#231 = CARTESIAN_POINT ( 'NONE',  ( 0.0000000000000000000, -9.271188592945035600E-015, 74.48999999999998100 ) ) ;
#232 = PRESENTATION_STYLE_ASSIGNMENT (( #233 ) ) ;
#233 = SURFACE_STYLE_USAGE ( .BOTH. , #234 ) ;
#234 = SURFACE_SIDE_STYLE ('',( #252 ) ) ;
#235 =( GEOMETRIC_REPRESENTATION_CONTEXT ( 3 ) GLOBAL_UNCERTAINTY_ASSIGNED_CONTEXT ( ( #210 ) ) GLOBAL_UNIT_ASSIGNED_CONTEXT ( ( #251, #305, #249 ) ) REPRESENTATION_CONTEXT ( 'NONE', 'WORKASPACE' ) );
#236 = AXIS2_PLACEMENT_3D ( 'NONE', #244, #237, #238 ) ;
#237 = DIRECTION ( 'NONE',  ( 0.0000000000000000000, 0.0000000000000000000, 1.000000000000000000 ) ) ;
#238 = DIRECTION ( 'NONE',  ( 1.000000000000000000, 0.0000000000000000000, 0.0000000000000000000 ) ) ;
#239 =( GEOMETRIC_REPRESENTATION_CONTEXT ( 3 ) GLOBAL_UNCERTAINTY_ASSIGNED_CONTEXT ( ( #240 ) ) GLOBAL_UNIT_ASSIGNED_CONTEXT ( ( #243, #242, #241 ) ) REPRESENTATION_CONTEXT ( 'NONE', 'WORKASPACE' ) );
#240 = UNCERTAINTY_MEASURE_WITH_UNIT (LENGTH_MEASURE( 1.000000000000000100E-005 ), #243, 'distance_accuracy_value', 'NONE');
#241 =( NAMED_UNIT ( * ) SI_UNIT ( $, .STERADIAN. ) SOLID_ANGLE_UNIT ( ) );
#242 =( NAMED_UNIT ( * ) PLANE_ANGLE_UNIT ( ) SI_UNIT ( $, .RADIAN. ) );
#243 =( LENGTH_UNIT ( ) NAMED_UNIT ( * ) SI_UNIT ( .MILLI., .METRE. ) );
#244 = CARTESIAN_POINT ( 'NONE',  ( 0.0000000000000000000, 0.0000000000000000000, 0.0000000000000000000 ) ) ;
#245 = DIRECTION ( 'NONE',  ( 1.000000000000000000, 0.0000000000000000000, 0.0000000000000000000 ) ) ;
#246 = DIRECTION ( 'NONE',  ( -0.0000000000000000000, -0.0000000000000000000, 1.000000000000000000 ) ) ;
#247 = CARTESIAN_POINT ( 'NONE',  ( 0.0000000000000000000, -6.274098110942214900E-015, 0.9991548502167324500 ) ) ;
#248 = AXIS2_PLACEMENT_3D ( 'NONE', #247, #246, #245 ) ;
#249 =( NAMED_UNIT ( * ) SI_UNIT ( $, .STERADIAN. ) SOLID_ANGLE_UNIT ( ) );
#250 = DIRECTION ( 'NONE',  ( -1.000000000000000000, 0.0000000000000000000, 0.0000000000000000000 ) ) ;
#251 =( LENGTH_UNIT ( ) NAMED_UNIT ( * ) SI_UNIT ( .MILLI., .METRE. ) );
#252 = SURFACE_STYLE_FILL_AREA ( #253 ) ;
#253 = FILL_AREA_STYLE ('',( #290 ) ) ;
#254 = PRESENTATION_LAYER_ASSIGNMENT (  '', '', ( #255 ) ) ;
#255 = STYLED_ITEM ( 'NONE', ( #256 ), #102 ) ;
#256 = PRESENTATION_STYLE_ASSIGNMENT (( #257 ) ) ;
#257 = SURFACE_STYLE_USAGE ( .BOTH. , #258 ) ;
#258 = SURFACE_SIDE_STYLE ('',( #259 ) ) ;
#259 = SURFACE_STYLE_FILL_AREA ( #260 ) ;
#260 = FILL_AREA_STYLE ('',( #261 ) ) ;
#261 = FILL_AREA_STYLE_COLOUR ( '', #184 ) ;
#262 = DIRECTION ( 'NONE',  ( 1.000000000000000000, 0.0000000000000000000, 0.0000000000000000000 ) ) ;
#263 = CARTESIAN_POINT ( 'NONE',  ( 0.0000000000000000000, 8.973599420752228400E-015, -74.48999999999998100 ) ) ;
#264 = AXIS2_PLACEMENT_3D ( 'NONE', #263, #320, #319 ) ;
#265 = FACE_OUTER_BOUND ( 'NONE', #110, .T. ) ;
#266 = FILL_AREA_STYLE_COLOUR ( '', #318 ) ;
#267 = SPHERICAL_SURFACE ( 'NONE', #264, 76.54999999999999700 ) ;
#268 =( GEOMETRIC_REPRESENTATION_CONTEXT ( 3 ) GLOBAL_UNCERTAINTY_ASSIGNED_CONTEXT ( ( #303 ) ) GLOBAL_UNIT_ASSIGNED_CONTEXT ( ( #295, #294, #304 ) ) REPRESENTATION_CONTEXT ( 'NONE', 'WORKASPACE' ) );
#269 = CARTESIAN_POINT ( 'NONE',  ( 0.0000000000000000000, 8.973599420752228400E-015, -74.48999999999998100 ) ) ;
#270 = CIRCLE ( 'NONE', #206, 76.54999999999999700 ) ;
#271 = CARTESIAN_POINT ( 'NONE',  ( -12.70000000000000600, -4.718848041587794900E-015, -0.9991548502167342200 ) ) ;
#272 = DIRECTION ( 'NONE',  ( -0.0000000000000000000, -0.0000000000000000000, 1.000000000000000000 ) ) ;
#273 = VECTOR ( 'NONE', #272, 1000.000000000000000 ) ;
#274 = CARTESIAN_POINT ( 'NONE',  ( -12.70000000000000800, -4.718848041587794900E-015, 6.491000388932064000 ) ) ;
#275 = LINE ( 'NONE', #274, #273 ) ;
#276 = DIRECTION ( 'NONE',  ( 1.000000000000000000, 0.0000000000000000000, 0.0000000000000000000 ) ) ;
#277 = DIRECTION ( 'NONE',  ( -0.0000000000000000000, -0.0000000000000000000, 1.000000000000000000 ) ) ;
#278 = CARTESIAN_POINT ( 'NONE',  ( 0.0000000000000000000, -6.274098110942214900E-015, -0.9991548502167342200 ) ) ;
#279 = AXIS2_PLACEMENT_3D ( 'NONE', #278, #277, #276 ) ;
#280 = DIRECTION ( 'NONE',  ( 0.0000000000000000000, 1.000000000000000000, 0.0000000000000000000 ) ) ;
#281 = DIRECTION ( 'NONE',  ( -1.000000000000000000, 0.0000000000000000000, 0.0000000000000000000 ) ) ;
#282 = CARTESIAN_POINT ( 'NONE',  ( 0.0000000000000000000, -9.271188592945035600E-015, 74.48999999999998100 ) ) ;
#283 = AXIS2_PLACEMENT_3D ( 'NONE', #282, #281, #280 ) ;
#284 = CIRCLE ( 'NONE', #279, 12.70000000000000600 ) ;
#285 = SPHERICAL_SURFACE ( 'NONE', #283, 76.54999999999999700 ) ;
#286 =( GEOMETRIC_REPRESENTATION_CONTEXT ( 3 ) GLOBAL_UNCERTAINTY_ASSIGNED_CONTEXT ( ( #306 ) ) GLOBAL_UNIT_ASSIGNED_CONTEXT ( ( #309, #308, #307 ) ) REPRESENTATION_CONTEXT ( 'NONE', 'WORKASPACE' ) );
#287 = MECHANICAL_DESIGN_GEOMETRIC_PRESENTATION_REPRESENTATION (  '', ( #289 ), #235 ) ;
#288 = PRESENTATION_LAYER_ASSIGNMENT (  '', '', ( #289 ) ) ;
#289 = STYLED_ITEM ( 'NONE', ( #232 ), #88 ) ;
#290 = FILL_AREA_STYLE_COLOUR ( '', #291 ) ;
#291 = COLOUR_RGB ( '',0.9568627450980391500, 0.9490196078431372100, 0.9607843137254902200 ) ;
#292 = CARTESIAN_POINT ( 'NONE',  ( 0.0000000000000000000, -6.274098110942214900E-015, 6.491000388932064000 ) ) ;
#293 = CYLINDRICAL_SURFACE ( 'NONE', #183, 12.70000000000000800 ) ;
#294 =( NAMED_UNIT ( * ) PLANE_ANGLE_UNIT ( ) SI_UNIT ( $, .RADIAN. ) );
#295 =( LENGTH_UNIT ( ) NAMED_UNIT ( * ) SI_UNIT ( .MILLI., .METRE. ) );
#296 = MECHANICAL_DESIGN_GEOMETRIC_PRESENTATION_REPRESENTATION (  '', ( #255 ), #268 ) ;
#297 =( GEOMETRIC_REPRESENTATION_CONTEXT ( 3 ) GLOBAL_UNCERTAINTY_ASSIGNED_CONTEXT ( ( #298 ) ) GLOBAL_UNIT_ASSIGNED_CONTEXT ( ( #301, #300, #299 ) ) REPRESENTATION_CONTEXT ( 'NONE', 'WORKASPACE' ) );
#298 = UNCERTAINTY_MEASURE_WITH_UNIT (LENGTH_MEASURE( 1.000000000000000100E-005 ), #301, 'distance_accuracy_value', 'NONE');
#299 =( NAMED_UNIT ( * ) SI_UNIT ( $, .STERADIAN. ) SOLID_ANGLE_UNIT ( ) );
#300 =( NAMED_UNIT ( * ) PLANE_ANGLE_UNIT ( ) SI_UNIT ( $, .RADIAN. ) );
#301 =( LENGTH_UNIT ( ) NAMED_UNIT ( * ) SI_UNIT ( .MILLI., .METRE. ) );
#302 = MECHANICAL_DESIGN_GEOMETRIC_PRESENTATION_REPRESENTATION (  '', ( #212 ), #297 ) ;
#303 = UNCERTAINTY_MEASURE_WITH_UNIT (LENGTH_MEASURE( 1.000000000000000100E-005 ), #295, 'distance_accuracy_value', 'NONE');
#304 =( NAMED_UNIT ( * ) SI_UNIT ( $, .STERADIAN. ) SOLID_ANGLE_UNIT ( ) );
#305 =( NAMED_UNIT ( * ) PLANE_ANGLE_UNIT ( ) SI_UNIT ( $, .RADIAN. ) );
#306 = UNCERTAINTY_MEASURE_WITH_UNIT (LENGTH_MEASURE( 1.000000000000000100E-005 ), #309, 'distance_accuracy_value', 'NONE');
#307 =( NAMED_UNIT ( * ) SI_UNIT ( $, .STERADIAN. ) SOLID_ANGLE_UNIT ( ) );
#308 =( NAMED_UNIT ( * ) PLANE_ANGLE_UNIT ( ) SI_UNIT ( $, .RADIAN. ) );
#309 =( LENGTH_UNIT ( ) NAMED_UNIT ( * ) SI_UNIT ( .MILLI., .METRE. ) );
#310 = MECHANICAL_DESIGN_GEOMETRIC_PRESENTATION_REPRESENTATION (  '', ( #312 ), #286 ) ;
#311 = PRESENTATION_LAYER_ASSIGNMENT (  '', '', ( #312 ) ) ;
#312 = STYLED_ITEM ( 'NONE', ( #313 ), #103 ) ;
#313 = PRESENTATION_STYLE_ASSIGNMENT (( #314 ) ) ;
#314 = SURFACE_STYLE_USAGE ( .BOTH. , #315 ) ;
#315 = SURFACE_SIDE_STYLE ('',( #316 ) ) ;
#316 = SURFACE_STYLE_FILL_AREA ( #317 ) ;
#317 = FILL_AREA_STYLE ('',( #266 ) ) ;
#318 = COLOUR_RGB ( '',0.9568627450980391500, 0.9490196078431372100, 0.9607843137254902200 ) ;
#319 = DIRECTION ( 'NONE',  ( 0.0000000000000000000, 1.000000000000000000, 0.0000000000000000000 ) ) ;
#320 = DIRECTION ( 'NONE',  ( -1.000000000000000000, 0.0000000000000000000, 0.0000000000000000000 ) ) ;
#321 = PRODUCT_DEFINITION_SHAPE ( 'NONE', 'NONE',  #223 ) ;
#322 = SHAPE_DEFINITION_REPRESENTATION ( #321, #220 ) ;
ENDSEC;
END-ISO-10303-21;
