ISO-10303-21;
HEADER;
FILE_DESCRIPTION (( 'STEP AP203' ),
    '1' );
FILE_NAME ('Web Model 14956_18334.step',
    '2021-06-28T13:40:17',
    ( '' ),
    ( '' ),
    'SwSTEP 2.0',
    'SolidWorks 2018',
    '' );
FILE_SCHEMA (( 'CONFIG_CONTROL_DESIGN' ));
ENDSEC;

DATA;
#1 = LOCAL_TIME ( 9, 40, 17.00000000000000000, #108 ) ;
#2 = APPLICATION_CONTEXT ( 'configuration controlled 3d designs of mechanical parts and assemblies' ) ;
#3 =( NAMED_UNIT ( * ) SI_UNIT ( $, .STERADIAN. ) SOLID_ANGLE_UNIT ( ) );
#4 = APPROVAL_ROLE ( '' ) ;
#5 = APPROVAL_ROLE ( '' ) ;
#6 = PERSON_AND_ORGANIZATION ( #8, #87 ) ;
#7 = CC_DESIGN_APPROVAL ( #157, ( #69 ) ) ;
#8 = PERSON ( 'UNSPECIFIED', 'UNSPECIFIED', 'UNSPECIFIED', ('UNSPECIFIED'), ('UNSPECIFIED'), ('UNSPECIFIED') ) ;
#9 = VERTEX_POINT ( 'NONE', #73 ) ;
#10 = FACE_OUTER_BOUND ( 'NONE', #105, .T. ) ;
#11 = EDGE_CURVE ( 'NONE', #23, #42, #174, .T. ) ;
#12 = EDGE_LOOP ( 'NONE', ( #130, #94, #29, #124 ) ) ;
#13 = ADVANCED_FACE ( 'NONE', ( #100 ), #81, .T. ) ;
#14 = CALENDAR_DATE ( 2021, 28, 6 ) ;
#15 = CARTESIAN_POINT ( 'NONE',  ( 0.5000000000000000000, 0.000000000000000000, 0.000000000000000000 ) ) ;
#16 = FACE_OUTER_BOUND ( 'NONE', #34, .T. ) ;
#17 = CARTESIAN_POINT ( 'NONE',  ( -0.5000000000000000000, 0.000000000000000000, 0.000000000000000000 ) ) ;
#18 = LOCAL_TIME ( 9, 40, 17.00000000000000000, #31 ) ;
#19 = CC_DESIGN_PERSON_AND_ORGANIZATION_ASSIGNMENT ( #128, #133, ( #141 ) ) ;
#20 = EDGE_LOOP ( 'NONE', ( #54, #115 ) ) ;
#21 = APPROVAL_DATE_TIME ( #116, #43 ) ;
#22 = SECURITY_CLASSIFICATION ( '', '', #35 ) ;
#23 = VERTEX_POINT ( 'NONE', #49 ) ;
#24 = CALENDAR_DATE ( 2021, 28, 6 ) ;
#25 = AXIS2_PLACEMENT_3D ( 'NONE', #138, #61, #150 ) ;
#26 = APPLICATION_CONTEXT ( 'configuration controlled 3d designs of mechanical parts and assemblies' ) ;
#27 = CARTESIAN_POINT ( 'NONE',  ( 0.5000000000000000000, 0.000000000000000000, 0.000000000000000000 ) ) ;
#28 = CARTESIAN_POINT ( 'NONE',  ( -0.5000000000000000000, 0.000000000000000000, 0.000000000000000000 ) ) ;
#29 = ORIENTED_EDGE ( 'NONE', *, *, #72, .T. ) ;
#30 = CIRCLE ( 'NONE', #140, 5.000000000000000000 ) ;
#31 = COORDINATED_UNIVERSAL_TIME_OFFSET ( 5, 0, .BEHIND. ) ;
#32 = CIRCLE ( 'NONE', #125, 5.000000000000000000 ) ;
#33 = APPROVAL ( #148, 'UNSPECIFIED' ) ;
#34 = EDGE_LOOP ( 'NONE', ( #76, #145, #169, #102 ) ) ;
#35 = SECURITY_CLASSIFICATION_LEVEL ( 'unclassified' ) ;
#36 = MECHANICAL_CONTEXT ( 'NONE', #26, 'mechanical' ) ;
#37 = ADVANCED_BREP_SHAPE_REPRESENTATION ( 'Web Model 14956_18334', ( #171, #136 ), #152 ) ;
#38 = DIRECTION ( 'NONE',  ( 1.000000000000000000, 0.000000000000000000, 0.000000000000000000 ) ) ;
#39 = APPLICATION_PROTOCOL_DEFINITION ( 'international standard', 'config_control_design', 1994, #2 ) ;
#40 = PRODUCT_DEFINITION ( 'UNKNOWN', '', #69, #121 ) ;
#41 = APPROVAL_DATE_TIME ( #44, #33 ) ;
#42 = VERTEX_POINT ( 'NONE', #153 ) ;
#43 = APPROVAL ( #149, 'UNSPECIFIED' ) ;
#44 = DATE_AND_TIME ( #51, #70 ) ;
#45 = AXIS2_PLACEMENT_3D ( 'NONE', #80, #146, #57 ) ;
#46 = DIRECTION ( 'NONE',  ( -1.000000000000000000, -0.000000000000000000, -0.000000000000000000 ) ) ;
#47 = UNCERTAINTY_MEASURE_WITH_UNIT (LENGTH_MEASURE( 1.000000000000000082E-05 ), #106, 'distance_accuracy_value', 'NONE');
#48 = LINE ( 'NONE', #139, #96 ) ;
#49 = CARTESIAN_POINT ( 'NONE',  ( 0.5000000000000000000, 0.000000000000000000, 5.000000000000000000 ) ) ;
#50 = CC_DESIGN_PERSON_AND_ORGANIZATION_ASSIGNMENT ( #103, #111, ( #69 ) ) ;
#51 = CALENDAR_DATE ( 2021, 28, 6 ) ;
#52 = PLANE ( 'NONE',  #142 ) ;
#53 = PLANE ( 'NONE',  #45 ) ;
#54 = ORIENTED_EDGE ( 'NONE', *, *, #120, .F. ) ;
#55 = DIRECTION ( 'NONE',  ( 1.000000000000000000, 0.000000000000000000, 0.000000000000000000 ) ) ;
#56 = CC_DESIGN_PERSON_AND_ORGANIZATION_ASSIGNMENT ( #163, #109, ( #40 ) ) ;
#57 = DIRECTION ( 'NONE',  ( 0.000000000000000000, 0.000000000000000000, -1.000000000000000000 ) ) ;
#58 = CC_DESIGN_PERSON_AND_ORGANIZATION_ASSIGNMENT ( #126, #118, ( #69 ) ) ;
#59 = DATE_TIME_ROLE ( 'classification_date' ) ;
#60 = CIRCLE ( 'NONE', #112, 5.000000000000000000 ) ;
#61 = DIRECTION ( 'NONE',  ( -1.000000000000000000, -0.000000000000000000, -0.000000000000000000 ) ) ;
#62 = CC_DESIGN_DATE_AND_TIME_ASSIGNMENT ( #119, #59, ( #22 ) ) ;
#63 = DIRECTION ( 'NONE',  ( -1.000000000000000000, -0.000000000000000000, -0.000000000000000000 ) ) ;
#64 = EDGE_CURVE ( 'NONE', #117, #9, #48, .T. ) ;
#65 = DIRECTION ( 'NONE',  ( 0.000000000000000000, 0.000000000000000000, -1.000000000000000000 ) ) ;
#66 = FACE_OUTER_BOUND ( 'NONE', #20, .T. ) ;
#67 = APPROVAL_STATUS ( 'not_yet_approved' ) ;
#68 = CARTESIAN_POINT ( 'NONE',  ( -0.5000000000000000000, 0.000000000000000000, 0.000000000000000000 ) ) ;
#69 = PRODUCT_DEFINITION_FORMATION_WITH_SPECIFIED_SOURCE ( 'ANY', '', #141, .NOT_KNOWN. ) ;
#70 = LOCAL_TIME ( 9, 40, 17.00000000000000000, #107 ) ;
#71 = COORDINATED_UNIVERSAL_TIME_OFFSET ( 5, 0, .BEHIND. ) ;
#72 = EDGE_CURVE ( 'NONE', #9, #42, #32, .T. ) ;
#73 = CARTESIAN_POINT ( 'NONE',  ( -0.5000000000000000000, 6.123233995736766282E-16, -5.000000000000000000 ) ) ;
#74 = APPROVAL_DATE_TIME ( #86, #157 ) ;
#75 = CC_DESIGN_PERSON_AND_ORGANIZATION_ASSIGNMENT ( #6, #84, ( #22 ) ) ;
#76 = ORIENTED_EDGE ( 'NONE', *, *, #64, .F. ) ;
#77 = APPLICATION_PROTOCOL_DEFINITION ( 'international standard', 'config_control_design', 1994, #26 ) ;
#78 = DIRECTION ( 'NONE',  ( 1.000000000000000000, 0.000000000000000000, 0.000000000000000000 ) ) ;
#79 = CARTESIAN_POINT ( 'NONE',  ( 0.5000000000000000000, 6.123233995736766282E-16, -5.000000000000000000 ) ) ;
#80 = CARTESIAN_POINT ( 'NONE',  ( 0.5000000000000000000, 0.000000000000000000, 0.000000000000000000 ) ) ;
#81 = CYLINDRICAL_SURFACE ( 'NONE', #25, 5.000000000000000000 ) ;
#82 = DIRECTION ( 'NONE',  ( 0.000000000000000000, 0.000000000000000000, 1.000000000000000000 ) ) ;
#83 = PERSON_AND_ORGANIZATION ( #8, #87 ) ;
#84 = PERSON_AND_ORGANIZATION_ROLE ( 'classification_officer' ) ;
#85 = CIRCLE ( 'NONE', #164, 5.000000000000000000 ) ;
#86 = DATE_AND_TIME ( #24, #1 ) ;
#87 = ORGANIZATION ( 'UNSPECIFIED', 'UNSPECIFIED', '' ) ;
#88 = EDGE_CURVE ( 'NONE', #23, #117, #85, .T. ) ;
#89 = LOCAL_TIME ( 9, 40, 17.00000000000000000, #101 ) ;
#90 = ADVANCED_FACE ( 'NONE', ( #16 ), #155, .T. ) ;
#91 = ADVANCED_FACE ( 'NONE', ( #66 ), #52, .F. ) ;
#92 = DIRECTION ( 'NONE',  ( 1.000000000000000000, 0.000000000000000000, 0.000000000000000000 ) ) ;
#93 = EDGE_CURVE ( 'NONE', #117, #23, #60, .T. ) ;
#94 = ORIENTED_EDGE ( 'NONE', *, *, #64, .T. ) ;
#95 = DIRECTION ( 'NONE',  ( 0.000000000000000000, 0.000000000000000000, -1.000000000000000000 ) ) ;
#96 = VECTOR ( 'NONE', #63, 1000.000000000000000 ) ;
#97 = APPROVAL_ROLE ( '' ) ;
#98 = CARTESIAN_POINT ( 'NONE',  ( 0.5000000000000000000, 0.000000000000000000, 0.000000000000000000 ) ) ;
#99 = ORIENTED_EDGE ( 'NONE', *, *, #93, .T. ) ;
#100 = FACE_OUTER_BOUND ( 'NONE', #12, .T. ) ;
#101 = COORDINATED_UNIVERSAL_TIME_OFFSET ( 5, 0, .BEHIND. ) ;
#102 = ORIENTED_EDGE ( 'NONE', *, *, #120, .T. ) ;
#103 = PERSON_AND_ORGANIZATION ( #8, #87 ) ;
#104 = AXIS2_PLACEMENT_3D ( 'NONE', #27, #175, #129 ) ;
#105 = EDGE_LOOP ( 'NONE', ( #167, #99 ) ) ;
#106 =( LENGTH_UNIT ( ) NAMED_UNIT ( * ) SI_UNIT ( .MILLI., .METRE. ) );
#107 = COORDINATED_UNIVERSAL_TIME_OFFSET ( 5, 0, .BEHIND. ) ;
#108 = COORDINATED_UNIVERSAL_TIME_OFFSET ( 5, 0, .BEHIND. ) ;
#109 = PERSON_AND_ORGANIZATION_ROLE ( 'creator' ) ;
#110 = DIRECTION ( 'NONE',  ( 1.000000000000000000, 0.000000000000000000, 0.000000000000000000 ) ) ;
#111 = PERSON_AND_ORGANIZATION_ROLE ( 'creator' ) ;
#112 = AXIS2_PLACEMENT_3D ( 'NONE', #98, #38, #162 ) ;
#113 = LOCAL_TIME ( 9, 40, 17.00000000000000000, #71 ) ;
#114 = PRODUCT_RELATED_PRODUCT_CATEGORY ( 'detail', '', ( #141 ) ) ;
#115 = ORIENTED_EDGE ( 'NONE', *, *, #72, .F. ) ;
#116 = DATE_AND_TIME ( #14, #89 ) ;
#117 = VERTEX_POINT ( 'NONE', #79 ) ;
#118 = PERSON_AND_ORGANIZATION_ROLE ( 'design_supplier' ) ;
#119 = DATE_AND_TIME ( #158, #113 ) ;
#120 = EDGE_CURVE ( 'NONE', #42, #9, #30, .T. ) ;
#121 = DESIGN_CONTEXT ( 'detailed design', #2, 'design' ) ;
#122 = PERSON_AND_ORGANIZATION ( #8, #87 ) ;
#123 = PRODUCT_DEFINITION_SHAPE ( 'NONE', 'NONE',  #40 ) ;
#124 = ORIENTED_EDGE ( 'NONE', *, *, #11, .F. ) ;
#125 = AXIS2_PLACEMENT_3D ( 'NONE', #68, #78, #131 ) ;
#126 = PERSON_AND_ORGANIZATION ( #8, #87 ) ;
#127 = CARTESIAN_POINT ( 'NONE',  ( 0.5000000000000000000, 0.000000000000000000, 5.000000000000000000 ) ) ;
#128 = PERSON_AND_ORGANIZATION ( #8, #87 ) ;
#129 = DIRECTION ( 'NONE',  ( 0.000000000000000000, 0.000000000000000000, 1.000000000000000000 ) ) ;
#130 = ORIENTED_EDGE ( 'NONE', *, *, #93, .F. ) ;
#131 = DIRECTION ( 'NONE',  ( 0.000000000000000000, 0.000000000000000000, -1.000000000000000000 ) ) ;
#132 = APPROVAL_PERSON_ORGANIZATION ( #83, #43, #5 ) ;
#133 = PERSON_AND_ORGANIZATION_ROLE ( 'design_owner' ) ;
#134 = CC_DESIGN_SECURITY_CLASSIFICATION ( #22, ( #69 ) ) ;
#135 = CLOSED_SHELL ( 'NONE', ( #13, #90, #144, #91 ) ) ;
#136 = AXIS2_PLACEMENT_3D ( 'NONE', #159, #82, #55 ) ;
#137 = APPROVAL_PERSON_ORGANIZATION ( #154, #157, #4 ) ;
#138 = CARTESIAN_POINT ( 'NONE',  ( 0.5000000000000000000, 0.000000000000000000, 0.000000000000000000 ) ) ;
#139 = CARTESIAN_POINT ( 'NONE',  ( 0.5000000000000000000, 6.123233995736766282E-16, -5.000000000000000000 ) ) ;
#140 = AXIS2_PLACEMENT_3D ( 'NONE', #17, #110, #65 ) ;
#141 = PRODUCT ( 'Web Model 14956_18334', 'Web Model 14956_18334', '', ( #36 ) ) ;
#142 = AXIS2_PLACEMENT_3D ( 'NONE', #28, #92, #95 ) ;
#143 = DATE_AND_TIME ( #170, #18 ) ;
#144 = ADVANCED_FACE ( 'NONE', ( #10 ), #53, .T. ) ;
#145 = ORIENTED_EDGE ( 'NONE', *, *, #88, .F. ) ;
#146 = DIRECTION ( 'NONE',  ( 1.000000000000000000, 0.000000000000000000, 0.000000000000000000 ) ) ;
#147 = DATE_TIME_ROLE ( 'creation_date' ) ;
#148 = APPROVAL_STATUS ( 'not_yet_approved' ) ;
#149 = APPROVAL_STATUS ( 'not_yet_approved' ) ;
#150 = DIRECTION ( 'NONE',  ( 0.000000000000000000, 0.000000000000000000, 1.000000000000000000 ) ) ;
#151 = APPROVAL_PERSON_ORGANIZATION ( #122, #33, #97 ) ;
#152 =( GEOMETRIC_REPRESENTATION_CONTEXT ( 3 ) GLOBAL_UNCERTAINTY_ASSIGNED_CONTEXT ( ( #47 ) ) GLOBAL_UNIT_ASSIGNED_CONTEXT ( ( #106, #173, #3 ) ) REPRESENTATION_CONTEXT ( 'NONE', 'WORKASPACE' ) );
#153 = CARTESIAN_POINT ( 'NONE',  ( -0.5000000000000000000, 0.000000000000000000, 5.000000000000000000 ) ) ;
#154 = PERSON_AND_ORGANIZATION ( #8, #87 ) ;
#155 = CYLINDRICAL_SURFACE ( 'NONE', #104, 5.000000000000000000 ) ;
#156 = SHAPE_DEFINITION_REPRESENTATION ( #123, #37 ) ;
#157 = APPROVAL ( #67, 'UNSPECIFIED' ) ;
#158 = CALENDAR_DATE ( 2021, 28, 6 ) ;
#159 = CARTESIAN_POINT ( 'NONE',  ( 0.000000000000000000, 0.000000000000000000, 0.000000000000000000 ) ) ;
#160 = DIRECTION ( 'NONE',  ( 1.000000000000000000, 0.000000000000000000, 0.000000000000000000 ) ) ;
#161 = VECTOR ( 'NONE', #46, 1000.000000000000000 ) ;
#162 = DIRECTION ( 'NONE',  ( 0.000000000000000000, 0.000000000000000000, -1.000000000000000000 ) ) ;
#163 = PERSON_AND_ORGANIZATION ( #8, #87 ) ;
#164 = AXIS2_PLACEMENT_3D ( 'NONE', #15, #160, #165 ) ;
#165 = DIRECTION ( 'NONE',  ( 0.000000000000000000, 0.000000000000000000, -1.000000000000000000 ) ) ;
#166 = CC_DESIGN_APPROVAL ( #43, ( #22 ) ) ;
#167 = ORIENTED_EDGE ( 'NONE', *, *, #88, .T. ) ;
#168 = CC_DESIGN_APPROVAL ( #33, ( #40 ) ) ;
#169 = ORIENTED_EDGE ( 'NONE', *, *, #11, .T. ) ;
#170 = CALENDAR_DATE ( 2021, 28, 6 ) ;
#171 = MANIFOLD_SOLID_BREP ( 'Boss-Extrude1', #135 ) ;
#172 = CC_DESIGN_DATE_AND_TIME_ASSIGNMENT ( #143, #147, ( #40 ) ) ;
#173 =( NAMED_UNIT ( * ) PLANE_ANGLE_UNIT ( ) SI_UNIT ( $, .RADIAN. ) );
#174 = LINE ( 'NONE', #127, #161 ) ;
#175 = DIRECTION ( 'NONE',  ( -1.000000000000000000, -0.000000000000000000, -0.000000000000000000 ) ) ;
ENDSEC;
END-ISO-10303-21;
