ISO-10303-21;
HEADER;
FILE_DESCRIPTION (( 'STEP AP203' ),
    '1' );
FILE_NAME ('Web Model 49155_49157.step',
    '2017-04-19T17:04:27',
    ( '' ),
    ( '' ),
    'SwSTEP 2.0',
    'SolidWorks 2016',
    '' );
FILE_SCHEMA (( 'CONFIG_CONTROL_DESIGN' ));
ENDSEC;

DATA;
#1 = CIRCLE ( 'NONE', #4, 12.50000000000000000 ) ;
#2 = ORIENTED_EDGE ( 'NONE', *, *, #145, .T. ) ;
#3 = DIRECTION ( 'NONE',  ( 0.0000000000000000000, 0.0000000000000000000, 1.000000000000000000 ) ) ;
#4 = AXIS2_PLACEMENT_3D ( 'NONE', #50, #65, #133 ) ;
#5 = ADVANCED_FACE ( 'NONE', ( #15 ), #44, .T. ) ;
#6 = PERSON_AND_ORGANIZATION ( #162, #157 ) ;
#7 = APPLICATION_CONTEXT ( 'configuration controlled 3d designs of mechanical parts and assemblies' ) ;
#8 = DATE_TIME_ROLE ( 'classification_date' ) ;
#9 = DIRECTION ( 'NONE',  ( 1.000000000000000000, 0.0000000000000000000, 0.0000000000000000000 ) ) ;
#10 = APPROVAL_ROLE ( '' ) ;
#11 = COORDINATED_UNIVERSAL_TIME_OFFSET ( 5, 0, .BEHIND. ) ;
#12 = CIRCLE ( 'NONE', #27, 12.50000000000000000 ) ;
#13 = AXIS2_PLACEMENT_3D ( 'NONE', #91, #156, #81 ) ;
#14 = ORIENTED_EDGE ( 'NONE', *, *, #158, .F. ) ;
#15 = FACE_OUTER_BOUND ( 'NONE', #161, .T. ) ;
#16 = SECURITY_CLASSIFICATION ( '', '', #155 ) ;
#17 = PERSON_AND_ORGANIZATION ( #162, #157 ) ;
#18 = APPROVAL_PERSON_ORGANIZATION ( #80, #63, #170 ) ;
#19 = PRODUCT_DEFINITION_SHAPE ( 'NONE', 'NONE',  #115 ) ;
#20 = PERSON_AND_ORGANIZATION ( #162, #157 ) ;
#21 = SHAPE_DEFINITION_REPRESENTATION ( #19, #108 ) ;
#22 = VECTOR ( 'NONE', #121, 1000.000000000000000 ) ;
#23 = DIRECTION ( 'NONE',  ( 1.000000000000000000, 0.0000000000000000000, 0.0000000000000000000 ) ) ;
#24 = ORIENTED_EDGE ( 'NONE', *, *, #132, .T. ) ;
#25 = CARTESIAN_POINT ( 'NONE',  ( 0.0000000000000000000, 0.0000000000000000000, 0.8000000000000000400 ) ) ;
#26 = DATE_AND_TIME ( #88, #168 ) ;
#27 = AXIS2_PLACEMENT_3D ( 'NONE', #152, #68, #23 ) ;
#28 = APPROVAL_DATE_TIME ( #90, #63 ) ;
#29 = APPLICATION_PROTOCOL_DEFINITION ( 'international standard', 'config_control_design', 1994, #7 ) ;
#30 = CARTESIAN_POINT ( 'NONE',  ( 12.50000000000000000, 1.530808498934191500E-015, -0.8000000000000000400 ) ) ;
#31 = EDGE_CURVE ( 'NONE', #114, #139, #84, .T. ) ;
#32 = DATE_AND_TIME ( #92, #174 ) ;
#33 = FACE_OUTER_BOUND ( 'NONE', #166, .T. ) ;
#34 = MANIFOLD_SOLID_BREP ( 'Boss-Extrude1', #143 ) ;
#35 = AXIS2_PLACEMENT_3D ( 'NONE', #105, #129, #86 ) ;
#36 = ORIENTED_EDGE ( 'NONE', *, *, #71, .F. ) ;
#37 = DIRECTION ( 'NONE',  ( 0.0000000000000000000, 0.0000000000000000000, 1.000000000000000000 ) ) ;
#38 = APPLICATION_PROTOCOL_DEFINITION ( 'international standard', 'config_control_design', 1994, #78 ) ;
#39 = LOCAL_TIME ( 13, 4, 27.00000000000000000, #101 ) ;
#40 = PERSON_AND_ORGANIZATION_ROLE ( 'creator' ) ;
#41 = DIRECTION ( 'NONE',  ( -0.0000000000000000000, -0.0000000000000000000, -1.000000000000000000 ) ) ;
#42 = CALENDAR_DATE ( 2017, 19, 4 ) ;
#43 = CARTESIAN_POINT ( 'NONE',  ( -12.50000000000000000, 0.0000000000000000000, 0.8000000000000000400 ) ) ;
#44 = PLANE ( 'NONE',  #13 ) ;
#45 =( GEOMETRIC_REPRESENTATION_CONTEXT ( 3 ) GLOBAL_UNCERTAINTY_ASSIGNED_CONTEXT ( ( #48 ) ) GLOBAL_UNIT_ASSIGNED_CONTEXT ( ( #97, #123, #150 ) ) REPRESENTATION_CONTEXT ( 'NONE', 'WORKASPACE' ) );
#46 = CYLINDRICAL_SURFACE ( 'NONE', #55, 12.50000000000000000 ) ;
#47 = CC_DESIGN_DATE_AND_TIME_ASSIGNMENT ( #153, #89, ( #115 ) ) ;
#48 = UNCERTAINTY_MEASURE_WITH_UNIT (LENGTH_MEASURE( 1.000000000000000100E-005 ), #97, 'distance_accuracy_value', 'NONE');
#49 = ORIENTED_EDGE ( 'NONE', *, *, #93, .T. ) ;
#50 = CARTESIAN_POINT ( 'NONE',  ( 0.0000000000000000000, 0.0000000000000000000, 0.8000000000000000400 ) ) ;
#51 = DIRECTION ( 'NONE',  ( 0.0000000000000000000, 0.0000000000000000000, 1.000000000000000000 ) ) ;
#52 = ORIENTED_EDGE ( 'NONE', *, *, #31, .T. ) ;
#53 = ORIENTED_EDGE ( 'NONE', *, *, #31, .F. ) ;
#54 = COORDINATED_UNIVERSAL_TIME_OFFSET ( 5, 0, .BEHIND. ) ;
#55 = AXIS2_PLACEMENT_3D ( 'NONE', #146, #41, #149 ) ;
#56 = ADVANCED_FACE ( 'NONE', ( #164 ), #154, .F. ) ;
#57 = LOCAL_TIME ( 13, 4, 27.00000000000000000, #120 ) ;
#58 = PERSON_AND_ORGANIZATION_ROLE ( 'classification_officer' ) ;
#59 = COORDINATED_UNIVERSAL_TIME_OFFSET ( 5, 0, .BEHIND. ) ;
#60 = LINE ( 'NONE', #79, #22 ) ;
#61 = ORIENTED_EDGE ( 'NONE', *, *, #93, .F. ) ;
#62 = CARTESIAN_POINT ( 'NONE',  ( -12.50000000000000000, 0.0000000000000000000, -0.8000000000000000400 ) ) ;
#63 = APPROVAL ( #103, 'UNSPECIFIED' ) ;
#64 = APPROVAL_ROLE ( '' ) ;
#65 = DIRECTION ( 'NONE',  ( 0.0000000000000000000, 0.0000000000000000000, 1.000000000000000000 ) ) ;
#66 = PERSON_AND_ORGANIZATION ( #162, #157 ) ;
#67 = CC_DESIGN_SECURITY_CLASSIFICATION ( #16, ( #73 ) ) ;
#68 = DIRECTION ( 'NONE',  ( 0.0000000000000000000, 0.0000000000000000000, 1.000000000000000000 ) ) ;
#69 = PERSON_AND_ORGANIZATION ( #162, #157 ) ;
#70 = CARTESIAN_POINT ( 'NONE',  ( 0.0000000000000000000, 0.0000000000000000000, -0.8000000000000000400 ) ) ;
#71 = EDGE_CURVE ( 'NONE', #139, #74, #60, .T. ) ;
#72 = CYLINDRICAL_SURFACE ( 'NONE', #35, 12.50000000000000000 ) ;
#73 = PRODUCT_DEFINITION_FORMATION_WITH_SPECIFIED_SOURCE ( 'ANY', '', #142, .NOT_KNOWN. ) ;
#74 = VERTEX_POINT ( 'NONE', #62 ) ;
#75 = PRODUCT_RELATED_PRODUCT_CATEGORY ( 'detail', '', ( #142 ) ) ;
#76 = ADVANCED_FACE ( 'NONE', ( #33 ), #72, .T. ) ;
#77 = DATE_AND_TIME ( #151, #39 ) ;
#78 = APPLICATION_CONTEXT ( 'configuration controlled 3d designs of mechanical parts and assemblies' ) ;
#79 = CARTESIAN_POINT ( 'NONE',  ( -12.50000000000000000, 0.0000000000000000000, 0.8000000000000000400 ) ) ;
#80 = PERSON_AND_ORGANIZATION ( #162, #157 ) ;
#81 = DIRECTION ( 'NONE',  ( 1.000000000000000000, 0.0000000000000000000, -0.0000000000000000000 ) ) ;
#82 = CC_DESIGN_PERSON_AND_ORGANIZATION_ASSIGNMENT ( #69, #40, ( #115 ) ) ;
#83 = PERSON_AND_ORGANIZATION ( #162, #157 ) ;
#84 = CIRCLE ( 'NONE', #125, 12.50000000000000000 ) ;
#85 = ORIENTED_EDGE ( 'NONE', *, *, #132, .F. ) ;
#86 = DIRECTION ( 'NONE',  ( -1.000000000000000000, 0.0000000000000000000, 0.0000000000000000000 ) ) ;
#87 = CARTESIAN_POINT ( 'NONE',  ( 12.50000000000000000, 1.530808498934191500E-015, 0.8000000000000000400 ) ) ;
#88 = CALENDAR_DATE ( 2017, 19, 4 ) ;
#89 = DATE_TIME_ROLE ( 'creation_date' ) ;
#90 = DATE_AND_TIME ( #172, #57 ) ;
#91 = CARTESIAN_POINT ( 'NONE',  ( 0.0000000000000000000, 0.0000000000000000000, 0.8000000000000000400 ) ) ;
#92 = CALENDAR_DATE ( 2017, 19, 4 ) ;
#93 = EDGE_CURVE ( 'NONE', #127, #74, #141, .T. ) ;
#94 = FACE_OUTER_BOUND ( 'NONE', #165, .T. ) ;
#95 = CC_DESIGN_APPROVAL ( #109, ( #115 ) ) ;
#96 = ORIENTED_EDGE ( 'NONE', *, *, #158, .T. ) ;
#97 =( LENGTH_UNIT ( ) NAMED_UNIT ( * ) SI_UNIT ( .MILLI., .METRE. ) );
#98 = CC_DESIGN_APPROVAL ( #122, ( #16 ) ) ;
#99 = PERSON_AND_ORGANIZATION_ROLE ( 'creator' ) ;
#100 = PERSON_AND_ORGANIZATION_ROLE ( 'design_supplier' ) ;
#101 = COORDINATED_UNIVERSAL_TIME_OFFSET ( 5, 0, .BEHIND. ) ;
#102 = DIRECTION ( 'NONE',  ( -0.0000000000000000000, -0.0000000000000000000, -1.000000000000000000 ) ) ;
#103 = APPROVAL_STATUS ( 'not_yet_approved' ) ;
#104 = PERSON_AND_ORGANIZATION_ROLE ( 'design_owner' ) ;
#105 = CARTESIAN_POINT ( 'NONE',  ( 0.0000000000000000000, 0.0000000000000000000, 0.8000000000000000400 ) ) ;
#106 = CARTESIAN_POINT ( 'NONE',  ( 0.0000000000000000000, 0.0000000000000000000, 0.0000000000000000000 ) ) ;
#107 = LOCAL_TIME ( 13, 4, 27.00000000000000000, #11 ) ;
#108 = ADVANCED_BREP_SHAPE_REPRESENTATION ( 'Web Model 49155_49157', ( #34, #138 ), #45 ) ;
#109 = APPROVAL ( #116, 'UNSPECIFIED' ) ;
#110 = LINE ( 'NONE', #136, #160 ) ;
#111 = ORIENTED_EDGE ( 'NONE', *, *, #145, .F. ) ;
#112 = CC_DESIGN_PERSON_AND_ORGANIZATION_ASSIGNMENT ( #66, #100, ( #73 ) ) ;
#113 = DIRECTION ( 'NONE',  ( 0.0000000000000000000, 0.0000000000000000000, 1.000000000000000000 ) ) ;
#114 = VERTEX_POINT ( 'NONE', #87 ) ;
#115 = PRODUCT_DEFINITION ( 'UNKNOWN', '', #73, #169 ) ;
#116 = APPROVAL_STATUS ( 'not_yet_approved' ) ;
#117 = ADVANCED_FACE ( 'NONE', ( #94 ), #46, .T. ) ;
#118 = APPROVAL_PERSON_ORGANIZATION ( #17, #122, #64 ) ;
#119 = MECHANICAL_CONTEXT ( 'NONE', #7, 'mechanical' ) ;
#120 = COORDINATED_UNIVERSAL_TIME_OFFSET ( 5, 0, .BEHIND. ) ;
#121 = DIRECTION ( 'NONE',  ( -0.0000000000000000000, -0.0000000000000000000, -1.000000000000000000 ) ) ;
#122 = APPROVAL ( #131, 'UNSPECIFIED' ) ;
#123 =( NAMED_UNIT ( * ) PLANE_ANGLE_UNIT ( ) SI_UNIT ( $, .RADIAN. ) );
#124 = APPROVAL_PERSON_ORGANIZATION ( #20, #109, #10 ) ;
#125 = AXIS2_PLACEMENT_3D ( 'NONE', #25, #51, #128 ) ;
#126 = CC_DESIGN_PERSON_AND_ORGANIZATION_ASSIGNMENT ( #83, #104, ( #142 ) ) ;
#127 = VERTEX_POINT ( 'NONE', #30 ) ;
#128 = DIRECTION ( 'NONE',  ( 1.000000000000000000, 0.0000000000000000000, 0.0000000000000000000 ) ) ;
#129 = DIRECTION ( 'NONE',  ( -0.0000000000000000000, -0.0000000000000000000, -1.000000000000000000 ) ) ;
#130 = APPROVAL_DATE_TIME ( #26, #122 ) ;
#131 = APPROVAL_STATUS ( 'not_yet_approved' ) ;
#132 = EDGE_CURVE ( 'NONE', #114, #127, #110, .T. ) ;
#133 = DIRECTION ( 'NONE',  ( 1.000000000000000000, 0.0000000000000000000, 0.0000000000000000000 ) ) ;
#134 = PERSON_AND_ORGANIZATION ( #162, #157 ) ;
#135 = CC_DESIGN_PERSON_AND_ORGANIZATION_ASSIGNMENT ( #134, #99, ( #73 ) ) ;
#136 = CARTESIAN_POINT ( 'NONE',  ( 12.50000000000000000, 1.530808498934191500E-015, 0.8000000000000000400 ) ) ;
#137 = APPROVAL_DATE_TIME ( #32, #109 ) ;
#138 = AXIS2_PLACEMENT_3D ( 'NONE', #106, #3, #171 ) ;
#139 = VERTEX_POINT ( 'NONE', #43 ) ;
#140 = CC_DESIGN_DATE_AND_TIME_ASSIGNMENT ( #77, #8, ( #16 ) ) ;
#141 = CIRCLE ( 'NONE', #175, 12.50000000000000000 ) ;
#142 = PRODUCT ( 'Web Model 49155_49157', 'Web Model 49155_49157', '', ( #119 ) ) ;
#143 = CLOSED_SHELL ( 'NONE', ( #76, #117, #5, #56 ) ) ;
#144 = EDGE_LOOP ( 'NONE', ( #111, #61 ) ) ;
#145 = EDGE_CURVE ( 'NONE', #74, #127, #12, .T. ) ;
#146 = CARTESIAN_POINT ( 'NONE',  ( 0.0000000000000000000, 0.0000000000000000000, 0.8000000000000000400 ) ) ;
#147 = CARTESIAN_POINT ( 'NONE',  ( 0.0000000000000000000, 0.0000000000000000000, -0.8000000000000000400 ) ) ;
#148 = ORIENTED_EDGE ( 'NONE', *, *, #71, .T. ) ;
#149 = DIRECTION ( 'NONE',  ( -1.000000000000000000, 0.0000000000000000000, 0.0000000000000000000 ) ) ;
#150 =( NAMED_UNIT ( * ) SI_UNIT ( $, .STERADIAN. ) SOLID_ANGLE_UNIT ( ) );
#151 = CALENDAR_DATE ( 2017, 19, 4 ) ;
#152 = CARTESIAN_POINT ( 'NONE',  ( 0.0000000000000000000, 0.0000000000000000000, -0.8000000000000000400 ) ) ;
#153 = DATE_AND_TIME ( #42, #107 ) ;
#154 = PLANE ( 'NONE',  #163 ) ;
#155 = SECURITY_CLASSIFICATION_LEVEL ( 'unclassified' ) ;
#156 = DIRECTION ( 'NONE',  ( 0.0000000000000000000, 0.0000000000000000000, 1.000000000000000000 ) ) ;
#157 = ORGANIZATION ( 'UNSPECIFIED', 'UNSPECIFIED', '' ) ;
#158 = EDGE_CURVE ( 'NONE', #139, #114, #1, .T. ) ;
#159 = CC_DESIGN_APPROVAL ( #63, ( #73 ) ) ;
#160 = VECTOR ( 'NONE', #102, 1000.000000000000000 ) ;
#161 = EDGE_LOOP ( 'NONE', ( #96, #52 ) ) ;
#162 = PERSON ( 'UNSPECIFIED', 'UNSPECIFIED', 'UNSPECIFIED', ('UNSPECIFIED'), ('UNSPECIFIED'), ('UNSPECIFIED') ) ;
#163 = AXIS2_PLACEMENT_3D ( 'NONE', #70, #37, #173 ) ;
#164 = FACE_OUTER_BOUND ( 'NONE', #144, .T. ) ;
#165 = EDGE_LOOP ( 'NONE', ( #85, #14, #148, #2 ) ) ;
#166 = EDGE_LOOP ( 'NONE', ( #53, #24, #49, #36 ) ) ;
#167 = CC_DESIGN_PERSON_AND_ORGANIZATION_ASSIGNMENT ( #6, #58, ( #16 ) ) ;
#168 = LOCAL_TIME ( 13, 4, 27.00000000000000000, #54 ) ;
#169 = DESIGN_CONTEXT ( 'detailed design', #78, 'design' ) ;
#170 = APPROVAL_ROLE ( '' ) ;
#171 = DIRECTION ( 'NONE',  ( 1.000000000000000000, 0.0000000000000000000, 0.0000000000000000000 ) ) ;
#172 = CALENDAR_DATE ( 2017, 19, 4 ) ;
#173 = DIRECTION ( 'NONE',  ( 1.000000000000000000, 0.0000000000000000000, -0.0000000000000000000 ) ) ;
#174 = LOCAL_TIME ( 13, 4, 27.00000000000000000, #59 ) ;
#175 = AXIS2_PLACEMENT_3D ( 'NONE', #147, #113, #9 ) ;
ENDSEC;
END-ISO-10303-21;
