ISO-10303-21;
HEADER;
FILE_DESCRIPTION (( 'STEP AP214' ),
    '1' );
FILE_NAME ('3465-E0W.STEP',
    '2009-12-21T16:59:53',
    ( ' ' ),
    ( ' ' ),
    'SwSTEP 2.0',
    'SolidWorks 2009',
    '' );
FILE_SCHEMA (( 'AUTOMOTIVE_DESIGN' ));
ENDSEC;

DATA;
#1 = VERTEX_POINT ( 'NONE', #52 ) ;
#2 = EDGE_CURVE ( 'NONE', #4, #1, #77, .T. ) ;
#3 = EDGE_CURVE ( 'NONE', #1, #38, #46, .T. ) ;
#4 = VERTEX_POINT ( 'NONE', #54 ) ;
#5 = ORIENTED_EDGE ( 'NONE', *, *, #2, .F. ) ;
#6 = EDGE_CURVE ( 'NONE', #1, #67, #60, .T. ) ;
#7 = ORIENTED_EDGE ( 'NONE', *, *, #23, .T. ) ;
#8 = CLOSED_SHELL ( 'NONE', ( #85, #16, #65, #21, #49, #14 ) ) ;
#9 = VERTEX_POINT ( 'NONE', #40 ) ;
#10 = ORIENTED_EDGE ( 'NONE', *, *, #11, .F. ) ;
#11 = EDGE_CURVE ( 'NONE', #26, #9, #89, .T. ) ;
#12 = ORIENTED_EDGE ( 'NONE', *, *, #30, .F. ) ;
#13 = ORIENTED_EDGE ( 'NONE', *, *, #45, .F. ) ;
#14 = ADVANCED_FACE ( 'NONE', ( #91 ), #112, .F. ) ;
#15 = ORIENTED_EDGE ( 'NONE', *, *, #69, .F. ) ;
#16 = ADVANCED_FACE ( 'NONE', ( #165 ), #135, .T. ) ;
#17 = EDGE_LOOP ( 'NONE', ( #73, #41, #50, #66, #5, #63 ) ) ;
#18 = ORIENTED_EDGE ( 'NONE', *, *, #64, .T. ) ;
#19 = EDGE_LOOP ( 'NONE', ( #12, #20, #24, #7 ) ) ;
#20 = ORIENTED_EDGE ( 'NONE', *, *, #27, .F. ) ;
#21 = ADVANCED_FACE ( 'NONE', ( #121 ), #161, .T. ) ;
#22 = ORIENTED_EDGE ( 'NONE', *, *, #37, .F. ) ;
#23 = EDGE_CURVE ( 'NONE', #9, #31, #114, .T. ) ;
#24 = ORIENTED_EDGE ( 'NONE', *, *, #35, .F. ) ;
#25 = VERTEX_POINT ( 'NONE', #110 ) ;
#26 = VERTEX_POINT ( 'NONE', #109 ) ;
#27 = EDGE_CURVE ( 'NONE', #51, #25, #162, .T. ) ;
#28 = ORIENTED_EDGE ( 'NONE', *, *, #61, .F. ) ;
#29 = ORIENTED_EDGE ( 'NONE', *, *, #30, .T. ) ;
#30 = EDGE_CURVE ( 'NONE', #25, #31, #177, .T. ) ;
#31 = VERTEX_POINT ( 'NONE', #154 ) ;
#32 = EDGE_LOOP ( 'NONE', ( #33, #29, #43, #10 ) ) ;
#33 = ORIENTED_EDGE ( 'NONE', *, *, #34, .F. ) ;
#34 = EDGE_CURVE ( 'NONE', #25, #26, #134, .T. ) ;
#35 = EDGE_CURVE ( 'NONE', #9, #51, #141, .T. ) ;
#36 = ORIENTED_EDGE ( 'NONE', *, *, #37, .T. ) ;
#37 = EDGE_CURVE ( 'NONE', #70, #38, #214, .T. ) ;
#38 = VERTEX_POINT ( 'NONE', #248 ) ;
#39 = CARTESIAN_POINT ( 'NONE',  ( 0.0000000000000000000, 0.0000000000000000000, -3.485206065683206700 ) ) ;
#40 = CARTESIAN_POINT ( 'NONE',  ( 0.0000000000000000000, 25.39999999999998800, -3.485206065683189400 ) ) ;
#41 = ORIENTED_EDGE ( 'NONE', *, *, #35, .T. ) ;
#42 = EDGE_LOOP ( 'NONE', ( #28, #62, #48, #18, #13, #15 ) ) ;
#43 = ORIENTED_EDGE ( 'NONE', *, *, #23, .F. ) ;
#44 = ORIENTED_EDGE ( 'NONE', *, *, #45, .T. ) ;
#45 = EDGE_CURVE ( 'NONE', #70, #4, #217, .T. ) ;
#46 = CIRCLE ( 'NONE', #81, 82.54000000000000600 ) ;
#47 = DIRECTION ( 'NONE',  ( 1.000000000000000000, 0.0000000000000000000, 0.0000000000000000000 ) ) ;
#48 = ORIENTED_EDGE ( 'NONE', *, *, #34, .T. ) ;
#49 = ADVANCED_FACE ( 'NONE', ( #249 ), #220, .T. ) ;
#50 = ORIENTED_EDGE ( 'NONE', *, *, #61, .T. ) ;
#51 = VERTEX_POINT ( 'NONE', #221 ) ;
#52 = CARTESIAN_POINT ( 'NONE',  ( 0.0000000000000000000, 25.39999999999997700, -0.5201417099642653400 ) ) ;
#53 = CARTESIAN_POINT ( 'NONE',  ( 0.0000000000000000000, 0.0000000000000000000, -0.5201417099642610100 ) ) ;
#54 = CARTESIAN_POINT ( 'NONE',  ( 25.39999999999999900, 0.0000000000000000000, -0.5201417099642610100 ) ) ;
#55 = ORIENTED_EDGE ( 'NONE', *, *, #3, .F. ) ;
#56 = EDGE_LOOP ( 'NONE', ( #22, #44, #74, #82 ) ) ;
#57 = DIRECTION ( 'NONE',  ( 1.000000000000000000, 0.0000000000000000000, 0.0000000000000000000 ) ) ;
#58 = DIRECTION ( 'NONE',  ( -0.0000000000000000000, -0.0000000000000000000, 1.000000000000000000 ) ) ;
#59 = AXIS2_PLACEMENT_3D ( 'NONE', #53, #58, #57 ) ;
#60 = CIRCLE ( 'NONE', #59, 25.39999999999999900 ) ;
#61 = EDGE_CURVE ( 'NONE', #51, #67, #234, .T. ) ;
#62 = ORIENTED_EDGE ( 'NONE', *, *, #27, .T. ) ;
#63 = ORIENTED_EDGE ( 'NONE', *, *, #64, .F. ) ;
#64 = EDGE_CURVE ( 'NONE', #26, #4, #200, .T. ) ;
#65 = ADVANCED_FACE ( 'NONE', ( #252 ), #219, .T. ) ;
#66 = ORIENTED_EDGE ( 'NONE', *, *, #6, .F. ) ;
#67 = VERTEX_POINT ( 'NONE', #186 ) ;
#68 = ORIENTED_EDGE ( 'NONE', *, *, #69, .T. ) ;
#69 = EDGE_CURVE ( 'NONE', #67, #70, #235, .T. ) ;
#70 = VERTEX_POINT ( 'NONE', #229 ) ;
#71 = EDGE_LOOP ( 'NONE', ( #72, #68, #36, #55 ) ) ;
#72 = ORIENTED_EDGE ( 'NONE', *, *, #6, .T. ) ;
#73 = ORIENTED_EDGE ( 'NONE', *, *, #11, .T. ) ;
#74 = ORIENTED_EDGE ( 'NONE', *, *, #2, .T. ) ;
#75 = DIRECTION ( 'NONE',  ( -0.0000000000000000000, -0.0000000000000000000, 1.000000000000000000 ) ) ;
#76 = AXIS2_PLACEMENT_3D ( 'NONE', #83, #75, #47 ) ;
#77 = CIRCLE ( 'NONE', #76, 25.39999999999999900 ) ;
#78 = CARTESIAN_POINT ( 'NONE',  ( 0.0000000000000000000, 0.0000000000000000000, -79.05479393431680500 ) ) ;
#79 = DIRECTION ( 'NONE',  ( 0.0000000000000000000, 0.0000000000000000000, -1.000000000000000000 ) ) ;
#80 = DIRECTION ( 'NONE',  ( 1.000000000000000000, 0.0000000000000000000, 0.0000000000000000000 ) ) ;
#81 = AXIS2_PLACEMENT_3D ( 'NONE', #78, #80, #79 ) ;
#82 = ORIENTED_EDGE ( 'NONE', *, *, #3, .T. ) ;
#83 = CARTESIAN_POINT ( 'NONE',  ( 0.0000000000000000000, 0.0000000000000000000, -0.5201417099642610100 ) ) ;
#84 = MANIFOLD_SOLID_BREP ( 'NONE', #8 ) ;
#85 = ADVANCED_FACE ( 'NONE', ( #284 ), #302, .F. ) ;
#86 = DIRECTION ( 'NONE',  ( 1.000000000000000000, 0.0000000000000000000, 0.0000000000000000000 ) ) ;
#87 = DIRECTION ( 'NONE',  ( -0.0000000000000000000, -0.0000000000000000000, 1.000000000000000000 ) ) ;
#88 = AXIS2_PLACEMENT_3D ( 'NONE', #39, #87, #86 ) ;
#89 = CIRCLE ( 'NONE', #88, 25.39999999999999900 ) ;
#90 = FILL_AREA_STYLE ('',( #92 ) ) ;
#91 = FACE_OUTER_BOUND ( 'NONE', #19, .T. ) ;
#92 = FILL_AREA_STYLE_COLOUR ( '', #93 ) ;
#93 = COLOUR_RGB ( '',0.9568627450980391500, 0.9490196078431372100, 0.9607843137254902200 ) ;
#94 = MECHANICAL_DESIGN_GEOMETRIC_PRESENTATION_REPRESENTATION (  '', ( #96 ), #107 ) ;
#95 = PRESENTATION_LAYER_ASSIGNMENT (  '', '', ( #96 ) ) ;
#96 = STYLED_ITEM ( 'NONE', ( #97 ), #14 ) ;
#97 = PRESENTATION_STYLE_ASSIGNMENT (( #100 ) ) ;
#98 = SURFACE_SIDE_STYLE ('',( #99 ) ) ;
#99 = SURFACE_STYLE_FILL_AREA ( #90 ) ;
#100 = SURFACE_STYLE_USAGE ( .BOTH. , #98 ) ;
#101 = SURFACE_STYLE_FILL_AREA ( #226 ) ;
#102 =( NAMED_UNIT ( * ) SI_UNIT ( $, .STERADIAN. ) SOLID_ANGLE_UNIT ( ) );
#103 =( LENGTH_UNIT ( ) NAMED_UNIT ( * ) SI_UNIT ( .MILLI., .METRE. ) );
#104 =( NAMED_UNIT ( * ) PLANE_ANGLE_UNIT ( ) SI_UNIT ( $, .RADIAN. ) );
#105 = UNCERTAINTY_MEASURE_WITH_UNIT (LENGTH_MEASURE( 1.000000000000000100E-005 ), #117, 'distance_accuracy_value', 'NONE');
#106 =( NAMED_UNIT ( * ) SI_UNIT ( $, .STERADIAN. ) SOLID_ANGLE_UNIT ( ) );
#107 =( GEOMETRIC_REPRESENTATION_CONTEXT ( 3 ) GLOBAL_UNCERTAINTY_ASSIGNED_CONTEXT ( ( #113 ) ) GLOBAL_UNIT_ASSIGNED_CONTEXT ( ( #103, #104, #102 ) ) REPRESENTATION_CONTEXT ( 'NONE', 'WORKASPACE' ) );
#108 = CARTESIAN_POINT ( 'NONE',  ( 0.0000000000000000000, 0.0000000000000000000, -3.485206065683206700 ) ) ;
#109 = CARTESIAN_POINT ( 'NONE',  ( 25.39999999999999900, 0.0000000000000000000, -3.485206065683206700 ) ) ;
#110 = CARTESIAN_POINT ( 'NONE',  ( -3.110500138708837000E-015, -25.39999999999998800, -3.485206065683189400 ) ) ;
#111 = DIRECTION ( 'NONE',  ( 0.0000000000000000000, 0.0000000000000000000, -1.000000000000000000 ) ) ;
#112 = SPHERICAL_SURFACE ( 'NONE', #157, 224.6699999999999900 ) ;
#113 = UNCERTAINTY_MEASURE_WITH_UNIT (LENGTH_MEASURE( 1.000000000000000100E-005 ), #103, 'distance_accuracy_value', 'NONE');
#114 = CIRCLE ( 'NONE', #130, 224.6699999999999900 ) ;
#115 =( GEOMETRIC_REPRESENTATION_CONTEXT ( 3 ) GLOBAL_UNCERTAINTY_ASSIGNED_CONTEXT ( ( #171 ) ) GLOBAL_UNIT_ASSIGNED_CONTEXT ( ( #159, #158, #179 ) ) REPRESENTATION_CONTEXT ( 'NONE', 'WORKASPACE' ) );
#116 = PRESENTATION_LAYER_ASSIGNMENT (  '', '', ( #127 ) ) ;
#117 =( LENGTH_UNIT ( ) NAMED_UNIT ( * ) SI_UNIT ( .MILLI., .METRE. ) );
#118 = MECHANICAL_DESIGN_GEOMETRIC_PRESENTATION_REPRESENTATION (  '', ( #151 ), #164 ) ;
#119 = AXIS2_PLACEMENT_3D ( 'NONE', #148, #147, #146 ) ;
#120 = COLOUR_RGB ( '',0.9568627450980391500, 0.9490196078431372100, 0.9607843137254902200 ) ;
#121 = FACE_OUTER_BOUND ( 'NONE', #56, .T. ) ;
#122 = PRESENTATION_STYLE_ASSIGNMENT (( #126 ) ) ;
#123 = CARTESIAN_POINT ( 'NONE',  ( 0.0000000000000000000, 0.0000000000000000000, -226.7147939343167600 ) ) ;
#124 = FILL_AREA_STYLE ('',( #144 ) ) ;
#125 =( NAMED_UNIT ( * ) PLANE_ANGLE_UNIT ( ) SI_UNIT ( $, .RADIAN. ) );
#126 = SURFACE_STYLE_USAGE ( .BOTH. , #172 ) ;
#127 = STYLED_ITEM ( 'NONE', ( #122 ), #16 ) ;
#128 = DIRECTION ( 'NONE',  ( 1.000000000000000000, -0.0000000000000000000, 0.0000000000000000000 ) ) ;
#129 = CARTESIAN_POINT ( 'NONE',  ( 0.0000000000000000000, 0.0000000000000000000, -226.7147939343167600 ) ) ;
#130 = AXIS2_PLACEMENT_3D ( 'NONE', #129, #128, #111 ) ;
#131 = DIRECTION ( 'NONE',  ( -0.0000000000000000000, -0.0000000000000000000, 1.000000000000000000 ) ) ;
#132 = CARTESIAN_POINT ( 'NONE',  ( 0.0000000000000000000, 0.0000000000000000000, -3.485206065683206700 ) ) ;
#133 = AXIS2_PLACEMENT_3D ( 'NONE', #132, #131, #143 ) ;
#134 = CIRCLE ( 'NONE', #133, 25.39999999999999900 ) ;
#135 = CYLINDRICAL_SURFACE ( 'NONE', #119, 25.39999999999999900 ) ;
#136 = SURFACE_SIDE_STYLE ('',( #137 ) ) ;
#137 = SURFACE_STYLE_FILL_AREA ( #138 ) ;
#138 = FILL_AREA_STYLE ('',( #139 ) ) ;
#139 = FILL_AREA_STYLE_COLOUR ( '', #120 ) ;
#140 = CARTESIAN_POINT ( 'NONE',  ( 0.0000000000000000000, 0.0000000000000000000, -3.485206065683206700 ) ) ;
#141 = CIRCLE ( 'NONE', #182, 25.39999999999999900 ) ;
#142 = SURFACE_SIDE_STYLE ('',( #101 ) ) ;
#143 = DIRECTION ( 'NONE',  ( 1.000000000000000000, 0.0000000000000000000, 0.0000000000000000000 ) ) ;
#144 = FILL_AREA_STYLE_COLOUR ( '', #178 ) ;
#145 = DIRECTION ( 'NONE',  ( -1.000000000000000000, 0.0000000000000000000, 0.0000000000000000000 ) ) ;
#146 = DIRECTION ( 'NONE',  ( 1.000000000000000000, 0.0000000000000000000, 0.0000000000000000000 ) ) ;
#147 = DIRECTION ( 'NONE',  ( -0.0000000000000000000, -0.0000000000000000000, 1.000000000000000000 ) ) ;
#148 = CARTESIAN_POINT ( 'NONE',  ( 0.0000000000000000000, 0.0000000000000000000, 9.625309820524258000 ) ) ;
#149 = MECHANICAL_DESIGN_GEOMETRIC_PRESENTATION_REPRESENTATION (  '', ( #127 ), #115 ) ;
#150 = PRESENTATION_LAYER_ASSIGNMENT (  '', '', ( #151 ) ) ;
#151 = STYLED_ITEM ( 'NONE', ( #152 ), #21 ) ;
#152 = PRESENTATION_STYLE_ASSIGNMENT (( #153 ) ) ;
#153 = SURFACE_STYLE_USAGE ( .BOTH. , #136 ) ;
#154 = CARTESIAN_POINT ( 'NONE',  ( 0.0000000000000000000, 1.375661547566367400E-014, -2.044793934316779800 ) ) ;
#155 = DIRECTION ( 'NONE',  ( -1.224606353822377300E-016, -1.000000000000000000, 0.0000000000000000000 ) ) ;
#156 = DIRECTION ( 'NONE',  ( -1.000000000000000000, 1.224606353822377300E-016, 0.0000000000000000000 ) ) ;
#157 = AXIS2_PLACEMENT_3D ( 'NONE', #123, #145, #170 ) ;
#158 =( NAMED_UNIT ( * ) PLANE_ANGLE_UNIT ( ) SI_UNIT ( $, .RADIAN. ) );
#159 =( LENGTH_UNIT ( ) NAMED_UNIT ( * ) SI_UNIT ( .MILLI., .METRE. ) );
#160 = CARTESIAN_POINT ( 'NONE',  ( 0.0000000000000000000, 0.0000000000000000000, -79.05479393431680500 ) ) ;
#161 = SPHERICAL_SURFACE ( 'NONE', #175, 82.54000000000000600 ) ;
#162 = CIRCLE ( 'NONE', #169, 25.39999999999999900 ) ;
#163 = CARTESIAN_POINT ( 'NONE',  ( 0.0000000000000000000, 0.0000000000000000000, -226.7147939343167600 ) ) ;
#164 =( GEOMETRIC_REPRESENTATION_CONTEXT ( 3 ) GLOBAL_UNCERTAINTY_ASSIGNED_CONTEXT ( ( #105 ) ) GLOBAL_UNIT_ASSIGNED_CONTEXT ( ( #117, #125, #106 ) ) REPRESENTATION_CONTEXT ( 'NONE', 'WORKASPACE' ) );
#165 = FACE_OUTER_BOUND ( 'NONE', #17, .T. ) ;
#166 = SURFACE_STYLE_FILL_AREA ( #124 ) ;
#167 = DIRECTION ( 'NONE',  ( 1.000000000000000000, 0.0000000000000000000, 0.0000000000000000000 ) ) ;
#168 = DIRECTION ( 'NONE',  ( -0.0000000000000000000, -0.0000000000000000000, 1.000000000000000000 ) ) ;
#169 = AXIS2_PLACEMENT_3D ( 'NONE', #108, #168, #167 ) ;
#170 = DIRECTION ( 'NONE',  ( 0.0000000000000000000, 1.000000000000000000, 0.0000000000000000000 ) ) ;
#171 = UNCERTAINTY_MEASURE_WITH_UNIT (LENGTH_MEASURE( 1.000000000000000100E-005 ), #159, 'distance_accuracy_value', 'NONE');
#172 = SURFACE_SIDE_STYLE ('',( #166 ) ) ;
#173 = DIRECTION ( 'NONE',  ( 0.0000000000000000000, 1.000000000000000000, 0.0000000000000000000 ) ) ;
#174 = DIRECTION ( 'NONE',  ( -1.000000000000000000, 0.0000000000000000000, 0.0000000000000000000 ) ) ;
#175 = AXIS2_PLACEMENT_3D ( 'NONE', #160, #174, #173 ) ;
#176 = AXIS2_PLACEMENT_3D ( 'NONE', #163, #156, #155 ) ;
#177 = CIRCLE ( 'NONE', #176, 224.6699999999999900 ) ;
#178 = COLOUR_RGB ( '',0.9568627450980391500, 0.9490196078431372100, 0.9607843137254902200 ) ;
#179 =( NAMED_UNIT ( * ) SI_UNIT ( $, .STERADIAN. ) SOLID_ANGLE_UNIT ( ) );
#180 = DIRECTION ( 'NONE',  ( 1.000000000000000000, 0.0000000000000000000, 0.0000000000000000000 ) ) ;
#181 = DIRECTION ( 'NONE',  ( -0.0000000000000000000, -0.0000000000000000000, 1.000000000000000000 ) ) ;
#182 = AXIS2_PLACEMENT_3D ( 'NONE', #140, #181, #180 ) ;
#183 = DIRECTION ( 'NONE',  ( 0.0000000000000000000, 1.000000000000000000, 0.0000000000000000000 ) ) ;
#184 = DIRECTION ( 'NONE',  ( -1.000000000000000000, 0.0000000000000000000, 0.0000000000000000000 ) ) ;
#185 = AXIS2_PLACEMENT_3D ( 'NONE', #218, #184, #183 ) ;
#186 = CARTESIAN_POINT ( 'NONE',  ( -25.39999999999999900, 3.110500138708838200E-015, -0.5201417099642610100 ) ) ;
#187 = SURFACE_STYLE_USAGE ( .BOTH. , #188 ) ;
#188 = SURFACE_SIDE_STYLE ('',( #222 ) ) ;
#189 =( LENGTH_UNIT ( ) NAMED_UNIT ( * ) SI_UNIT ( .MILLI., .METRE. ) );
#190 = UNCERTAINTY_MEASURE_WITH_UNIT (LENGTH_MEASURE( 1.000000000000000100E-005 ), #254, 'distance_accuracy_value', 'NONE');
#191 = DIRECTION ( 'NONE',  ( -1.000000000000000000, 1.224606353822377300E-016, 0.0000000000000000000 ) ) ;
#192 = SURFACE_STYLE_USAGE ( .BOTH. , #193 ) ;
#193 = SURFACE_SIDE_STYLE ('',( #194 ) ) ;
#194 = SURFACE_STYLE_FILL_AREA ( #195 ) ;
#195 = FILL_AREA_STYLE ('',( #201 ) ) ;
#196 = MECHANICAL_DESIGN_GEOMETRIC_PRESENTATION_REPRESENTATION (  '', ( #246 ), #206 ) ;
#197 = PRESENTATION_LAYER_ASSIGNMENT (  '', '', ( #246 ) ) ;
#198 = VECTOR ( 'NONE', #253, 1000.000000000000000 ) ;
#199 = CARTESIAN_POINT ( 'NONE',  ( 25.39999999999999900, 0.0000000000000000000, 9.625309820524258000 ) ) ;
#200 = LINE ( 'NONE', #199, #198 ) ;
#201 = FILL_AREA_STYLE_COLOUR ( '', #251 ) ;
#202 =( GEOMETRIC_REPRESENTATION_CONTEXT ( 3 ) GLOBAL_UNCERTAINTY_ASSIGNED_CONTEXT ( ( #190 ) ) GLOBAL_UNIT_ASSIGNED_CONTEXT ( ( #254, #212, #240 ) ) REPRESENTATION_CONTEXT ( 'NONE', 'WORKASPACE' ) );
#203 = DIRECTION ( 'NONE',  ( -1.224606353822377300E-016, -1.000000000000000000, 0.0000000000000000000 ) ) ;
#204 = FILL_AREA_STYLE_COLOUR ( '', #205 ) ;
#205 = COLOUR_RGB ( '',0.9568627450980391500, 0.9490196078431372100, 0.9607843137254902200 ) ;
#206 =( GEOMETRIC_REPRESENTATION_CONTEXT ( 3 ) GLOBAL_UNCERTAINTY_ASSIGNED_CONTEXT ( ( #216 ) ) GLOBAL_UNIT_ASSIGNED_CONTEXT ( ( #189, #215, #213 ) ) REPRESENTATION_CONTEXT ( 'NONE', 'WORKASPACE' ) );
#207 = AXIS2_PLACEMENT_3D ( 'NONE', #211, #209, #208 ) ;
#208 = DIRECTION ( 'NONE',  ( 1.000000000000000000, 0.0000000000000000000, 0.0000000000000000000 ) ) ;
#209 = DIRECTION ( 'NONE',  ( -0.0000000000000000000, -0.0000000000000000000, 1.000000000000000000 ) ) ;
#210 = CARTESIAN_POINT ( 'NONE',  ( 0.0000000000000000000, 0.0000000000000000000, -0.5201417099642610100 ) ) ;
#211 = CARTESIAN_POINT ( 'NONE',  ( 0.0000000000000000000, 0.0000000000000000000, 9.625309820524258000 ) ) ;
#212 =( NAMED_UNIT ( * ) PLANE_ANGLE_UNIT ( ) SI_UNIT ( $, .RADIAN. ) );
#213 =( NAMED_UNIT ( * ) SI_UNIT ( $, .STERADIAN. ) SOLID_ANGLE_UNIT ( ) );
#214 = CIRCLE ( 'NONE', #224, 82.54000000000000600 ) ;
#215 =( NAMED_UNIT ( * ) PLANE_ANGLE_UNIT ( ) SI_UNIT ( $, .RADIAN. ) );
#216 = UNCERTAINTY_MEASURE_WITH_UNIT (LENGTH_MEASURE( 1.000000000000000100E-005 ), #189, 'distance_accuracy_value', 'NONE');
#217 = CIRCLE ( 'NONE', #225, 25.39999999999999900 ) ;
#218 = CARTESIAN_POINT ( 'NONE',  ( 0.0000000000000000000, 0.0000000000000000000, -79.05479393431680500 ) ) ;
#219 = SPHERICAL_SURFACE ( 'NONE', #185, 82.54000000000000600 ) ;
#220 = CYLINDRICAL_SURFACE ( 'NONE', #207, 25.39999999999999900 ) ;
#221 = CARTESIAN_POINT ( 'NONE',  ( -25.39999999999999900, 3.110500138708838200E-015, -3.485206065683206700 ) ) ;
#222 = SURFACE_STYLE_FILL_AREA ( #223 ) ;
#223 = FILL_AREA_STYLE ('',( #204 ) ) ;
#224 = AXIS2_PLACEMENT_3D ( 'NONE', #250, #191, #203 ) ;
#225 = AXIS2_PLACEMENT_3D ( 'NONE', #210, #242, #241 ) ;
#226 = FILL_AREA_STYLE ('',( #227 ) ) ;
#227 = FILL_AREA_STYLE_COLOUR ( '', #228 ) ;
#228 = COLOUR_RGB ( '',0.7960784313725489700, 0.8235294117647058400, 0.9372549019607843100 ) ;
#229 = CARTESIAN_POINT ( 'NONE',  ( -3.110500138708835400E-015, -25.39999999999997700, -0.5201417099642653400 ) ) ;
#230 = DIRECTION ( 'NONE',  ( 1.000000000000000000, 0.0000000000000000000, 0.0000000000000000000 ) ) ;
#231 = DIRECTION ( 'NONE',  ( -0.0000000000000000000, -0.0000000000000000000, 1.000000000000000000 ) ) ;
#232 = CARTESIAN_POINT ( 'NONE',  ( 0.0000000000000000000, 0.0000000000000000000, -0.5201417099642610100 ) ) ;
#233 = AXIS2_PLACEMENT_3D ( 'NONE', #232, #231, #230 ) ;
#234 = LINE ( 'NONE', #245, #244 ) ;
#235 = CIRCLE ( 'NONE', #233, 25.39999999999999900 ) ;
#236 = MECHANICAL_DESIGN_GEOMETRIC_PRESENTATION_REPRESENTATION (  '', ( #238 ), #202 ) ;
#237 = PRESENTATION_LAYER_ASSIGNMENT (  '', '', ( #238 ) ) ;
#238 = STYLED_ITEM ( 'NONE', ( #239 ), #65 ) ;
#239 = PRESENTATION_STYLE_ASSIGNMENT (( #192 ) ) ;
#240 =( NAMED_UNIT ( * ) SI_UNIT ( $, .STERADIAN. ) SOLID_ANGLE_UNIT ( ) );
#241 = DIRECTION ( 'NONE',  ( 1.000000000000000000, 0.0000000000000000000, 0.0000000000000000000 ) ) ;
#242 = DIRECTION ( 'NONE',  ( -0.0000000000000000000, -0.0000000000000000000, 1.000000000000000000 ) ) ;
#243 = DIRECTION ( 'NONE',  ( -0.0000000000000000000, -0.0000000000000000000, 1.000000000000000000 ) ) ;
#244 = VECTOR ( 'NONE', #243, 1000.000000000000000 ) ;
#245 = CARTESIAN_POINT ( 'NONE',  ( -25.39999999999999900, 3.110500138708838200E-015, 9.625309820524258000 ) ) ;
#246 = STYLED_ITEM ( 'NONE', ( #247 ), #49 ) ;
#247 = PRESENTATION_STYLE_ASSIGNMENT (( #187 ) ) ;
#248 = CARTESIAN_POINT ( 'NONE',  ( 0.0000000000000000000, 5.053950422224951400E-015, 3.485206065683199600 ) ) ;
#249 = FACE_OUTER_BOUND ( 'NONE', #42, .T. ) ;
#250 = CARTESIAN_POINT ( 'NONE',  ( 0.0000000000000000000, 0.0000000000000000000, -79.05479393431680500 ) ) ;
#251 = COLOUR_RGB ( '',0.9568627450980391500, 0.9490196078431372100, 0.9607843137254902200 ) ;
#252 = FACE_OUTER_BOUND ( 'NONE', #71, .T. ) ;
#253 = DIRECTION ( 'NONE',  ( -0.0000000000000000000, -0.0000000000000000000, 1.000000000000000000 ) ) ;
#254 =( LENGTH_UNIT ( ) NAMED_UNIT ( * ) SI_UNIT ( .MILLI., .METRE. ) );
#255 = UNCERTAINTY_MEASURE_WITH_UNIT (LENGTH_MEASURE( 1.000000000000000100E-005 ), #301, 'distance_accuracy_value', 'NONE');
#256 =( NAMED_UNIT ( * ) SI_UNIT ( $, .STERADIAN. ) SOLID_ANGLE_UNIT ( ) );
#257 = UNCERTAINTY_MEASURE_WITH_UNIT (LENGTH_MEASURE( 1.000000000000000100E-005 ), #268, 'distance_accuracy_value', 'NONE');
#258 =( NAMED_UNIT ( * ) SI_UNIT ( $, .STERADIAN. ) SOLID_ANGLE_UNIT ( ) );
#259 = PRESENTATION_STYLE_ASSIGNMENT (( #267 ) ) ;
#260 =( NAMED_UNIT ( * ) PLANE_ANGLE_UNIT ( ) SI_UNIT ( $, .RADIAN. ) );
#261 =( NAMED_UNIT ( * ) PLANE_ANGLE_UNIT ( ) SI_UNIT ( $, .RADIAN. ) );
#262 =( NAMED_UNIT ( * ) SI_UNIT ( $, .STERADIAN. ) SOLID_ANGLE_UNIT ( ) );
#263 =( LENGTH_UNIT ( ) NAMED_UNIT ( * ) SI_UNIT ( .MILLI., .METRE. ) );
#264 = MECHANICAL_DESIGN_GEOMETRIC_PRESENTATION_REPRESENTATION (  '', ( #266 ), #303 ) ;
#265 = PRESENTATION_LAYER_ASSIGNMENT (  '', '', ( #266 ) ) ;
#266 = STYLED_ITEM ( 'NONE', ( #294 ), #85 ) ;
#267 = SURFACE_STYLE_USAGE ( .BOTH. , #142 ) ;
#268 =( LENGTH_UNIT ( ) NAMED_UNIT ( * ) SI_UNIT ( .MILLI., .METRE. ) );
#269 = MECHANICAL_DESIGN_GEOMETRIC_PRESENTATION_REPRESENTATION (  '', ( #271 ), #272 ) ;
#270 = PRESENTATION_LAYER_ASSIGNMENT (  '', '', ( #271 ) ) ;
#271 = STYLED_ITEM ( 'NONE', ( #285 ), #273 ) ;
#272 =( GEOMETRIC_REPRESENTATION_CONTEXT ( 3 ) GLOBAL_UNCERTAINTY_ASSIGNED_CONTEXT ( ( #257 ) ) GLOBAL_UNIT_ASSIGNED_CONTEXT ( ( #268, #292, #258 ) ) REPRESENTATION_CONTEXT ( 'NONE', 'WORKASPACE' ) );
#273 = ADVANCED_BREP_SHAPE_REPRESENTATION ( '3465-E0W', ( #84, #319 ), #276 ) ;
#274 = DIRECTION ( 'NONE',  ( 0.0000000000000000000, 1.000000000000000000, 0.0000000000000000000 ) ) ;
#275 = DIRECTION ( 'NONE',  ( -1.000000000000000000, 0.0000000000000000000, 0.0000000000000000000 ) ) ;
#276 =( GEOMETRIC_REPRESENTATION_CONTEXT ( 3 ) GLOBAL_UNCERTAINTY_ASSIGNED_CONTEXT ( ( #304 ) ) GLOBAL_UNIT_ASSIGNED_CONTEXT ( ( #263, #260, #262 ) ) REPRESENTATION_CONTEXT ( 'NONE', 'WORKASPACE' ) );
#277 = CARTESIAN_POINT ( 'NONE',  ( 0.0000000000000000000, 0.0000000000000000000, -226.7147939343167600 ) ) ;
#278 = AXIS2_PLACEMENT_3D ( 'NONE', #277, #275, #274 ) ;
#279 = PRESENTATION_LAYER_ASSIGNMENT (  '', '', ( #280 ) ) ;
#280 = STYLED_ITEM ( 'NONE', ( #259 ), #84 ) ;
#281 = FILL_AREA_STYLE ('',( #282 ) ) ;
#282 = FILL_AREA_STYLE_COLOUR ( '', #283 ) ;
#283 = COLOUR_RGB ( '',0.9568627450980391500, 0.9490196078431372100, 0.9607843137254902200 ) ;
#284 = FACE_OUTER_BOUND ( 'NONE', #32, .T. ) ;
#285 = PRESENTATION_STYLE_ASSIGNMENT (( #286 ) ) ;
#286 = SURFACE_STYLE_USAGE ( .BOTH. , #287 ) ;
#287 = SURFACE_SIDE_STYLE ('',( #288 ) ) ;
#288 = SURFACE_STYLE_FILL_AREA ( #289 ) ;
#289 = FILL_AREA_STYLE ('',( #290 ) ) ;
#290 = FILL_AREA_STYLE_COLOUR ( '', #291 ) ;
#291 = COLOUR_RGB ( '',0.7960784313725489700, 0.8235294117647058400, 0.9372549019607843100 ) ;
#292 =( NAMED_UNIT ( * ) PLANE_ANGLE_UNIT ( ) SI_UNIT ( $, .RADIAN. ) );
#293 =( NAMED_UNIT ( * ) SI_UNIT ( $, .STERADIAN. ) SOLID_ANGLE_UNIT ( ) );
#294 = PRESENTATION_STYLE_ASSIGNMENT (( #295 ) ) ;
#295 = SURFACE_STYLE_USAGE ( .BOTH. , #296 ) ;
#296 = SURFACE_SIDE_STYLE ('',( #297 ) ) ;
#297 = SURFACE_STYLE_FILL_AREA ( #281 ) ;
#298 = MECHANICAL_DESIGN_GEOMETRIC_PRESENTATION_REPRESENTATION (  '', ( #280 ), #305 ) ;
#299 =( NAMED_UNIT ( * ) PLANE_ANGLE_UNIT ( ) SI_UNIT ( $, .RADIAN. ) );
#300 =( LENGTH_UNIT ( ) NAMED_UNIT ( * ) SI_UNIT ( .MILLI., .METRE. ) );
#301 =( LENGTH_UNIT ( ) NAMED_UNIT ( * ) SI_UNIT ( .MILLI., .METRE. ) );
#302 = SPHERICAL_SURFACE ( 'NONE', #278, 224.6699999999999900 ) ;
#303 =( GEOMETRIC_REPRESENTATION_CONTEXT ( 3 ) GLOBAL_UNCERTAINTY_ASSIGNED_CONTEXT ( ( #255 ) ) GLOBAL_UNIT_ASSIGNED_CONTEXT ( ( #301, #261, #256 ) ) REPRESENTATION_CONTEXT ( 'NONE', 'WORKASPACE' ) );
#304 = UNCERTAINTY_MEASURE_WITH_UNIT (LENGTH_MEASURE( 1.000000000000000100E-005 ), #263, 'distance_accuracy_value', 'NONE');
#305 =( GEOMETRIC_REPRESENTATION_CONTEXT ( 3 ) GLOBAL_UNCERTAINTY_ASSIGNED_CONTEXT ( ( #306 ) ) GLOBAL_UNIT_ASSIGNED_CONTEXT ( ( #300, #299, #293 ) ) REPRESENTATION_CONTEXT ( 'NONE', 'WORKASPACE' ) );
#306 = UNCERTAINTY_MEASURE_WITH_UNIT (LENGTH_MEASURE( 1.000000000000000100E-005 ), #300, 'distance_accuracy_value', 'NONE');
#307 = SHAPE_DEFINITION_REPRESENTATION ( #320, #273 ) ;
#308 = PRODUCT ( '3465-E0W', '3465-E0W', '', ( #311 ) ) ;
#309 = CARTESIAN_POINT ( 'NONE',  ( 0.0000000000000000000, 0.0000000000000000000, 0.0000000000000000000 ) ) ;
#310 = DIRECTION ( 'NONE',  ( 1.000000000000000000, 0.0000000000000000000, 0.0000000000000000000 ) ) ;
#311 = PRODUCT_CONTEXT ( 'NONE', #318, 'mechanical' ) ;
#312 = APPLICATION_PROTOCOL_DEFINITION ( 'draft international standard', 'automotive_design', 1998, #318 ) ;
#313 = DIRECTION ( 'NONE',  ( 0.0000000000000000000, 0.0000000000000000000, 1.000000000000000000 ) ) ;
#314 = PRODUCT_DEFINITION ( 'UNKNOWN', '', #322, #315 ) ;
#315 = PRODUCT_DEFINITION_CONTEXT ( 'detailed design', #317, 'design' ) ;
#316 = APPLICATION_PROTOCOL_DEFINITION ( 'draft international standard', 'automotive_design', 1998, #317 ) ;
#317 = APPLICATION_CONTEXT ( 'automotive_design' ) ;
#318 = APPLICATION_CONTEXT ( 'automotive_design' ) ;
#319 = AXIS2_PLACEMENT_3D ( 'NONE', #309, #313, #310 ) ;
#320 = PRODUCT_DEFINITION_SHAPE ( 'NONE', 'NONE',  #314 ) ;
#321 = PRODUCT_RELATED_PRODUCT_CATEGORY ( 'part', '', ( #308 ) ) ;
#322 = PRODUCT_DEFINITION_FORMATION_WITH_SPECIFIED_SOURCE ( 'ANY', '', #308, .NOT_KNOWN. ) ;
ENDSEC;
END-ISO-10303-21;
