ISO-10303-21;
HEADER;
FILE_DESCRIPTION (( 'STEP AP203' ),
    '1' );
FILE_NAME ('Web Model 66190_66190.step',
    '2017-06-22T15:15:13',
    ( '' ),
    ( '' ),
    'SwSTEP 2.0',
    'SolidWorks 2016',
    '' );
FILE_SCHEMA (( 'CONFIG_CONTROL_DESIGN' ));
ENDSEC;

DATA;
#1 = CALENDAR_DATE ( 2017, 22, 6 ) ;
#2 = DIRECTION ( 'NONE',  ( 0.0000000000000000000, 0.0000000000000000000, 1.000000000000000000 ) ) ;
#3 = ORIENTED_EDGE ( 'NONE', *, *, #5, .T. ) ;
#4 = DIRECTION ( 'NONE',  ( 1.000000000000000000, 0.0000000000000000000, 0.0000000000000000000 ) ) ;
#5 = EDGE_CURVE ( 'NONE', #155, #22, #146, .T. ) ;
#6 = CIRCLE ( 'NONE', #72, 20.00000000000000000 ) ;
#7 = APPLICATION_CONTEXT ( 'configuration controlled 3d designs of mechanical parts and assemblies' ) ;
#8 = APPLICATION_PROTOCOL_DEFINITION ( 'international standard', 'config_control_design', 1994, #7 ) ;
#9 = DATE_AND_TIME ( #138, #17 ) ;
#10 = CARTESIAN_POINT ( 'NONE',  ( -20.00000000000000000, 0.0000000000000000000, 0.0000000000000000000 ) ) ;
#11 = DIRECTION ( 'NONE',  ( 1.000000000000000000, 0.0000000000000000000, 0.0000000000000000000 ) ) ;
#12 = DESIGN_CONTEXT ( 'detailed design', #129, 'design' ) ;
#13 = PERSON_AND_ORGANIZATION ( #81, #134 ) ;
#14 = ADVANCED_FACE ( 'NONE', ( #63 ), #51, .F. ) ;
#15 = ORIENTED_EDGE ( 'NONE', *, *, #105, .F. ) ;
#16 = DIRECTION ( 'NONE',  ( -0.0000000000000000000, -0.0000000000000000000, -1.000000000000000000 ) ) ;
#17 = LOCAL_TIME ( 11, 15, 13.00000000000000000, #116 ) ;
#18 = PERSON_AND_ORGANIZATION ( #81, #134 ) ;
#19 = AXIS2_PLACEMENT_3D ( 'NONE', #59, #24, #147 ) ;
#20 = ORIENTED_EDGE ( 'NONE', *, *, #100, .T. ) ;
#21 = APPROVAL_PERSON_ORGANIZATION ( #173, #120, #137 ) ;
#22 = VERTEX_POINT ( 'NONE', #10 ) ;
#23 = PERSON_AND_ORGANIZATION_ROLE ( 'creator' ) ;
#24 = DIRECTION ( 'NONE',  ( 0.0000000000000000000, 0.0000000000000000000, 1.000000000000000000 ) ) ;
#25 = ADVANCED_FACE ( 'NONE', ( #38 ), #112, .T. ) ;
#26 = PERSON_AND_ORGANIZATION_ROLE ( 'design_supplier' ) ;
#27 = CARTESIAN_POINT ( 'NONE',  ( -20.00000000000000000, 0.0000000000000000000, 0.2000000000000000100 ) ) ;
#28 = PRODUCT_RELATED_PRODUCT_CATEGORY ( 'detail', '', ( #152 ) ) ;
#29 = APPROVAL_DATE_TIME ( #171, #143 ) ;
#30 = DIRECTION ( 'NONE',  ( -0.0000000000000000000, -0.0000000000000000000, -1.000000000000000000 ) ) ;
#31 = AXIS2_PLACEMENT_3D ( 'NONE', #85, #61, #4 ) ;
#32 = CLOSED_SHELL ( 'NONE', ( #25, #127, #69, #14 ) ) ;
#33 = CYLINDRICAL_SURFACE ( 'NONE', #36, 20.00000000000000000 ) ;
#34 = CARTESIAN_POINT ( 'NONE',  ( 20.00000000000000000, 2.449293598294706500E-015, 0.0000000000000000000 ) ) ;
#35 = ORIENTED_EDGE ( 'NONE', *, *, #74, .T. ) ;
#36 = AXIS2_PLACEMENT_3D ( 'NONE', #168, #16, #52 ) ;
#37 = APPROVAL_DATE_TIME ( #84, #120 ) ;
#38 = FACE_OUTER_BOUND ( 'NONE', #158, .T. ) ;
#39 = PERSON_AND_ORGANIZATION_ROLE ( 'creator' ) ;
#40 = CC_DESIGN_SECURITY_CLASSIFICATION ( #172, ( #170 ) ) ;
#41 = EDGE_LOOP ( 'NONE', ( #86, #20 ) ) ;
#42 = MECHANICAL_CONTEXT ( 'NONE', #7, 'mechanical' ) ;
#43 = AXIS2_PLACEMENT_3D ( 'NONE', #166, #2, #71 ) ;
#44 = ORIENTED_EDGE ( 'NONE', *, *, #100, .F. ) ;
#45 = PERSON_AND_ORGANIZATION_ROLE ( 'design_owner' ) ;
#46 = COORDINATED_UNIVERSAL_TIME_OFFSET ( 5, 0, .BEHIND. ) ;
#47 = CIRCLE ( 'NONE', #31, 20.00000000000000000 ) ;
#48 = DIRECTION ( 'NONE',  ( -0.0000000000000000000, -0.0000000000000000000, -1.000000000000000000 ) ) ;
#49 = CC_DESIGN_APPROVAL ( #58, ( #170 ) ) ;
#50 = CC_DESIGN_PERSON_AND_ORGANIZATION_ASSIGNMENT ( #123, #39, ( #170 ) ) ;
#51 = PLANE ( 'NONE',  #126 ) ;
#52 = DIRECTION ( 'NONE',  ( -1.000000000000000000, 0.0000000000000000000, 0.0000000000000000000 ) ) ;
#53 = ORIENTED_EDGE ( 'NONE', *, *, #105, .T. ) ;
#54 = PERSON_AND_ORGANIZATION ( #81, #134 ) ;
#55 = APPROVAL_PERSON_ORGANIZATION ( #107, #58, #150 ) ;
#56 = LOCAL_TIME ( 11, 15, 13.00000000000000000, #149 ) ;
#57 = DIRECTION ( 'NONE',  ( 0.0000000000000000000, 0.0000000000000000000, 1.000000000000000000 ) ) ;
#58 = APPROVAL ( #108, 'UNSPECIFIED' ) ;
#59 = CARTESIAN_POINT ( 'NONE',  ( 0.0000000000000000000, 0.0000000000000000000, 0.2000000000000000100 ) ) ;
#60 = DATE_AND_TIME ( #62, #104 ) ;
#61 = DIRECTION ( 'NONE',  ( 0.0000000000000000000, 0.0000000000000000000, 1.000000000000000000 ) ) ;
#62 = CALENDAR_DATE ( 2017, 22, 6 ) ;
#63 = FACE_OUTER_BOUND ( 'NONE', #101, .T. ) ;
#64 = DIRECTION ( 'NONE',  ( 1.000000000000000000, 0.0000000000000000000, 0.0000000000000000000 ) ) ;
#65 = APPROVAL_STATUS ( 'not_yet_approved' ) ;
#66 = CALENDAR_DATE ( 2017, 22, 6 ) ;
#67 = PLANE ( 'NONE',  #89 ) ;
#68 = ORIENTED_EDGE ( 'NONE', *, *, #169, .F. ) ;
#69 = ADVANCED_FACE ( 'NONE', ( #95 ), #67, .T. ) ;
#70 = CARTESIAN_POINT ( 'NONE',  ( 0.0000000000000000000, 0.0000000000000000000, 0.2000000000000000100 ) ) ;
#71 = DIRECTION ( 'NONE',  ( 1.000000000000000000, 0.0000000000000000000, 0.0000000000000000000 ) ) ;
#72 = AXIS2_PLACEMENT_3D ( 'NONE', #124, #106, #64 ) ;
#73 = DATE_AND_TIME ( #66, #88 ) ;
#74 = EDGE_CURVE ( 'NONE', #22, #99, #6, .T. ) ;
#75 = DIRECTION ( 'NONE',  ( -1.000000000000000000, 0.0000000000000000000, 0.0000000000000000000 ) ) ;
#76 = DATE_TIME_ROLE ( 'creation_date' ) ;
#77 = COORDINATED_UNIVERSAL_TIME_OFFSET ( 5, 0, .BEHIND. ) ;
#78 = CC_DESIGN_APPROVAL ( #120, ( #161 ) ) ;
#79 = PERSON_AND_ORGANIZATION_ROLE ( 'classification_officer' ) ;
#80 = CARTESIAN_POINT ( 'NONE',  ( 20.00000000000000000, 2.449293598294706500E-015, 0.2000000000000000100 ) ) ;
#81 = PERSON ( 'UNSPECIFIED', 'UNSPECIFIED', 'UNSPECIFIED', ('UNSPECIFIED'), ('UNSPECIFIED'), ('UNSPECIFIED') ) ;
#82 = DIRECTION ( 'NONE',  ( 1.000000000000000000, 0.0000000000000000000, -0.0000000000000000000 ) ) ;
#83 =( LENGTH_UNIT ( ) NAMED_UNIT ( * ) SI_UNIT ( .MILLI., .METRE. ) );
#84 = DATE_AND_TIME ( #125, #165 ) ;
#85 = CARTESIAN_POINT ( 'NONE',  ( 0.0000000000000000000, 0.0000000000000000000, 0.0000000000000000000 ) ) ;
#86 = ORIENTED_EDGE ( 'NONE', *, *, #97, .T. ) ;
#87 = FACE_OUTER_BOUND ( 'NONE', #136, .T. ) ;
#88 = LOCAL_TIME ( 11, 15, 13.00000000000000000, #46 ) ;
#89 = AXIS2_PLACEMENT_3D ( 'NONE', #139, #160, #82 ) ;
#90 = MANIFOLD_SOLID_BREP ( 'Extrude1', #32 ) ;
#91 = APPROVAL_ROLE ( '' ) ;
#92 = DIRECTION ( 'NONE',  ( 1.000000000000000000, 0.0000000000000000000, -0.0000000000000000000 ) ) ;
#93 = ORIENTED_EDGE ( 'NONE', *, *, #5, .F. ) ;
#94 = SHAPE_DEFINITION_REPRESENTATION ( #113, #163 ) ;
#95 = FACE_OUTER_BOUND ( 'NONE', #41, .T. ) ;
#96 = ORIENTED_EDGE ( 'NONE', *, *, #169, .T. ) ;
#97 = EDGE_CURVE ( 'NONE', #155, #164, #119, .T. ) ;
#98 = DIRECTION ( 'NONE',  ( 0.0000000000000000000, 0.0000000000000000000, 1.000000000000000000 ) ) ;
#99 = VERTEX_POINT ( 'NONE', #34 ) ;
#100 = EDGE_CURVE ( 'NONE', #164, #155, #135, .T. ) ;
#101 = EDGE_LOOP ( 'NONE', ( #156, #15 ) ) ;
#102 = APPROVAL_DATE_TIME ( #60, #58 ) ;
#103 =( NAMED_UNIT ( * ) PLANE_ANGLE_UNIT ( ) SI_UNIT ( $, .RADIAN. ) );
#104 = LOCAL_TIME ( 11, 15, 13.00000000000000000, #109 ) ;
#105 = EDGE_CURVE ( 'NONE', #99, #22, #47, .T. ) ;
#106 = DIRECTION ( 'NONE',  ( 0.0000000000000000000, 0.0000000000000000000, 1.000000000000000000 ) ) ;
#107 = PERSON_AND_ORGANIZATION ( #81, #134 ) ;
#108 = APPROVAL_STATUS ( 'not_yet_approved' ) ;
#109 = COORDINATED_UNIVERSAL_TIME_OFFSET ( 5, 0, .BEHIND. ) ;
#110 = AXIS2_PLACEMENT_3D ( 'NONE', #111, #115, #75 ) ;
#111 = CARTESIAN_POINT ( 'NONE',  ( 0.0000000000000000000, 0.0000000000000000000, 0.2000000000000000100 ) ) ;
#112 = CYLINDRICAL_SURFACE ( 'NONE', #110, 20.00000000000000000 ) ;
#113 = PRODUCT_DEFINITION_SHAPE ( 'NONE', 'NONE',  #161 ) ;
#114 = CC_DESIGN_PERSON_AND_ORGANIZATION_ASSIGNMENT ( #54, #26, ( #170 ) ) ;
#115 = DIRECTION ( 'NONE',  ( -0.0000000000000000000, -0.0000000000000000000, -1.000000000000000000 ) ) ;
#116 = COORDINATED_UNIVERSAL_TIME_OFFSET ( 5, 0, .BEHIND. ) ;
#117 = CARTESIAN_POINT ( 'NONE',  ( -20.00000000000000000, 0.0000000000000000000, 0.2000000000000000100 ) ) ;
#118 = CC_DESIGN_DATE_AND_TIME_ASSIGNMENT ( #9, #159, ( #172 ) ) ;
#119 = CIRCLE ( 'NONE', #19, 20.00000000000000000 ) ;
#120 = APPROVAL ( #131, 'UNSPECIFIED' ) ;
#121 = LINE ( 'NONE', #80, #167 ) ;
#122 = CARTESIAN_POINT ( 'NONE',  ( 20.00000000000000000, 2.449293598294706500E-015, 0.2000000000000000100 ) ) ;
#123 = PERSON_AND_ORGANIZATION ( #81, #134 ) ;
#124 = CARTESIAN_POINT ( 'NONE',  ( 0.0000000000000000000, 0.0000000000000000000, 0.0000000000000000000 ) ) ;
#125 = CALENDAR_DATE ( 2017, 22, 6 ) ;
#126 = AXIS2_PLACEMENT_3D ( 'NONE', #174, #98, #92 ) ;
#127 = ADVANCED_FACE ( 'NONE', ( #87 ), #33, .T. ) ;
#128 =( NAMED_UNIT ( * ) SI_UNIT ( $, .STERADIAN. ) SOLID_ANGLE_UNIT ( ) );
#129 = APPLICATION_CONTEXT ( 'configuration controlled 3d designs of mechanical parts and assemblies' ) ;
#130 = CC_DESIGN_PERSON_AND_ORGANIZATION_ASSIGNMENT ( #175, #45, ( #152 ) ) ;
#131 = APPROVAL_STATUS ( 'not_yet_approved' ) ;
#132 = CC_DESIGN_PERSON_AND_ORGANIZATION_ASSIGNMENT ( #141, #79, ( #172 ) ) ;
#133 = SECURITY_CLASSIFICATION_LEVEL ( 'unclassified' ) ;
#134 = ORGANIZATION ( 'UNSPECIFIED', 'UNSPECIFIED', '' ) ;
#135 = CIRCLE ( 'NONE', #162, 20.00000000000000000 ) ;
#136 = EDGE_LOOP ( 'NONE', ( #68, #145, #3, #35 ) ) ;
#137 = APPROVAL_ROLE ( '' ) ;
#138 = CALENDAR_DATE ( 2017, 22, 6 ) ;
#139 = CARTESIAN_POINT ( 'NONE',  ( 0.0000000000000000000, 0.0000000000000000000, 0.2000000000000000100 ) ) ;
#140 = CC_DESIGN_PERSON_AND_ORGANIZATION_ASSIGNMENT ( #18, #23, ( #161 ) ) ;
#141 = PERSON_AND_ORGANIZATION ( #81, #134 ) ;
#142 = APPLICATION_PROTOCOL_DEFINITION ( 'international standard', 'config_control_design', 1994, #129 ) ;
#143 = APPROVAL ( #65, 'UNSPECIFIED' ) ;
#144 = CC_DESIGN_DATE_AND_TIME_ASSIGNMENT ( #73, #76, ( #161 ) ) ;
#145 = ORIENTED_EDGE ( 'NONE', *, *, #97, .F. ) ;
#146 = LINE ( 'NONE', #27, #154 ) ;
#147 = DIRECTION ( 'NONE',  ( 1.000000000000000000, 0.0000000000000000000, 0.0000000000000000000 ) ) ;
#148 = CC_DESIGN_APPROVAL ( #143, ( #172 ) ) ;
#149 = COORDINATED_UNIVERSAL_TIME_OFFSET ( 5, 0, .BEHIND. ) ;
#150 = APPROVAL_ROLE ( '' ) ;
#151 = APPROVAL_PERSON_ORGANIZATION ( #13, #143, #91 ) ;
#152 = PRODUCT ( 'Web Model 66190_66190', 'Web Model 66190_66190', '', ( #42 ) ) ;
#153 =( GEOMETRIC_REPRESENTATION_CONTEXT ( 3 ) GLOBAL_UNCERTAINTY_ASSIGNED_CONTEXT ( ( #157 ) ) GLOBAL_UNIT_ASSIGNED_CONTEXT ( ( #83, #103, #128 ) ) REPRESENTATION_CONTEXT ( 'NONE', 'WORKASPACE' ) );
#154 = VECTOR ( 'NONE', #30, 1000.000000000000000 ) ;
#155 = VERTEX_POINT ( 'NONE', #117 ) ;
#156 = ORIENTED_EDGE ( 'NONE', *, *, #74, .F. ) ;
#157 = UNCERTAINTY_MEASURE_WITH_UNIT (LENGTH_MEASURE( 1.000000000000000100E-005 ), #83, 'distance_accuracy_value', 'NONE');
#158 = EDGE_LOOP ( 'NONE', ( #44, #96, #53, #93 ) ) ;
#159 = DATE_TIME_ROLE ( 'classification_date' ) ;
#160 = DIRECTION ( 'NONE',  ( 0.0000000000000000000, 0.0000000000000000000, 1.000000000000000000 ) ) ;
#161 = PRODUCT_DEFINITION ( 'UNKNOWN', '', #170, #12 ) ;
#162 = AXIS2_PLACEMENT_3D ( 'NONE', #70, #57, #11 ) ;
#163 = ADVANCED_BREP_SHAPE_REPRESENTATION ( 'Web Model 66190_66190', ( #90, #43 ), #153 ) ;
#164 = VERTEX_POINT ( 'NONE', #122 ) ;
#165 = LOCAL_TIME ( 11, 15, 13.00000000000000000, #77 ) ;
#166 = CARTESIAN_POINT ( 'NONE',  ( 0.0000000000000000000, 0.0000000000000000000, 0.0000000000000000000 ) ) ;
#167 = VECTOR ( 'NONE', #48, 1000.000000000000000 ) ;
#168 = CARTESIAN_POINT ( 'NONE',  ( 0.0000000000000000000, 0.0000000000000000000, 0.2000000000000000100 ) ) ;
#169 = EDGE_CURVE ( 'NONE', #164, #99, #121, .T. ) ;
#170 = PRODUCT_DEFINITION_FORMATION_WITH_SPECIFIED_SOURCE ( 'ANY', '', #152, .NOT_KNOWN. ) ;
#171 = DATE_AND_TIME ( #1, #56 ) ;
#172 = SECURITY_CLASSIFICATION ( '', '', #133 ) ;
#173 = PERSON_AND_ORGANIZATION ( #81, #134 ) ;
#174 = CARTESIAN_POINT ( 'NONE',  ( 0.0000000000000000000, 0.0000000000000000000, 0.0000000000000000000 ) ) ;
#175 = PERSON_AND_ORGANIZATION ( #81, #134 ) ;
ENDSEC;
END-ISO-10303-21;
