ISO-10303-21;
HEADER;
FILE_DESCRIPTION (( 'STEP AP203' ),
    '1' );
FILE_NAME ('Web Model 49622.STEP',
    '2017-01-31T15:23:04',
    ( '' ),
    ( '' ),
    'SwSTEP 2.0',
    'SolidWorks 2016',
    '' );
FILE_SCHEMA (( 'CONFIG_CONTROL_DESIGN' ));
ENDSEC;

DATA;
#1 = PERSON_AND_ORGANIZATION ( #47, #115 ) ;
#2 = VERTEX_POINT ( 'NONE', #21 ) ;
#3 = LINE ( 'NONE', #141, #198 ) ;
#4 = APPROVAL ( #127, 'UNSPECIFIED' ) ;
#5 = EDGE_LOOP ( 'NONE', ( #222, #146, #126, #100 ) ) ;
#6 = PLANE ( 'NONE',  #23 ) ;
#7 = DIRECTION ( 'NONE',  ( 1.000000000000000000, 0.0000000000000000000, -0.0000000000000000000 ) ) ;
#8 = DIRECTION ( 'NONE',  ( 1.000000000000000000, 0.0000000000000000000, 0.0000000000000000000 ) ) ;
#9 = CC_DESIGN_APPROVAL ( #158, ( #124 ) ) ;
#10 = CARTESIAN_POINT ( 'NONE',  ( 12.50000000000000000, 12.50000000000000000, 4.000000000000000000 ) ) ;
#11 = FACE_OUTER_BOUND ( 'NONE', #152, .T. ) ;
#12 = VECTOR ( 'NONE', #180, 1000.000000000000000 ) ;
#13 = CARTESIAN_POINT ( 'NONE',  ( 12.50000000000000000, 12.50000000000000000, 0.0000000000000000000 ) ) ;
#14 = ORIENTED_EDGE ( 'NONE', *, *, #42, .F. ) ;
#15 =( NAMED_UNIT ( * ) PLANE_ANGLE_UNIT ( ) SI_UNIT ( $, .RADIAN. ) );
#16 = PERSON_AND_ORGANIZATION ( #47, #115 ) ;
#17 = FACE_OUTER_BOUND ( 'NONE', #5, .T. ) ;
#18 = DATE_AND_TIME ( #80, #26 ) ;
#19 = ORIENTED_EDGE ( 'NONE', *, *, #184, .T. ) ;
#20 = CARTESIAN_POINT ( 'NONE',  ( -12.50000000000000000, 12.50000000000000000, 4.000000000000000000 ) ) ;
#21 = CARTESIAN_POINT ( 'NONE',  ( 12.50000000000000000, -12.50000000000000000, 0.0000000000000000000 ) ) ;
#22 = ADVANCED_FACE ( 'NONE', ( #234 ), #83, .F. ) ;
#23 = AXIS2_PLACEMENT_3D ( 'NONE', #33, #162, #50 ) ;
#24 = LINE ( 'NONE', #20, #171 ) ;
#25 = ADVANCED_BREP_SHAPE_REPRESENTATION ( 'Web Model 49622', ( #55, #77 ), #52 ) ;
#26 = LOCAL_TIME ( 10, 23, 4.000000000000000000, #75 ) ;
#27 = ORIENTED_EDGE ( 'NONE', *, *, #84, .F. ) ;
#28 = DIRECTION ( 'NONE',  ( -0.0000000000000000000, 0.0000000000000000000, 1.000000000000000000 ) ) ;
#29 = DIRECTION ( 'NONE',  ( -1.000000000000000000, -0.0000000000000000000, -0.0000000000000000000 ) ) ;
#30 = APPROVAL_DATE_TIME ( #85, #117 ) ;
#31 = CARTESIAN_POINT ( 'NONE',  ( -12.50000000000000000, 12.50000000000000000, 4.000000000000000000 ) ) ;
#32 = LINE ( 'NONE', #165, #209 ) ;
#33 = CARTESIAN_POINT ( 'NONE',  ( -12.50000000000000000, -12.50000000000000000, 4.000000000000000000 ) ) ;
#34 = DIRECTION ( 'NONE',  ( 0.0000000000000000000, -0.0000000000000000000, -1.000000000000000000 ) ) ;
#35 = COORDINATED_UNIVERSAL_TIME_OFFSET ( 5, 0, .BEHIND. ) ;
#36 = VERTEX_POINT ( 'NONE', #98 ) ;
#37 = PERSON_AND_ORGANIZATION_ROLE ( 'design_owner' ) ;
#38 = EDGE_CURVE ( 'NONE', #122, #116, #24, .T. ) ;
#39 = DATE_TIME_ROLE ( 'creation_date' ) ;
#40 = CC_DESIGN_PERSON_AND_ORGANIZATION_ASSIGNMENT ( #16, #58, ( #57 ) ) ;
#41 = LINE ( 'NONE', #13, #99 ) ;
#42 = EDGE_CURVE ( 'NONE', #86, #122, #73, .T. ) ;
#43 = CARTESIAN_POINT ( 'NONE',  ( -12.50000000000000000, -12.50000000000000000, 4.000000000000000000 ) ) ;
#44 = COORDINATED_UNIVERSAL_TIME_OFFSET ( 5, 0, .BEHIND. ) ;
#45 = CLOSED_SHELL ( 'NONE', ( #136, #22, #64, #79, #153, #132 ) ) ;
#46 = ORIENTED_EDGE ( 'NONE', *, *, #42, .T. ) ;
#47 = PERSON ( 'UNSPECIFIED', 'UNSPECIFIED', 'UNSPECIFIED', ('UNSPECIFIED'), ('UNSPECIFIED'), ('UNSPECIFIED') ) ;
#48 = EDGE_CURVE ( 'NONE', #68, #233, #32, .T. ) ;
#49 = DIRECTION ( 'NONE',  ( -1.000000000000000000, -0.0000000000000000000, -0.0000000000000000000 ) ) ;
#50 = DIRECTION ( 'NONE',  ( 1.000000000000000000, 0.0000000000000000000, 0.0000000000000000000 ) ) ;
#51 = PRODUCT_DEFINITION_SHAPE ( 'NONE', 'NONE',  #124 ) ;
#52 =( GEOMETRIC_REPRESENTATION_CONTEXT ( 3 ) GLOBAL_UNCERTAINTY_ASSIGNED_CONTEXT ( ( #211 ) ) GLOBAL_UNIT_ASSIGNED_CONTEXT ( ( #148, #15, #149 ) ) REPRESENTATION_CONTEXT ( 'NONE', 'WORKASPACE' ) );
#53 = PLANE ( 'NONE',  #133 ) ;
#54 = EDGE_LOOP ( 'NONE', ( #214, #174, #224, #131 ) ) ;
#55 = MANIFOLD_SOLID_BREP ( 'Extrude1', #45 ) ;
#56 = DIRECTION ( 'NONE',  ( 1.000000000000000000, 0.0000000000000000000, 0.0000000000000000000 ) ) ;
#57 = SECURITY_CLASSIFICATION ( '', '', #60 ) ;
#58 = PERSON_AND_ORGANIZATION_ROLE ( 'classification_officer' ) ;
#59 = LINE ( 'NONE', #161, #179 ) ;
#60 = SECURITY_CLASSIFICATION_LEVEL ( 'unclassified' ) ;
#61 = CC_DESIGN_SECURITY_CLASSIFICATION ( #57, ( #147 ) ) ;
#62 = DIRECTION ( 'NONE',  ( -0.0000000000000000000, -0.0000000000000000000, -1.000000000000000000 ) ) ;
#63 = ORIENTED_EDGE ( 'NONE', *, *, #176, .F. ) ;
#64 = ADVANCED_FACE ( 'NONE', ( #113 ), #160, .F. ) ;
#65 = AXIS2_PLACEMENT_3D ( 'NONE', #43, #207, #173 ) ;
#66 = CALENDAR_DATE ( 2017, 31, 1 ) ;
#67 = LINE ( 'NONE', #178, #12 ) ;
#68 = VERTEX_POINT ( 'NONE', #143 ) ;
#69 = DIRECTION ( 'NONE',  ( 1.000000000000000000, 0.0000000000000000000, 0.0000000000000000000 ) ) ;
#70 = CARTESIAN_POINT ( 'NONE',  ( -12.50000000000000000, 12.50000000000000000, 0.0000000000000000000 ) ) ;
#71 = DIRECTION ( 'NONE',  ( -0.0000000000000000000, 0.0000000000000000000, -1.000000000000000000 ) ) ;
#72 = PERSON_AND_ORGANIZATION ( #47, #115 ) ;
#73 = LINE ( 'NONE', #142, #204 ) ;
#74 = DIRECTION ( 'NONE',  ( 0.0000000000000000000, 0.0000000000000000000, 1.000000000000000000 ) ) ;
#75 = COORDINATED_UNIVERSAL_TIME_OFFSET ( 5, 0, .BEHIND. ) ;
#76 = APPROVAL_ROLE ( '' ) ;
#77 = AXIS2_PLACEMENT_3D ( 'NONE', #236, #74, #56 ) ;
#78 = DATE_AND_TIME ( #96, #121 ) ;
#79 = ADVANCED_FACE ( 'NONE', ( #105 ), #197, .F. ) ;
#80 = CALENDAR_DATE ( 2017, 31, 1 ) ;
#81 = ORIENTED_EDGE ( 'NONE', *, *, #159, .F. ) ;
#82 = CC_DESIGN_APPROVAL ( #117, ( #147 ) ) ;
#83 = PLANE ( 'NONE',  #65 ) ;
#84 = EDGE_CURVE ( 'NONE', #86, #88, #67, .T. ) ;
#85 = DATE_AND_TIME ( #89, #225 ) ;
#86 = VERTEX_POINT ( 'NONE', #10 ) ;
#87 = SHAPE_DEFINITION_REPRESENTATION ( #51, #25 ) ;
#88 = VERTEX_POINT ( 'NONE', #102 ) ;
#89 = CALENDAR_DATE ( 2017, 31, 1 ) ;
#90 = CARTESIAN_POINT ( 'NONE',  ( 12.50000000000000000, 12.50000000000000000, 4.000000000000000000 ) ) ;
#91 = CARTESIAN_POINT ( 'NONE',  ( 12.50000000000000000, -12.50000000000000000, 4.000000000000000000 ) ) ;
#92 = DIRECTION ( 'NONE',  ( -0.0000000000000000000, 1.000000000000000000, -0.0000000000000000000 ) ) ;
#93 = LINE ( 'NONE', #101, #163 ) ;
#94 = PERSON_AND_ORGANIZATION_ROLE ( 'creator' ) ;
#95 = APPLICATION_CONTEXT ( 'configuration controlled 3d designs of mechanical parts and assemblies' ) ;
#96 = CALENDAR_DATE ( 2017, 31, 1 ) ;
#97 = VECTOR ( 'NONE', #231, 1000.000000000000000 ) ;
#98 = CARTESIAN_POINT ( 'NONE',  ( 12.50000000000000000, -12.50000000000000000, 4.000000000000000000 ) ) ;
#99 = VECTOR ( 'NONE', #201, 1000.000000000000000 ) ;
#100 = ORIENTED_EDGE ( 'NONE', *, *, #137, .F. ) ;
#101 = CARTESIAN_POINT ( 'NONE',  ( -12.50000000000000000, 12.50000000000000000, 0.0000000000000000000 ) ) ;
#102 = CARTESIAN_POINT ( 'NONE',  ( 12.50000000000000000, 12.50000000000000000, 0.0000000000000000000 ) ) ;
#103 = DIRECTION ( 'NONE',  ( -0.0000000000000000000, -0.0000000000000000000, -1.000000000000000000 ) ) ;
#104 = VECTOR ( 'NONE', #103, 1000.000000000000000 ) ;
#105 = FACE_OUTER_BOUND ( 'NONE', #205, .T. ) ;
#106 = DIRECTION ( 'NONE',  ( 0.0000000000000000000, -1.000000000000000000, 0.0000000000000000000 ) ) ;
#107 = APPLICATION_PROTOCOL_DEFINITION ( 'international standard', 'config_control_design', 1994, #95 ) ;
#108 = PERSON_AND_ORGANIZATION_ROLE ( 'design_supplier' ) ;
#109 = ORIENTED_EDGE ( 'NONE', *, *, #203, .F. ) ;
#110 = DATE_TIME_ROLE ( 'classification_date' ) ;
#111 = LOCAL_TIME ( 10, 23, 4.000000000000000000, #208 ) ;
#112 = CC_DESIGN_PERSON_AND_ORGANIZATION_ASSIGNMENT ( #235, #37, ( #187 ) ) ;
#113 = FACE_OUTER_BOUND ( 'NONE', #188, .T. ) ;
#114 = ORIENTED_EDGE ( 'NONE', *, *, #84, .T. ) ;
#115 = ORGANIZATION ( 'UNSPECIFIED', 'UNSPECIFIED', '' ) ;
#116 = VERTEX_POINT ( 'NONE', #70 ) ;
#117 = APPROVAL ( #220, 'UNSPECIFIED' ) ;
#118 = DATE_AND_TIME ( #66, #111 ) ;
#119 = CARTESIAN_POINT ( 'NONE',  ( -12.50000000000000000, 12.50000000000000000, 4.000000000000000000 ) ) ;
#120 = CARTESIAN_POINT ( 'NONE',  ( -12.50000000000000000, -12.50000000000000000, 0.0000000000000000000 ) ) ;
#121 = LOCAL_TIME ( 10, 23, 4.000000000000000000, #35 ) ;
#122 = VERTEX_POINT ( 'NONE', #144 ) ;
#123 = DIRECTION ( 'NONE',  ( 0.0000000000000000000, -1.000000000000000000, 0.0000000000000000000 ) ) ;
#124 = PRODUCT_DEFINITION ( 'UNKNOWN', '', #147, #227 ) ;
#125 = LINE ( 'NONE', #119, #226 ) ;
#126 = ORIENTED_EDGE ( 'NONE', *, *, #184, .F. ) ;
#127 = APPROVAL_STATUS ( 'not_yet_approved' ) ;
#128 = AXIS2_PLACEMENT_3D ( 'NONE', #182, #7, #71 ) ;
#129 = APPROVAL_ROLE ( '' ) ;
#130 = APPROVAL_DATE_TIME ( #78, #158 ) ;
#131 = ORIENTED_EDGE ( 'NONE', *, *, #38, .T. ) ;
#132 = ADVANCED_FACE ( 'NONE', ( #17 ), #53, .F. ) ;
#133 = AXIS2_PLACEMENT_3D ( 'NONE', #196, #28, #69 ) ;
#134 = ORIENTED_EDGE ( 'NONE', *, *, #48, .T. ) ;
#135 = EDGE_LOOP ( 'NONE', ( #168, #81, #63, #134 ) ) ;
#136 = ADVANCED_FACE ( 'NONE', ( #157 ), #215, .F. ) ;
#137 = EDGE_CURVE ( 'NONE', #233, #2, #156, .T. ) ;
#138 = COORDINATED_UNIVERSAL_TIME_OFFSET ( 5, 0, .BEHIND. ) ;
#139 = CC_DESIGN_PERSON_AND_ORGANIZATION_ASSIGNMENT ( #221, #94, ( #147 ) ) ;
#140 = LINE ( 'NONE', #91, #104 ) ;
#141 = CARTESIAN_POINT ( 'NONE',  ( 12.50000000000000000, 12.50000000000000000, 4.000000000000000000 ) ) ;
#142 = CARTESIAN_POINT ( 'NONE',  ( -12.50000000000000000, 12.50000000000000000, 4.000000000000000000 ) ) ;
#143 = CARTESIAN_POINT ( 'NONE',  ( -12.50000000000000000, -12.50000000000000000, 4.000000000000000000 ) ) ;
#144 = CARTESIAN_POINT ( 'NONE',  ( -12.50000000000000000, 12.50000000000000000, 4.000000000000000000 ) ) ;
#145 = DIRECTION ( 'NONE',  ( -0.0000000000000000000, -0.0000000000000000000, -1.000000000000000000 ) ) ;
#146 = ORIENTED_EDGE ( 'NONE', *, *, #164, .F. ) ;
#147 = PRODUCT_DEFINITION_FORMATION_WITH_SPECIFIED_SOURCE ( 'ANY', '', #187, .NOT_KNOWN. ) ;
#148 =( LENGTH_UNIT ( ) NAMED_UNIT ( * ) SI_UNIT ( .MILLI., .METRE. ) );
#149 =( NAMED_UNIT ( * ) SI_UNIT ( $, .STERADIAN. ) SOLID_ANGLE_UNIT ( ) );
#150 = CC_DESIGN_APPROVAL ( #4, ( #57 ) ) ;
#151 = VECTOR ( 'NONE', #8, 1000.000000000000000 ) ;
#152 = EDGE_LOOP ( 'NONE', ( #177, #218, #155, #46 ) ) ;
#153 = ADVANCED_FACE ( 'NONE', ( #11 ), #6, .T. ) ;
#154 = CC_DESIGN_DATE_AND_TIME_ASSIGNMENT ( #193, #39, ( #124 ) ) ;
#155 = ORIENTED_EDGE ( 'NONE', *, *, #203, .T. ) ;
#156 = LINE ( 'NONE', #120, #151 ) ;
#157 = FACE_OUTER_BOUND ( 'NONE', #54, .T. ) ;
#158 = APPROVAL ( #219, 'UNSPECIFIED' ) ;
#159 = EDGE_CURVE ( 'NONE', #36, #2, #140, .T. ) ;
#160 = PLANE ( 'NONE',  #194 ) ;
#161 = CARTESIAN_POINT ( 'NONE',  ( -12.50000000000000000, 12.50000000000000000, 0.0000000000000000000 ) ) ;
#162 = DIRECTION ( 'NONE',  ( -0.0000000000000000000, 0.0000000000000000000, 1.000000000000000000 ) ) ;
#163 = VECTOR ( 'NONE', #29, 1000.000000000000000 ) ;
#164 = EDGE_CURVE ( 'NONE', #88, #116, #93, .T. ) ;
#165 = CARTESIAN_POINT ( 'NONE',  ( -12.50000000000000000, -12.50000000000000000, 4.000000000000000000 ) ) ;
#166 = MECHANICAL_CONTEXT ( 'NONE', #186, 'mechanical' ) ;
#167 = EDGE_CURVE ( 'NONE', #116, #233, #59, .T. ) ;
#168 = ORIENTED_EDGE ( 'NONE', *, *, #137, .T. ) ;
#169 = APPROVAL_ROLE ( '' ) ;
#170 = PERSON_AND_ORGANIZATION ( #47, #115 ) ;
#171 = VECTOR ( 'NONE', #62, 1000.000000000000000 ) ;
#172 = APPROVAL_PERSON_ORGANIZATION ( #216, #4, #169 ) ;
#173 = DIRECTION ( 'NONE',  ( 0.0000000000000000000, -0.0000000000000000000, 1.000000000000000000 ) ) ;
#174 = ORIENTED_EDGE ( 'NONE', *, *, #48, .F. ) ;
#175 = PRODUCT_RELATED_PRODUCT_CATEGORY ( 'detail', '', ( #187 ) ) ;
#176 = EDGE_CURVE ( 'NONE', #68, #36, #195, .T. ) ;
#177 = ORIENTED_EDGE ( 'NONE', *, *, #189, .T. ) ;
#178 = CARTESIAN_POINT ( 'NONE',  ( 12.50000000000000000, 12.50000000000000000, 4.000000000000000000 ) ) ;
#179 = VECTOR ( 'NONE', #106, 1000.000000000000000 ) ;
#180 = DIRECTION ( 'NONE',  ( -0.0000000000000000000, -0.0000000000000000000, -1.000000000000000000 ) ) ;
#181 = CARTESIAN_POINT ( 'NONE',  ( -12.50000000000000000, -12.50000000000000000, 4.000000000000000000 ) ) ;
#182 = CARTESIAN_POINT ( 'NONE',  ( -12.50000000000000000, 12.50000000000000000, 4.000000000000000000 ) ) ;
#183 = ORIENTED_EDGE ( 'NONE', *, *, #164, .T. ) ;
#184 = EDGE_CURVE ( 'NONE', #2, #88, #41, .T. ) ;
#185 = APPROVAL_PERSON_ORGANIZATION ( #72, #117, #76 ) ;
#186 = APPLICATION_CONTEXT ( 'configuration controlled 3d designs of mechanical parts and assemblies' ) ;
#187 = PRODUCT ( 'Web Model 49622', 'Web Model 49622', '', ( #166 ) ) ;
#188 = EDGE_LOOP ( 'NONE', ( #19, #27, #109, #206 ) ) ;
#189 = EDGE_CURVE ( 'NONE', #122, #68, #125, .T. ) ;
#190 = AXIS2_PLACEMENT_3D ( 'NONE', #31, #123, #34 ) ;
#191 = PERSON_AND_ORGANIZATION ( #47, #115 ) ;
#192 = APPROVAL_DATE_TIME ( #18, #4 ) ;
#193 = DATE_AND_TIME ( #229, #237 ) ;
#194 = AXIS2_PLACEMENT_3D ( 'NONE', #90, #213, #228 ) ;
#195 = LINE ( 'NONE', #181, #97 ) ;
#196 = CARTESIAN_POINT ( 'NONE',  ( -12.50000000000000000, -12.50000000000000000, 0.0000000000000000000 ) ) ;
#197 = PLANE ( 'NONE',  #190 ) ;
#198 = VECTOR ( 'NONE', #92, 1000.000000000000000 ) ;
#199 = CC_DESIGN_PERSON_AND_ORGANIZATION_ASSIGNMENT ( #170, #108, ( #147 ) ) ;
#200 = ORIENTED_EDGE ( 'NONE', *, *, #38, .F. ) ;
#201 = DIRECTION ( 'NONE',  ( -0.0000000000000000000, 1.000000000000000000, -0.0000000000000000000 ) ) ;
#202 = PERSON_AND_ORGANIZATION_ROLE ( 'creator' ) ;
#203 = EDGE_CURVE ( 'NONE', #36, #86, #3, .T. ) ;
#204 = VECTOR ( 'NONE', #49, 1000.000000000000000 ) ;
#205 = EDGE_LOOP ( 'NONE', ( #183, #200, #14, #114 ) ) ;
#206 = ORIENTED_EDGE ( 'NONE', *, *, #159, .T. ) ;
#207 = DIRECTION ( 'NONE',  ( 0.0000000000000000000, 1.000000000000000000, 0.0000000000000000000 ) ) ;
#208 = COORDINATED_UNIVERSAL_TIME_OFFSET ( 5, 0, .BEHIND. ) ;
#209 = VECTOR ( 'NONE', #145, 1000.000000000000000 ) ;
#210 = CC_DESIGN_DATE_AND_TIME_ASSIGNMENT ( #118, #110, ( #57 ) ) ;
#211 = UNCERTAINTY_MEASURE_WITH_UNIT (LENGTH_MEASURE( 1.000000000000000100E-005 ), #148, 'distance_accuracy_value', 'NONE');
#212 = DIRECTION ( 'NONE',  ( 0.0000000000000000000, -1.000000000000000000, 0.0000000000000000000 ) ) ;
#213 = DIRECTION ( 'NONE',  ( -1.000000000000000000, 0.0000000000000000000, 0.0000000000000000000 ) ) ;
#214 = ORIENTED_EDGE ( 'NONE', *, *, #167, .T. ) ;
#215 = PLANE ( 'NONE',  #128 ) ;
#216 = PERSON_AND_ORGANIZATION ( #47, #115 ) ;
#217 = CC_DESIGN_PERSON_AND_ORGANIZATION_ASSIGNMENT ( #1, #202, ( #124 ) ) ;
#218 = ORIENTED_EDGE ( 'NONE', *, *, #176, .T. ) ;
#219 = APPROVAL_STATUS ( 'not_yet_approved' ) ;
#220 = APPROVAL_STATUS ( 'not_yet_approved' ) ;
#221 = PERSON_AND_ORGANIZATION ( #47, #115 ) ;
#222 = ORIENTED_EDGE ( 'NONE', *, *, #167, .F. ) ;
#223 = APPROVAL_PERSON_ORGANIZATION ( #191, #158, #129 ) ;
#224 = ORIENTED_EDGE ( 'NONE', *, *, #189, .F. ) ;
#225 = LOCAL_TIME ( 10, 23, 4.000000000000000000, #138 ) ;
#226 = VECTOR ( 'NONE', #212, 1000.000000000000000 ) ;
#227 = DESIGN_CONTEXT ( 'detailed design', #95, 'design' ) ;
#228 = DIRECTION ( 'NONE',  ( 0.0000000000000000000, 0.0000000000000000000, 1.000000000000000000 ) ) ;
#229 = CALENDAR_DATE ( 2017, 31, 1 ) ;
#230 = CARTESIAN_POINT ( 'NONE',  ( -12.50000000000000000, -12.50000000000000000, 0.0000000000000000000 ) ) ;
#231 = DIRECTION ( 'NONE',  ( 1.000000000000000000, 0.0000000000000000000, 0.0000000000000000000 ) ) ;
#232 = APPLICATION_PROTOCOL_DEFINITION ( 'international standard', 'config_control_design', 1994, #186 ) ;
#233 = VERTEX_POINT ( 'NONE', #230 ) ;
#234 = FACE_OUTER_BOUND ( 'NONE', #135, .T. ) ;
#235 = PERSON_AND_ORGANIZATION ( #47, #115 ) ;
#236 = CARTESIAN_POINT ( 'NONE',  ( 0.0000000000000000000, 0.0000000000000000000, 0.0000000000000000000 ) ) ;
#237 = LOCAL_TIME ( 10, 23, 4.000000000000000000, #44 ) ;
ENDSEC;
END-ISO-10303-21;
