ISO-10303-21;
HEADER;
FILE_DESCRIPTION (( 'STEP AP214' ),
    '1' );
FILE_NAME ('4895-E0W.STEP',
    '2009-12-21T17:10:09',
    ( ' ' ),
    ( ' ' ),
    'SwSTEP 2.0',
    'SolidWorks 2009',
    '' );
FILE_SCHEMA (( 'AUTOMOTIVE_DESIGN' ));
ENDSEC;

DATA;
#1 =( NAMED_UNIT ( * ) PLANE_ANGLE_UNIT ( ) SI_UNIT ( $, .RADIAN. ) );
#2 = ADVANCED_FACE ( 'NONE', ( #96 ), #184, .T. ) ;
#3 =( NAMED_UNIT ( * ) SI_UNIT ( $, .STERADIAN. ) SOLID_ANGLE_UNIT ( ) );
#4 = ORIENTED_EDGE ( 'NONE', *, *, #32, .T. ) ;
#5 = ORIENTED_EDGE ( 'NONE', *, *, #52, .F. ) ;
#6 = VERTEX_POINT ( 'NONE', #161 ) ;
#7 = VERTEX_POINT ( 'NONE', #178 ) ;
#8 = ORIENTED_EDGE ( 'NONE', *, *, #9, .T. ) ;
#9 = EDGE_CURVE ( 'NONE', #7, #57, #118, .T. ) ;
#10 = ORIENTED_EDGE ( 'NONE', *, *, #82, .T. ) ;
#11 = DIRECTION ( 'NONE',  ( -1.000000000000000000, 1.224606353822377300E-016, 0.0000000000000000000 ) ) ;
#12 = CARTESIAN_POINT ( 'NONE',  ( 0.0000000000000000000, 0.0000000000000000000, -498.3406418301421500 ) ) ;
#13 = CIRCLE ( 'NONE', #16, 500.0000000000000000 ) ;
#14 =( GEOMETRIC_REPRESENTATION_CONTEXT ( 3 ) GLOBAL_UNCERTAINTY_ASSIGNED_CONTEXT ( ( #17 ) ) GLOBAL_UNIT_ASSIGNED_CONTEXT ( ( #135, #1, #3 ) ) REPRESENTATION_CONTEXT ( 'NONE', 'WORKASPACE' ) );
#15 = DIRECTION ( 'NONE',  ( -1.224606353822377300E-016, -1.000000000000000000, 0.0000000000000000000 ) ) ;
#16 = AXIS2_PLACEMENT_3D ( 'NONE', #12, #11, #15 ) ;
#17 = UNCERTAINTY_MEASURE_WITH_UNIT (LENGTH_MEASURE( 1.000000000000000100E-005 ), #135, 'distance_accuracy_value', 'NONE');
#18 = APPLICATION_CONTEXT ( 'automotive_design' ) ;
#19 = PRODUCT ( '4895-E0W', '4895-E0W', '', ( #27 ) ) ;
#20 = APPLICATION_PROTOCOL_DEFINITION ( 'draft international standard', 'automotive_design', 1998, #24 ) ;
#21 = PRODUCT_DEFINITION ( 'UNKNOWN', '', #23, #25 ) ;
#22 = APPLICATION_PROTOCOL_DEFINITION ( 'draft international standard', 'automotive_design', 1998, #18 ) ;
#23 = PRODUCT_DEFINITION_FORMATION_WITH_SPECIFIED_SOURCE ( 'ANY', '', #19, .NOT_KNOWN. ) ;
#24 = APPLICATION_CONTEXT ( 'automotive_design' ) ;
#25 = PRODUCT_DEFINITION_CONTEXT ( 'detailed design', #24, 'design' ) ;
#26 = PRODUCT_RELATED_PRODUCT_CATEGORY ( 'part', '', ( #19 ) ) ;
#27 = PRODUCT_CONTEXT ( 'NONE', #18, 'mechanical' ) ;
#28 = VERTEX_POINT ( 'NONE', #177 ) ;
#29 = VERTEX_POINT ( 'NONE', #176 ) ;
#30 = ORIENTED_EDGE ( 'NONE', *, *, #84, .T. ) ;
#31 = ORIENTED_EDGE ( 'NONE', *, *, #54, .F. ) ;
#32 = EDGE_CURVE ( 'NONE', #59, #56, #145, .T. ) ;
#33 = EDGE_CURVE ( 'NONE', #60, #59, #148, .T. ) ;
#34 = ADVANCED_FACE ( 'NONE', ( #149 ), #179, .T. ) ;
#35 = EDGE_LOOP ( 'NONE', ( #66, #68, #62, #77, #80, #39 ) ) ;
#36 = ADVANCED_FACE ( 'NONE', ( #183 ), #102, .F. ) ;
#37 = ORIENTED_EDGE ( 'NONE', *, *, #38, .T. ) ;
#38 = EDGE_CURVE ( 'NONE', #28, #6, #122, .T. ) ;
#39 = ORIENTED_EDGE ( 'NONE', *, *, #82, .F. ) ;
#40 = ORIENTED_EDGE ( 'NONE', *, *, #9, .F. ) ;
#41 = ORIENTED_EDGE ( 'NONE', *, *, #84, .F. ) ;
#42 = CLOSED_SHELL ( 'NONE', ( #36, #2, #34, #43, #65, #81 ) ) ;
#43 = ADVANCED_FACE ( 'NONE', ( #168 ), #198, .T. ) ;
#44 = EDGE_LOOP ( 'NONE', ( #41, #76, #61, #78 ) ) ;
#45 = EDGE_CURVE ( 'NONE', #6, #7, #200, .T. ) ;
#46 = EDGE_LOOP ( 'NONE', ( #74, #37, #72, #51, #58, #73 ) ) ;
#47 = EDGE_LOOP ( 'NONE', ( #5, #8, #48, #31 ) ) ;
#48 = ORIENTED_EDGE ( 'NONE', *, *, #71, .F. ) ;
#49 = ORIENTED_EDGE ( 'NONE', *, *, #50, .F. ) ;
#50 = EDGE_CURVE ( 'NONE', #59, #85, #196, .T. ) ;
#51 = ORIENTED_EDGE ( 'NONE', *, *, #32, .F. ) ;
#52 = EDGE_CURVE ( 'NONE', #7, #53, #197, .T. ) ;
#53 = VERTEX_POINT ( 'NONE', #199 ) ;
#54 = EDGE_CURVE ( 'NONE', #53, #28, #213, .T. ) ;
#55 = EDGE_CURVE ( 'NONE', #29, #60, #222, .T. ) ;
#56 = VERTEX_POINT ( 'NONE', #217 ) ;
#57 = VERTEX_POINT ( 'NONE', #216 ) ;
#58 = ORIENTED_EDGE ( 'NONE', *, *, #33, .F. ) ;
#59 = VERTEX_POINT ( 'NONE', #215 ) ;
#60 = VERTEX_POINT ( 'NONE', #214 ) ;
#61 = ORIENTED_EDGE ( 'NONE', *, *, #33, .T. ) ;
#62 = ORIENTED_EDGE ( 'NONE', *, *, #52, .T. ) ;
#63 = EDGE_CURVE ( 'NONE', #53, #60, #231, .T. ) ;
#64 = EDGE_LOOP ( 'NONE', ( #4, #10, #30, #49 ) ) ;
#65 = ADVANCED_FACE ( 'NONE', ( #235 ), #261, .T. ) ;
#66 = ORIENTED_EDGE ( 'NONE', *, *, #75, .F. ) ;
#67 = ORIENTED_EDGE ( 'NONE', *, *, #45, .F. ) ;
#68 = ORIENTED_EDGE ( 'NONE', *, *, #45, .T. ) ;
#69 = ORIENTED_EDGE ( 'NONE', *, *, #71, .T. ) ;
#70 = ORIENTED_EDGE ( 'NONE', *, *, #38, .F. ) ;
#71 = EDGE_CURVE ( 'NONE', #28, #57, #278, .T. ) ;
#72 = ORIENTED_EDGE ( 'NONE', *, *, #75, .T. ) ;
#73 = ORIENTED_EDGE ( 'NONE', *, *, #63, .F. ) ;
#74 = ORIENTED_EDGE ( 'NONE', *, *, #54, .T. ) ;
#75 = EDGE_CURVE ( 'NONE', #6, #56, #248, .T. ) ;
#76 = ORIENTED_EDGE ( 'NONE', *, *, #55, .T. ) ;
#77 = ORIENTED_EDGE ( 'NONE', *, *, #63, .T. ) ;
#78 = ORIENTED_EDGE ( 'NONE', *, *, #50, .T. ) ;
#79 = EDGE_LOOP ( 'NONE', ( #40, #67, #70, #69 ) ) ;
#80 = ORIENTED_EDGE ( 'NONE', *, *, #55, .F. ) ;
#81 = ADVANCED_FACE ( 'NONE', ( #252 ), #259, .F. ) ;
#82 = EDGE_CURVE ( 'NONE', #56, #29, #286, .T. ) ;
#83 = MANIFOLD_SOLID_BREP ( 'NONE', #42 ) ;
#84 = EDGE_CURVE ( 'NONE', #29, #85, #13, .T. ) ;
#85 = VERTEX_POINT ( 'NONE', #304 ) ;
#86 =( NAMED_UNIT ( * ) PLANE_ANGLE_UNIT ( ) SI_UNIT ( $, .RADIAN. ) );
#87 = SURFACE_STYLE_USAGE ( .BOTH. , #88 ) ;
#88 = SURFACE_SIDE_STYLE ('',( #89 ) ) ;
#89 = SURFACE_STYLE_FILL_AREA ( #90 ) ;
#90 = FILL_AREA_STYLE ('',( #94 ) ) ;
#91 =( GEOMETRIC_REPRESENTATION_CONTEXT ( 3 ) GLOBAL_UNCERTAINTY_ASSIGNED_CONTEXT ( ( #92 ) ) GLOBAL_UNIT_ASSIGNED_CONTEXT ( ( #97, #86, #93 ) ) REPRESENTATION_CONTEXT ( 'NONE', 'WORKASPACE' ) );
#92 = UNCERTAINTY_MEASURE_WITH_UNIT (LENGTH_MEASURE( 1.000000000000000100E-005 ), #97, 'distance_accuracy_value', 'NONE');
#93 =( NAMED_UNIT ( * ) SI_UNIT ( $, .STERADIAN. ) SOLID_ANGLE_UNIT ( ) );
#94 = FILL_AREA_STYLE_COLOUR ( '', #95 ) ;
#95 = COLOUR_RGB ( '',0.9568627450980391500, 0.9490196078431372100, 0.9607843137254902200 ) ;
#96 = FACE_OUTER_BOUND ( 'NONE', #46, .T. ) ;
#97 =( LENGTH_UNIT ( ) NAMED_UNIT ( * ) SI_UNIT ( .MILLI., .METRE. ) );
#98 = MECHANICAL_DESIGN_GEOMETRIC_PRESENTATION_REPRESENTATION (  '', ( #100 ), #91 ) ;
#99 = PRESENTATION_LAYER_ASSIGNMENT (  '', '', ( #100 ) ) ;
#100 = STYLED_ITEM ( 'NONE', ( #101 ), #2 ) ;
#101 = PRESENTATION_STYLE_ASSIGNMENT (( #87 ) ) ;
#102 = SPHERICAL_SURFACE ( 'NONE', #121, 253.1899999999999700 ) ;
#103 =( GEOMETRIC_REPRESENTATION_CONTEXT ( 3 ) GLOBAL_UNCERTAINTY_ASSIGNED_CONTEXT ( ( #133 ) ) GLOBAL_UNIT_ASSIGNED_CONTEXT ( ( #104, #123, #134 ) ) REPRESENTATION_CONTEXT ( 'NONE', 'WORKASPACE' ) );
#104 =( LENGTH_UNIT ( ) NAMED_UNIT ( * ) SI_UNIT ( .MILLI., .METRE. ) );
#105 = MECHANICAL_DESIGN_GEOMETRIC_PRESENTATION_REPRESENTATION (  '', ( #107 ), #158 ) ;
#106 = PRESENTATION_LAYER_ASSIGNMENT (  '', '', ( #107 ) ) ;
#107 = STYLED_ITEM ( 'NONE', ( #150 ), #34 ) ;
#108 = AXIS2_PLACEMENT_3D ( 'NONE', #146, #160, #159 ) ;
#109 = SURFACE_STYLE_USAGE ( .BOTH. , #110 ) ;
#110 = SURFACE_SIDE_STYLE ('',( #111 ) ) ;
#111 = SURFACE_STYLE_FILL_AREA ( #112 ) ;
#112 = FILL_AREA_STYLE ('',( #113 ) ) ;
#113 = FILL_AREA_STYLE_COLOUR ( '', #182 ) ;
#114 = DIRECTION ( 'NONE',  ( 0.0000000000000000000, 1.000000000000000000, 0.0000000000000000000 ) ) ;
#115 =( NAMED_UNIT ( * ) SI_UNIT ( $, .STERADIAN. ) SOLID_ANGLE_UNIT ( ) );
#116 =( NAMED_UNIT ( * ) PLANE_ANGLE_UNIT ( ) SI_UNIT ( $, .RADIAN. ) );
#117 = AXIS2_PLACEMENT_3D ( 'NONE', #156, #155, #154 ) ;
#118 = CIRCLE ( 'NONE', #117, 253.1899999999999700 ) ;
#119 = AXIS2_PLACEMENT_3D ( 'NONE', #129, #163, #162 ) ;
#120 = CARTESIAN_POINT ( 'NONE',  ( 0.0000000000000000000, 0.0000000000000000000, -254.5306418301421700 ) ) ;
#121 = AXIS2_PLACEMENT_3D ( 'NONE', #120, #175, #174 ) ;
#122 = CIRCLE ( 'NONE', #171, 12.70000000000000100 ) ;
#123 =( NAMED_UNIT ( * ) PLANE_ANGLE_UNIT ( ) SI_UNIT ( $, .RADIAN. ) );
#124 =( LENGTH_UNIT ( ) NAMED_UNIT ( * ) SI_UNIT ( .MILLI., .METRE. ) );
#125 = MECHANICAL_DESIGN_GEOMETRIC_PRESENTATION_REPRESENTATION (  '', ( #127 ), #103 ) ;
#126 = PRESENTATION_LAYER_ASSIGNMENT (  '', '', ( #127 ) ) ;
#127 = STYLED_ITEM ( 'NONE', ( #128 ), #36 ) ;
#128 = PRESENTATION_STYLE_ASSIGNMENT (( #109 ) ) ;
#129 = CARTESIAN_POINT ( 'NONE',  ( 0.0000000000000000000, 0.0000000000000000000, 9.064461924698875400 ) ) ;
#130 = DIRECTION ( 'NONE',  ( 1.000000000000000000, 0.0000000000000000000, 0.0000000000000000000 ) ) ;
#131 = DIRECTION ( 'NONE',  ( -0.0000000000000000000, -0.0000000000000000000, 1.000000000000000000 ) ) ;
#132 = CARTESIAN_POINT ( 'NONE',  ( 0.0000000000000000000, 0.0000000000000000000, 1.498042146998600500 ) ) ;
#133 = UNCERTAINTY_MEASURE_WITH_UNIT (LENGTH_MEASURE( 1.000000000000000100E-005 ), #104, 'distance_accuracy_value', 'NONE');
#134 =( NAMED_UNIT ( * ) SI_UNIT ( $, .STERADIAN. ) SOLID_ANGLE_UNIT ( ) );
#135 =( LENGTH_UNIT ( ) NAMED_UNIT ( * ) SI_UNIT ( .MILLI., .METRE. ) );
#136 = MECHANICAL_DESIGN_GEOMETRIC_PRESENTATION_REPRESENTATION (  '', ( #138 ), #14 ) ;
#137 = PRESENTATION_LAYER_ASSIGNMENT (  '', '', ( #138 ) ) ;
#138 = STYLED_ITEM ( 'NONE', ( #139 ), #43 ) ;
#139 = PRESENTATION_STYLE_ASSIGNMENT (( #140 ) ) ;
#140 = SURFACE_STYLE_USAGE ( .BOTH. , #164 ) ;
#141 = FILL_AREA_STYLE ('',( #142 ) ) ;
#142 = FILL_AREA_STYLE_COLOUR ( '', #143 ) ;
#143 = COLOUR_RGB ( '',0.9568627450980391500, 0.9490196078431372100, 0.9607843137254902200 ) ;
#144 = AXIS2_PLACEMENT_3D ( 'NONE', #132, #131, #130 ) ;
#145 = CIRCLE ( 'NONE', #144, 12.70000000000000100 ) ;
#146 = CARTESIAN_POINT ( 'NONE',  ( 0.0000000000000000000, 0.0000000000000000000, 1.498042146998600500 ) ) ;
#147 = UNCERTAINTY_MEASURE_WITH_UNIT (LENGTH_MEASURE( 1.000000000000000100E-005 ), #124, 'distance_accuracy_value', 'NONE');
#148 = CIRCLE ( 'NONE', #108, 12.70000000000000100 ) ;
#149 = FACE_OUTER_BOUND ( 'NONE', #64, .T. ) ;
#150 = PRESENTATION_STYLE_ASSIGNMENT (( #151 ) ) ;
#151 = SURFACE_STYLE_USAGE ( .BOTH. , #152 ) ;
#152 = SURFACE_SIDE_STYLE ('',( #153 ) ) ;
#153 = SURFACE_STYLE_FILL_AREA ( #141 ) ;
#154 = DIRECTION ( 'NONE',  ( -1.224606353822377300E-016, -1.000000000000000000, 0.0000000000000000000 ) ) ;
#155 = DIRECTION ( 'NONE',  ( -1.000000000000000000, 1.224606353822377300E-016, 0.0000000000000000000 ) ) ;
#156 = CARTESIAN_POINT ( 'NONE',  ( 0.0000000000000000000, 0.0000000000000000000, -254.5306418301421700 ) ) ;
#157 = AXIS2_PLACEMENT_3D ( 'NONE', #181, #180, #114 ) ;
#158 =( GEOMETRIC_REPRESENTATION_CONTEXT ( 3 ) GLOBAL_UNCERTAINTY_ASSIGNED_CONTEXT ( ( #147 ) ) GLOBAL_UNIT_ASSIGNED_CONTEXT ( ( #124, #116, #115 ) ) REPRESENTATION_CONTEXT ( 'NONE', 'WORKASPACE' ) );
#159 = DIRECTION ( 'NONE',  ( 1.000000000000000000, 0.0000000000000000000, 0.0000000000000000000 ) ) ;
#160 = DIRECTION ( 'NONE',  ( -0.0000000000000000000, -0.0000000000000000000, 1.000000000000000000 ) ) ;
#161 = CARTESIAN_POINT ( 'NONE',  ( -12.70000000000000100, 1.555250069354419300E-015, -1.659358169857821900 ) ) ;
#162 = DIRECTION ( 'NONE',  ( 1.000000000000000000, 0.0000000000000000000, 0.0000000000000000000 ) ) ;
#163 = DIRECTION ( 'NONE',  ( -0.0000000000000000000, -0.0000000000000000000, 1.000000000000000000 ) ) ;
#164 = SURFACE_SIDE_STYLE ('',( #165 ) ) ;
#165 = SURFACE_STYLE_FILL_AREA ( #166 ) ;
#166 = FILL_AREA_STYLE ('',( #173 ) ) ;
#167 = COLOUR_RGB ( '',0.9568627450980391500, 0.9490196078431372100, 0.9607843137254902200 ) ;
#168 = FACE_OUTER_BOUND ( 'NONE', #44, .T. ) ;
#169 = DIRECTION ( 'NONE',  ( 1.000000000000000000, 0.0000000000000000000, 0.0000000000000000000 ) ) ;
#170 = DIRECTION ( 'NONE',  ( -0.0000000000000000000, -0.0000000000000000000, 1.000000000000000000 ) ) ;
#171 = AXIS2_PLACEMENT_3D ( 'NONE', #172, #170, #169 ) ;
#172 = CARTESIAN_POINT ( 'NONE',  ( 0.0000000000000000000, 0.0000000000000000000, -1.659358169857821900 ) ) ;
#173 = FILL_AREA_STYLE_COLOUR ( '', #167 ) ;
#174 = DIRECTION ( 'NONE',  ( 0.0000000000000000000, 1.000000000000000000, 0.0000000000000000000 ) ) ;
#175 = DIRECTION ( 'NONE',  ( -1.000000000000000000, 0.0000000000000000000, 0.0000000000000000000 ) ) ;
#176 = CARTESIAN_POINT ( 'NONE',  ( -1.555250069354439400E-015, -12.70000000000016400, 1.498042146998606700 ) ) ;
#177 = CARTESIAN_POINT ( 'NONE',  ( 0.0000000000000000000, 12.69999999999989300, -1.659358169857835900 ) ) ;
#178 = CARTESIAN_POINT ( 'NONE',  ( -1.555250069354406100E-015, -12.69999999999989300, -1.659358169857835900 ) ) ;
#179 = SPHERICAL_SURFACE ( 'NONE', #157, 500.0000000000000000 ) ;
#180 = DIRECTION ( 'NONE',  ( -1.000000000000000000, 0.0000000000000000000, 0.0000000000000000000 ) ) ;
#181 = CARTESIAN_POINT ( 'NONE',  ( 0.0000000000000000000, 0.0000000000000000000, -498.3406418301421500 ) ) ;
#182 = COLOUR_RGB ( '',0.9568627450980391500, 0.9490196078431372100, 0.9607843137254902200 ) ;
#183 = FACE_OUTER_BOUND ( 'NONE', #47, .T. ) ;
#184 = CYLINDRICAL_SURFACE ( 'NONE', #119, 12.70000000000000100 ) ;
#185 = CARTESIAN_POINT ( 'NONE',  ( 0.0000000000000000000, 0.0000000000000000000, -1.659358169857821900 ) ) ;
#186 = AXIS2_PLACEMENT_3D ( 'NONE', #185, #191, #228 ) ;
#187 = UNCERTAINTY_MEASURE_WITH_UNIT (LENGTH_MEASURE( 1.000000000000000100E-005 ), #229, 'distance_accuracy_value', 'NONE');
#188 =( NAMED_UNIT ( * ) SI_UNIT ( $, .STERADIAN. ) SOLID_ANGLE_UNIT ( ) );
#189 = DIRECTION ( 'NONE',  ( -1.000000000000000000, 0.0000000000000000000, 0.0000000000000000000 ) ) ;
#190 = CARTESIAN_POINT ( 'NONE',  ( 0.0000000000000000000, 0.0000000000000000000, -498.3406418301421500 ) ) ;
#191 = DIRECTION ( 'NONE',  ( -0.0000000000000000000, -0.0000000000000000000, 1.000000000000000000 ) ) ;
#192 = DIRECTION ( 'NONE',  ( 1.000000000000000000, 0.0000000000000000000, 0.0000000000000000000 ) ) ;
#193 = DIRECTION ( 'NONE',  ( -0.0000000000000000000, -0.0000000000000000000, 1.000000000000000000 ) ) ;
#194 = CARTESIAN_POINT ( 'NONE',  ( 0.0000000000000000000, 0.0000000000000000000, -1.659358169857821900 ) ) ;
#195 = AXIS2_PLACEMENT_3D ( 'NONE', #194, #193, #192 ) ;
#196 = CIRCLE ( 'NONE', #207, 500.0000000000000000 ) ;
#197 = CIRCLE ( 'NONE', #195, 12.70000000000000100 ) ;
#198 = SPHERICAL_SURFACE ( 'NONE', #208, 500.0000000000000000 ) ;
#199 = CARTESIAN_POINT ( 'NONE',  ( 12.70000000000000100, 0.0000000000000000000, -1.659358169857821900 ) ) ;
#200 = CIRCLE ( 'NONE', #186, 12.70000000000000100 ) ;
#201 = SURFACE_SIDE_STYLE ('',( #202 ) ) ;
#202 = SURFACE_STYLE_FILL_AREA ( #203 ) ;
#203 = FILL_AREA_STYLE ('',( #232 ) ) ;
#204 = DIRECTION ( 'NONE',  ( -0.0000000000000000000, -0.0000000000000000000, 1.000000000000000000 ) ) ;
#205 = VECTOR ( 'NONE', #204, 1000.000000000000000 ) ;
#206 = CARTESIAN_POINT ( 'NONE',  ( 12.70000000000000100, 0.0000000000000000000, 9.064461924698875400 ) ) ;
#207 = AXIS2_PLACEMENT_3D ( 'NONE', #225, #224, #223 ) ;
#208 = AXIS2_PLACEMENT_3D ( 'NONE', #190, #189, #226 ) ;
#209 = DIRECTION ( 'NONE',  ( 1.000000000000000000, 0.0000000000000000000, 0.0000000000000000000 ) ) ;
#210 = DIRECTION ( 'NONE',  ( -0.0000000000000000000, -0.0000000000000000000, 1.000000000000000000 ) ) ;
#211 = CARTESIAN_POINT ( 'NONE',  ( 0.0000000000000000000, 0.0000000000000000000, -1.659358169857821900 ) ) ;
#212 = AXIS2_PLACEMENT_3D ( 'NONE', #211, #210, #209 ) ;
#213 = CIRCLE ( 'NONE', #212, 12.70000000000000100 ) ;
#214 = CARTESIAN_POINT ( 'NONE',  ( 12.70000000000000100, 0.0000000000000000000, 1.498042146998600500 ) ) ;
#215 = CARTESIAN_POINT ( 'NONE',  ( 0.0000000000000000000, 12.70000000000016400, 1.498042146998606700 ) ) ;
#216 = CARTESIAN_POINT ( 'NONE',  ( 0.0000000000000000000, 1.550290413621438400E-014, -1.340641830142208500 ) ) ;
#217 = CARTESIAN_POINT ( 'NONE',  ( -12.70000000000000100, 1.555250069354419300E-015, 1.498042146998600500 ) ) ;
#218 = DIRECTION ( 'NONE',  ( 1.000000000000000000, 0.0000000000000000000, 0.0000000000000000000 ) ) ;
#219 = DIRECTION ( 'NONE',  ( -0.0000000000000000000, -0.0000000000000000000, 1.000000000000000000 ) ) ;
#220 = CARTESIAN_POINT ( 'NONE',  ( 0.0000000000000000000, 0.0000000000000000000, 1.498042146998600500 ) ) ;
#221 = AXIS2_PLACEMENT_3D ( 'NONE', #220, #219, #218 ) ;
#222 = CIRCLE ( 'NONE', #221, 12.70000000000000100 ) ;
#223 = DIRECTION ( 'NONE',  ( 0.0000000000000000000, 0.0000000000000000000, -1.000000000000000000 ) ) ;
#224 = DIRECTION ( 'NONE',  ( 1.000000000000000000, 0.0000000000000000000, 0.0000000000000000000 ) ) ;
#225 = CARTESIAN_POINT ( 'NONE',  ( 0.0000000000000000000, 0.0000000000000000000, -498.3406418301421500 ) ) ;
#226 = DIRECTION ( 'NONE',  ( 0.0000000000000000000, 1.000000000000000000, 0.0000000000000000000 ) ) ;
#227 =( NAMED_UNIT ( * ) PLANE_ANGLE_UNIT ( ) SI_UNIT ( $, .RADIAN. ) );
#228 = DIRECTION ( 'NONE',  ( 1.000000000000000000, 0.0000000000000000000, 0.0000000000000000000 ) ) ;
#229 =( LENGTH_UNIT ( ) NAMED_UNIT ( * ) SI_UNIT ( .MILLI., .METRE. ) );
#230 = MECHANICAL_DESIGN_GEOMETRIC_PRESENTATION_REPRESENTATION (  '', ( #237 ), #233 ) ;
#231 = LINE ( 'NONE', #206, #205 ) ;
#232 = FILL_AREA_STYLE_COLOUR ( '', #234 ) ;
#233 =( GEOMETRIC_REPRESENTATION_CONTEXT ( 3 ) GLOBAL_UNCERTAINTY_ASSIGNED_CONTEXT ( ( #187 ) ) GLOBAL_UNIT_ASSIGNED_CONTEXT ( ( #229, #227, #188 ) ) REPRESENTATION_CONTEXT ( 'NONE', 'WORKASPACE' ) );
#234 = COLOUR_RGB ( '',0.9568627450980391500, 0.9490196078431372100, 0.9607843137254902200 ) ;
#235 = FACE_OUTER_BOUND ( 'NONE', #35, .T. ) ;
#236 = PRESENTATION_LAYER_ASSIGNMENT (  '', '', ( #237 ) ) ;
#237 = STYLED_ITEM ( 'NONE', ( #238 ), #65 ) ;
#238 = PRESENTATION_STYLE_ASSIGNMENT (( #239 ) ) ;
#239 = SURFACE_STYLE_USAGE ( .BOTH. , #201 ) ;
#240 = DIRECTION ( 'NONE',  ( 1.000000000000000000, 0.0000000000000000000, 0.0000000000000000000 ) ) ;
#241 = DIRECTION ( 'NONE',  ( 0.0000000000000000000, 1.000000000000000000, 0.0000000000000000000 ) ) ;
#242 = CARTESIAN_POINT ( 'NONE',  ( 0.0000000000000000000, 0.0000000000000000000, 9.064461924698875400 ) ) ;
#243 = AXIS2_PLACEMENT_3D ( 'NONE', #242, #270, #240 ) ;
#244 = PRESENTATION_LAYER_ASSIGNMENT (  '', '', ( #245 ) ) ;
#245 = STYLED_ITEM ( 'NONE', ( #274 ), #81 ) ;
#246 = MECHANICAL_DESIGN_GEOMETRIC_PRESENTATION_REPRESENTATION (  '', ( #245 ), #250 ) ;
#247 =( NAMED_UNIT ( * ) PLANE_ANGLE_UNIT ( ) SI_UNIT ( $, .RADIAN. ) );
#248 = LINE ( 'NONE', #273, #272 ) ;
#249 = FILL_AREA_STYLE_COLOUR ( '', #263 ) ;
#250 =( GEOMETRIC_REPRESENTATION_CONTEXT ( 3 ) GLOBAL_UNCERTAINTY_ASSIGNED_CONTEXT ( ( #260 ) ) GLOBAL_UNIT_ASSIGNED_CONTEXT ( ( #271, #247, #294 ) ) REPRESENTATION_CONTEXT ( 'NONE', 'WORKASPACE' ) );
#251 =( NAMED_UNIT ( * ) PLANE_ANGLE_UNIT ( ) SI_UNIT ( $, .RADIAN. ) );
#252 = FACE_OUTER_BOUND ( 'NONE', #79, .T. ) ;
#253 = DIRECTION ( 'NONE',  ( -0.0000000000000000000, -0.0000000000000000000, 1.000000000000000000 ) ) ;
#254 = AXIS2_PLACEMENT_3D ( 'NONE', #258, #257, #283 ) ;
#255 = DIRECTION ( 'NONE',  ( -1.000000000000000000, 0.0000000000000000000, 0.0000000000000000000 ) ) ;
#256 = AXIS2_PLACEMENT_3D ( 'NONE', #282, #255, #241 ) ;
#257 = DIRECTION ( 'NONE',  ( 1.000000000000000000, -0.0000000000000000000, 0.0000000000000000000 ) ) ;
#258 = CARTESIAN_POINT ( 'NONE',  ( 0.0000000000000000000, 0.0000000000000000000, -254.5306418301421700 ) ) ;
#259 = SPHERICAL_SURFACE ( 'NONE', #256, 253.1899999999999700 ) ;
#260 = UNCERTAINTY_MEASURE_WITH_UNIT (LENGTH_MEASURE( 1.000000000000000100E-005 ), #271, 'distance_accuracy_value', 'NONE');
#261 = CYLINDRICAL_SURFACE ( 'NONE', #243, 12.70000000000000100 ) ;
#262 = FILL_AREA_STYLE ('',( #249 ) ) ;
#263 = COLOUR_RGB ( '',0.9568627450980391500, 0.9490196078431372100, 0.9607843137254902200 ) ;
#264 = SURFACE_SIDE_STYLE ('',( #265 ) ) ;
#265 = SURFACE_STYLE_FILL_AREA ( #266 ) ;
#266 = FILL_AREA_STYLE ('',( #287 ) ) ;
#267 = COLOUR_RGB ( '',0.7960784313725489700, 0.8235294117647058400, 0.9372549019607843100 ) ;
#268 = DIRECTION ( 'NONE',  ( 1.000000000000000000, 0.0000000000000000000, 0.0000000000000000000 ) ) ;
#269 = DIRECTION ( 'NONE',  ( -0.0000000000000000000, -0.0000000000000000000, 1.000000000000000000 ) ) ;
#270 = DIRECTION ( 'NONE',  ( -0.0000000000000000000, -0.0000000000000000000, 1.000000000000000000 ) ) ;
#271 =( LENGTH_UNIT ( ) NAMED_UNIT ( * ) SI_UNIT ( .MILLI., .METRE. ) );
#272 = VECTOR ( 'NONE', #253, 1000.000000000000000 ) ;
#273 = CARTESIAN_POINT ( 'NONE',  ( -12.70000000000000100, 1.555250069354419300E-015, 9.064461924698875400 ) ) ;
#274 = PRESENTATION_STYLE_ASSIGNMENT (( #275 ) ) ;
#275 = SURFACE_STYLE_USAGE ( .BOTH. , #279 ) ;
#276 = UNCERTAINTY_MEASURE_WITH_UNIT (LENGTH_MEASURE( 1.000000000000000100E-005 ), #288, 'distance_accuracy_value', 'NONE');
#277 =( NAMED_UNIT ( * ) SI_UNIT ( $, .STERADIAN. ) SOLID_ANGLE_UNIT ( ) );
#278 = CIRCLE ( 'NONE', #254, 253.1899999999999100 ) ;
#279 = SURFACE_SIDE_STYLE ('',( #280 ) ) ;
#280 = SURFACE_STYLE_FILL_AREA ( #262 ) ;
#281 =( GEOMETRIC_REPRESENTATION_CONTEXT ( 3 ) GLOBAL_UNCERTAINTY_ASSIGNED_CONTEXT ( ( #276 ) ) GLOBAL_UNIT_ASSIGNED_CONTEXT ( ( #288, #251, #277 ) ) REPRESENTATION_CONTEXT ( 'NONE', 'WORKASPACE' ) );
#282 = CARTESIAN_POINT ( 'NONE',  ( 0.0000000000000000000, 0.0000000000000000000, -254.5306418301421700 ) ) ;
#283 = DIRECTION ( 'NONE',  ( 0.0000000000000000000, 0.0000000000000000000, -1.000000000000000000 ) ) ;
#284 = CARTESIAN_POINT ( 'NONE',  ( 0.0000000000000000000, 0.0000000000000000000, 1.498042146998600500 ) ) ;
#285 = AXIS2_PLACEMENT_3D ( 'NONE', #284, #269, #268 ) ;
#286 = CIRCLE ( 'NONE', #285, 12.70000000000000100 ) ;
#287 = FILL_AREA_STYLE_COLOUR ( '', #267 ) ;
#288 =( LENGTH_UNIT ( ) NAMED_UNIT ( * ) SI_UNIT ( .MILLI., .METRE. ) );
#289 = MECHANICAL_DESIGN_GEOMETRIC_PRESENTATION_REPRESENTATION (  '', ( #291 ), #281 ) ;
#290 = PRESENTATION_LAYER_ASSIGNMENT (  '', '', ( #291 ) ) ;
#291 = STYLED_ITEM ( 'NONE', ( #292 ), #83 ) ;
#292 = PRESENTATION_STYLE_ASSIGNMENT (( #293 ) ) ;
#293 = SURFACE_STYLE_USAGE ( .BOTH. , #264 ) ;
#294 =( NAMED_UNIT ( * ) SI_UNIT ( $, .STERADIAN. ) SOLID_ANGLE_UNIT ( ) );
#295 =( NAMED_UNIT ( * ) PLANE_ANGLE_UNIT ( ) SI_UNIT ( $, .RADIAN. ) );
#296 = UNCERTAINTY_MEASURE_WITH_UNIT (LENGTH_MEASURE( 1.000000000000000100E-005 ), #314, 'distance_accuracy_value', 'NONE');
#297 = MECHANICAL_DESIGN_GEOMETRIC_PRESENTATION_REPRESENTATION (  '', ( #299 ), #302 ) ;
#298 = PRESENTATION_LAYER_ASSIGNMENT (  '', '', ( #299 ) ) ;
#299 = STYLED_ITEM ( 'NONE', ( #300 ), #311 ) ;
#300 = PRESENTATION_STYLE_ASSIGNMENT (( #318 ) ) ;
#301 =( LENGTH_UNIT ( ) NAMED_UNIT ( * ) SI_UNIT ( .MILLI., .METRE. ) );
#302 =( GEOMETRIC_REPRESENTATION_CONTEXT ( 3 ) GLOBAL_UNCERTAINTY_ASSIGNED_CONTEXT ( ( #303 ) ) GLOBAL_UNIT_ASSIGNED_CONTEXT ( ( #301, #295, #308 ) ) REPRESENTATION_CONTEXT ( 'NONE', 'WORKASPACE' ) );
#303 = UNCERTAINTY_MEASURE_WITH_UNIT (LENGTH_MEASURE( 1.000000000000000100E-005 ), #301, 'distance_accuracy_value', 'NONE');
#304 = CARTESIAN_POINT ( 'NONE',  ( 0.0000000000000000000, 3.061515884555943100E-014, 1.659358169857849700 ) ) ;
#305 =( NAMED_UNIT ( * ) PLANE_ANGLE_UNIT ( ) SI_UNIT ( $, .RADIAN. ) );
#306 = COLOUR_RGB ( '',0.7960784313725489700, 0.8235294117647058400, 0.9372549019607843100 ) ;
#307 = PRODUCT_DEFINITION_SHAPE ( 'NONE', 'NONE',  #21 ) ;
#308 =( NAMED_UNIT ( * ) SI_UNIT ( $, .STERADIAN. ) SOLID_ANGLE_UNIT ( ) );
#309 = CARTESIAN_POINT ( 'NONE',  ( 0.0000000000000000000, 0.0000000000000000000, 0.0000000000000000000 ) ) ;
#310 =( GEOMETRIC_REPRESENTATION_CONTEXT ( 3 ) GLOBAL_UNCERTAINTY_ASSIGNED_CONTEXT ( ( #296 ) ) GLOBAL_UNIT_ASSIGNED_CONTEXT ( ( #314, #305, #313 ) ) REPRESENTATION_CONTEXT ( 'NONE', 'WORKASPACE' ) );
#311 = ADVANCED_BREP_SHAPE_REPRESENTATION ( '4895-E0W', ( #83, #315 ), #310 ) ;
#312 = DIRECTION ( 'NONE',  ( 1.000000000000000000, 0.0000000000000000000, 0.0000000000000000000 ) ) ;
#313 =( NAMED_UNIT ( * ) SI_UNIT ( $, .STERADIAN. ) SOLID_ANGLE_UNIT ( ) );
#314 =( LENGTH_UNIT ( ) NAMED_UNIT ( * ) SI_UNIT ( .MILLI., .METRE. ) );
#315 = AXIS2_PLACEMENT_3D ( 'NONE', #309, #316, #312 ) ;
#316 = DIRECTION ( 'NONE',  ( 0.0000000000000000000, 0.0000000000000000000, 1.000000000000000000 ) ) ;
#317 = SHAPE_DEFINITION_REPRESENTATION ( #307, #311 ) ;
#318 = SURFACE_STYLE_USAGE ( .BOTH. , #319 ) ;
#319 = SURFACE_SIDE_STYLE ('',( #320 ) ) ;
#320 = SURFACE_STYLE_FILL_AREA ( #321 ) ;
#321 = FILL_AREA_STYLE ('',( #322 ) ) ;
#322 = FILL_AREA_STYLE_COLOUR ( '', #306 ) ;
ENDSEC;
END-ISO-10303-21;
