ISO-10303-21;
HEADER;
FILE_DESCRIPTION (( 'STEP AP203' ),
    '1' );
FILE_NAME ('Web Model 43890_83372.step',
    '2019-01-28T19:03:32',
    ( '' ),
    ( '' ),
    'SwSTEP 2.0',
    'SolidWorks 2016',
    '' );
FILE_SCHEMA (( 'CONFIG_CONTROL_DESIGN' ));
ENDSEC;

DATA;
#1 = EDGE_CURVE ( 'NONE', #174, #139, #87, .T. ) ;
#2 = SECURITY_CLASSIFICATION ( '', '', #16 ) ;
#3 = APPROVAL_DATE_TIME ( #49, #61 ) ;
#4 = COORDINATED_UNIVERSAL_TIME_OFFSET ( 5, 0, .BEHIND. ) ;
#5 = PERSON_AND_ORGANIZATION ( #33, #73 ) ;
#6 = EDGE_CURVE ( 'NONE', #158, #174, #14, .T. ) ;
#7 = ADVANCED_BREP_SHAPE_REPRESENTATION ( 'Web Model 43890_83372', ( #165, #121 ), #12 ) ;
#8 = CYLINDRICAL_SURFACE ( 'NONE', #89, 6.250000000000000000 ) ;
#9 = ORIENTED_EDGE ( 'NONE', *, *, #99, .T. ) ;
#10 = CARTESIAN_POINT ( 'NONE',  ( 0.0000000000000000000, 0.0000000000000000000, 0.8750000000000000000 ) ) ;
#11 = PERSON_AND_ORGANIZATION ( #33, #73 ) ;
#12 =( GEOMETRIC_REPRESENTATION_CONTEXT ( 3 ) GLOBAL_UNCERTAINTY_ASSIGNED_CONTEXT ( ( #71 ) ) GLOBAL_UNIT_ASSIGNED_CONTEXT ( ( #74, #124, #48 ) ) REPRESENTATION_CONTEXT ( 'NONE', 'WORKASPACE' ) );
#13 = DIRECTION ( 'NONE',  ( 1.000000000000000000, 0.0000000000000000000, 0.0000000000000000000 ) ) ;
#14 = CIRCLE ( 'NONE', #45, 6.250000000000000000 ) ;
#15 = APPROVAL_STATUS ( 'not_yet_approved' ) ;
#16 = SECURITY_CLASSIFICATION_LEVEL ( 'unclassified' ) ;
#17 = PERSON_AND_ORGANIZATION_ROLE ( 'design_supplier' ) ;
#18 = DATE_AND_TIME ( #162, #132 ) ;
#19 = DATE_AND_TIME ( #27, #39 ) ;
#20 = PERSON_AND_ORGANIZATION ( #33, #73 ) ;
#21 = CIRCLE ( 'NONE', #58, 6.250000000000000000 ) ;
#22 = EDGE_LOOP ( 'NONE', ( #130, #70, #9, #143 ) ) ;
#23 = CC_DESIGN_DATE_AND_TIME_ASSIGNMENT ( #19, #170, ( #82 ) ) ;
#24 = EDGE_CURVE ( 'NONE', #139, #41, #21, .T. ) ;
#25 = LOCAL_TIME ( 14, 3, 32.00000000000000000, #126 ) ;
#26 = ORIENTED_EDGE ( 'NONE', *, *, #113, .F. ) ;
#27 = CALENDAR_DATE ( 2019, 28, 1 ) ;
#28 = DIRECTION ( 'NONE',  ( 1.000000000000000000, 0.0000000000000000000, 0.0000000000000000000 ) ) ;
#29 = CIRCLE ( 'NONE', #116, 6.250000000000000000 ) ;
#30 = DIRECTION ( 'NONE',  ( -0.0000000000000000000, -0.0000000000000000000, -1.000000000000000000 ) ) ;
#31 = CC_DESIGN_DATE_AND_TIME_ASSIGNMENT ( #35, #32, ( #2 ) ) ;
#32 = DATE_TIME_ROLE ( 'classification_date' ) ;
#33 = PERSON ( 'UNSPECIFIED', 'UNSPECIFIED', 'UNSPECIFIED', ('UNSPECIFIED'), ('UNSPECIFIED'), ('UNSPECIFIED') ) ;
#34 = DIRECTION ( 'NONE',  ( -0.0000000000000000000, -0.0000000000000000000, -1.000000000000000000 ) ) ;
#35 = DATE_AND_TIME ( #128, #105 ) ;
#36 = DIRECTION ( 'NONE',  ( 0.0000000000000000000, 0.0000000000000000000, 1.000000000000000000 ) ) ;
#37 = APPROVAL_ROLE ( '' ) ;
#38 = CC_DESIGN_PERSON_AND_ORGANIZATION_ASSIGNMENT ( #11, #17, ( #111 ) ) ;
#39 = LOCAL_TIME ( 14, 3, 32.00000000000000000, #149 ) ;
#40 = PERSON_AND_ORGANIZATION ( #33, #73 ) ;
#41 = VERTEX_POINT ( 'NONE', #83 ) ;
#42 = CC_DESIGN_APPROVAL ( #61, ( #82 ) ) ;
#43 = COORDINATED_UNIVERSAL_TIME_OFFSET ( 5, 0, .BEHIND. ) ;
#44 = DIRECTION ( 'NONE',  ( 0.0000000000000000000, 0.0000000000000000000, 1.000000000000000000 ) ) ;
#45 = AXIS2_PLACEMENT_3D ( 'NONE', #10, #44, #28 ) ;
#46 = APPROVAL_STATUS ( 'not_yet_approved' ) ;
#47 = CC_DESIGN_SECURITY_CLASSIFICATION ( #2, ( #111 ) ) ;
#48 =( NAMED_UNIT ( * ) SI_UNIT ( $, .STERADIAN. ) SOLID_ANGLE_UNIT ( ) );
#49 = DATE_AND_TIME ( #69, #133 ) ;
#50 = PLANE ( 'NONE',  #112 ) ;
#51 = CYLINDRICAL_SURFACE ( 'NONE', #129, 6.250000000000000000 ) ;
#52 = DIRECTION ( 'NONE',  ( -0.0000000000000000000, -0.0000000000000000000, -1.000000000000000000 ) ) ;
#53 = CARTESIAN_POINT ( 'NONE',  ( 0.0000000000000000000, 0.0000000000000000000, -0.8750000000000000000 ) ) ;
#54 = ADVANCED_FACE ( 'NONE', ( #134 ), #8, .T. ) ;
#55 = ADVANCED_FACE ( 'NONE', ( #148 ), #50, .F. ) ;
#56 = APPROVAL_PERSON_ORGANIZATION ( #77, #61, #160 ) ;
#57 = PERSON_AND_ORGANIZATION ( #33, #73 ) ;
#58 = AXIS2_PLACEMENT_3D ( 'NONE', #53, #173, #62 ) ;
#59 = APPROVAL_DATE_TIME ( #18, #168 ) ;
#60 = ORIENTED_EDGE ( 'NONE', *, *, #79, .T. ) ;
#61 = APPROVAL ( #15, 'UNSPECIFIED' ) ;
#62 = DIRECTION ( 'NONE',  ( 1.000000000000000000, 0.0000000000000000000, 0.0000000000000000000 ) ) ;
#63 = EDGE_LOOP ( 'NONE', ( #26, #102 ) ) ;
#64 = CARTESIAN_POINT ( 'NONE',  ( 0.0000000000000000000, 0.0000000000000000000, 0.0000000000000000000 ) ) ;
#65 = PLANE ( 'NONE',  #141 ) ;
#66 = PERSON_AND_ORGANIZATION ( #33, #73 ) ;
#67 = ORIENTED_EDGE ( 'NONE', *, *, #1, .T. ) ;
#68 = CC_DESIGN_PERSON_AND_ORGANIZATION_ASSIGNMENT ( #40, #122, ( #151 ) ) ;
#69 = CALENDAR_DATE ( 2019, 28, 1 ) ;
#70 = ORIENTED_EDGE ( 'NONE', *, *, #6, .F. ) ;
#71 = UNCERTAINTY_MEASURE_WITH_UNIT (LENGTH_MEASURE( 1.000000000000000100E-005 ), #74, 'distance_accuracy_value', 'NONE');
#72 = VECTOR ( 'NONE', #169, 1000.000000000000000 ) ;
#73 = ORGANIZATION ( 'UNSPECIFIED', 'UNSPECIFIED', '' ) ;
#74 =( LENGTH_UNIT ( ) NAMED_UNIT ( * ) SI_UNIT ( .MILLI., .METRE. ) );
#75 = DIRECTION ( 'NONE',  ( -1.000000000000000000, 0.0000000000000000000, 0.0000000000000000000 ) ) ;
#76 = CARTESIAN_POINT ( 'NONE',  ( 0.0000000000000000000, 0.0000000000000000000, -0.8750000000000000000 ) ) ;
#77 = PERSON_AND_ORGANIZATION ( #33, #73 ) ;
#78 = DIRECTION ( 'NONE',  ( 1.000000000000000000, 0.0000000000000000000, -0.0000000000000000000 ) ) ;
#79 = EDGE_CURVE ( 'NONE', #174, #158, #153, .T. ) ;
#80 = ADVANCED_FACE ( 'NONE', ( #127 ), #51, .T. ) ;
#81 = PERSON_AND_ORGANIZATION ( #33, #73 ) ;
#82 = PRODUCT_DEFINITION ( 'UNKNOWN', '', #111, #91 ) ;
#83 = CARTESIAN_POINT ( 'NONE',  ( -6.250000000000000000, 0.0000000000000000000, -0.8750000000000000000 ) ) ;
#84 = CARTESIAN_POINT ( 'NONE',  ( 0.0000000000000000000, 0.0000000000000000000, 0.8750000000000000000 ) ) ;
#85 = CARTESIAN_POINT ( 'NONE',  ( -6.250000000000000000, 0.0000000000000000000, 0.8750000000000000000 ) ) ;
#86 = CARTESIAN_POINT ( 'NONE',  ( 0.0000000000000000000, 0.0000000000000000000, 0.8750000000000000000 ) ) ;
#87 = LINE ( 'NONE', #106, #72 ) ;
#88 = CC_DESIGN_APPROVAL ( #168, ( #111 ) ) ;
#89 = AXIS2_PLACEMENT_3D ( 'NONE', #154, #30, #75 ) ;
#90 = VECTOR ( 'NONE', #34, 1000.000000000000000 ) ;
#91 = DESIGN_CONTEXT ( 'detailed design', #95, 'design' ) ;
#92 = ORIENTED_EDGE ( 'NONE', *, *, #24, .T. ) ;
#93 = CC_DESIGN_APPROVAL ( #131, ( #2 ) ) ;
#94 = DIRECTION ( 'NONE',  ( 0.0000000000000000000, 0.0000000000000000000, 1.000000000000000000 ) ) ;
#95 = APPLICATION_CONTEXT ( 'configuration controlled 3d designs of mechanical parts and assemblies' ) ;
#96 = PERSON_AND_ORGANIZATION_ROLE ( 'creator' ) ;
#97 = DIRECTION ( 'NONE',  ( 1.000000000000000000, 0.0000000000000000000, 0.0000000000000000000 ) ) ;
#98 = EDGE_LOOP ( 'NONE', ( #164, #60 ) ) ;
#99 = EDGE_CURVE ( 'NONE', #158, #41, #114, .T. ) ;
#100 = APPROVAL_PERSON_ORGANIZATION ( #57, #168, #37 ) ;
#101 = CC_DESIGN_PERSON_AND_ORGANIZATION_ASSIGNMENT ( #5, #156, ( #2 ) ) ;
#102 = ORIENTED_EDGE ( 'NONE', *, *, #24, .F. ) ;
#103 = PRODUCT_RELATED_PRODUCT_CATEGORY ( 'detail', '', ( #151 ) ) ;
#104 = AXIS2_PLACEMENT_3D ( 'NONE', #86, #94, #13 ) ;
#105 = LOCAL_TIME ( 14, 3, 32.00000000000000000, #161 ) ;
#106 = CARTESIAN_POINT ( 'NONE',  ( 6.250000000000000000, 7.654042494670957600E-016, 0.8750000000000000000 ) ) ;
#107 = PERSON_AND_ORGANIZATION_ROLE ( 'creator' ) ;
#108 = DIRECTION ( 'NONE',  ( -1.000000000000000000, 0.0000000000000000000, 0.0000000000000000000 ) ) ;
#109 = CARTESIAN_POINT ( 'NONE',  ( 0.0000000000000000000, 0.0000000000000000000, -0.8750000000000000000 ) ) ;
#110 = APPROVAL_STATUS ( 'not_yet_approved' ) ;
#111 = PRODUCT_DEFINITION_FORMATION_WITH_SPECIFIED_SOURCE ( 'ANY', '', #151, .NOT_KNOWN. ) ;
#112 = AXIS2_PLACEMENT_3D ( 'NONE', #76, #36, #171 ) ;
#113 = EDGE_CURVE ( 'NONE', #41, #139, #29, .T. ) ;
#114 = LINE ( 'NONE', #85, #90 ) ;
#115 = ORIENTED_EDGE ( 'NONE', *, *, #99, .F. ) ;
#116 = AXIS2_PLACEMENT_3D ( 'NONE', #109, #146, #157 ) ;
#117 = DATE_AND_TIME ( #167, #25 ) ;
#118 = CARTESIAN_POINT ( 'NONE',  ( -6.250000000000000000, 0.0000000000000000000, 0.8750000000000000000 ) ) ;
#119 = CARTESIAN_POINT ( 'NONE',  ( 6.250000000000000000, 7.654042494670957600E-016, -0.8750000000000000000 ) ) ;
#120 = SHAPE_DEFINITION_REPRESENTATION ( #142, #7 ) ;
#121 = AXIS2_PLACEMENT_3D ( 'NONE', #64, #144, #97 ) ;
#122 = PERSON_AND_ORGANIZATION_ROLE ( 'design_owner' ) ;
#123 = DIRECTION ( 'NONE',  ( 0.0000000000000000000, 0.0000000000000000000, 1.000000000000000000 ) ) ;
#124 =( NAMED_UNIT ( * ) PLANE_ANGLE_UNIT ( ) SI_UNIT ( $, .RADIAN. ) );
#125 = ORIENTED_EDGE ( 'NONE', *, *, #79, .F. ) ;
#126 = COORDINATED_UNIVERSAL_TIME_OFFSET ( 5, 0, .BEHIND. ) ;
#127 = FACE_OUTER_BOUND ( 'NONE', #150, .T. ) ;
#128 = CALENDAR_DATE ( 2019, 28, 1 ) ;
#129 = AXIS2_PLACEMENT_3D ( 'NONE', #84, #52, #108 ) ;
#130 = ORIENTED_EDGE ( 'NONE', *, *, #1, .F. ) ;
#131 = APPROVAL ( #46, 'UNSPECIFIED' ) ;
#132 = LOCAL_TIME ( 14, 3, 32.00000000000000000, #43 ) ;
#133 = LOCAL_TIME ( 14, 3, 32.00000000000000000, #4 ) ;
#134 = FACE_OUTER_BOUND ( 'NONE', #22, .T. ) ;
#135 = CC_DESIGN_PERSON_AND_ORGANIZATION_ASSIGNMENT ( #66, #107, ( #111 ) ) ;
#136 = APPROVAL_ROLE ( '' ) ;
#137 = APPLICATION_PROTOCOL_DEFINITION ( 'international standard', 'config_control_design', 1994, #172 ) ;
#138 = APPLICATION_PROTOCOL_DEFINITION ( 'international standard', 'config_control_design', 1994, #95 ) ;
#139 = VERTEX_POINT ( 'NONE', #119 ) ;
#140 = APPROVAL_DATE_TIME ( #117, #131 ) ;
#141 = AXIS2_PLACEMENT_3D ( 'NONE', #175, #123, #78 ) ;
#142 = PRODUCT_DEFINITION_SHAPE ( 'NONE', 'NONE',  #82 ) ;
#143 = ORIENTED_EDGE ( 'NONE', *, *, #113, .T. ) ;
#144 = DIRECTION ( 'NONE',  ( 0.0000000000000000000, 0.0000000000000000000, 1.000000000000000000 ) ) ;
#145 = FACE_OUTER_BOUND ( 'NONE', #98, .T. ) ;
#146 = DIRECTION ( 'NONE',  ( 0.0000000000000000000, 0.0000000000000000000, 1.000000000000000000 ) ) ;
#147 = CLOSED_SHELL ( 'NONE', ( #80, #54, #166, #55 ) ) ;
#148 = FACE_OUTER_BOUND ( 'NONE', #63, .T. ) ;
#149 = COORDINATED_UNIVERSAL_TIME_OFFSET ( 5, 0, .BEHIND. ) ;
#150 = EDGE_LOOP ( 'NONE', ( #125, #67, #92, #115 ) ) ;
#151 = PRODUCT ( 'Web Model 43890_83372', 'Web Model 43890_83372', '', ( #159 ) ) ;
#152 = APPROVAL_PERSON_ORGANIZATION ( #81, #131, #136 ) ;
#153 = CIRCLE ( 'NONE', #104, 6.250000000000000000 ) ;
#154 = CARTESIAN_POINT ( 'NONE',  ( 0.0000000000000000000, 0.0000000000000000000, 0.8750000000000000000 ) ) ;
#155 = CC_DESIGN_PERSON_AND_ORGANIZATION_ASSIGNMENT ( #20, #96, ( #82 ) ) ;
#156 = PERSON_AND_ORGANIZATION_ROLE ( 'classification_officer' ) ;
#157 = DIRECTION ( 'NONE',  ( 1.000000000000000000, 0.0000000000000000000, 0.0000000000000000000 ) ) ;
#158 = VERTEX_POINT ( 'NONE', #118 ) ;
#159 = MECHANICAL_CONTEXT ( 'NONE', #172, 'mechanical' ) ;
#160 = APPROVAL_ROLE ( '' ) ;
#161 = COORDINATED_UNIVERSAL_TIME_OFFSET ( 5, 0, .BEHIND. ) ;
#162 = CALENDAR_DATE ( 2019, 28, 1 ) ;
#163 = CARTESIAN_POINT ( 'NONE',  ( 6.250000000000000000, 7.654042494670957600E-016, 0.8750000000000000000 ) ) ;
#164 = ORIENTED_EDGE ( 'NONE', *, *, #6, .T. ) ;
#165 = MANIFOLD_SOLID_BREP ( 'Boss-Extrude1', #147 ) ;
#166 = ADVANCED_FACE ( 'NONE', ( #145 ), #65, .T. ) ;
#167 = CALENDAR_DATE ( 2019, 28, 1 ) ;
#168 = APPROVAL ( #110, 'UNSPECIFIED' ) ;
#169 = DIRECTION ( 'NONE',  ( -0.0000000000000000000, -0.0000000000000000000, -1.000000000000000000 ) ) ;
#170 = DATE_TIME_ROLE ( 'creation_date' ) ;
#171 = DIRECTION ( 'NONE',  ( 1.000000000000000000, 0.0000000000000000000, -0.0000000000000000000 ) ) ;
#172 = APPLICATION_CONTEXT ( 'configuration controlled 3d designs of mechanical parts and assemblies' ) ;
#173 = DIRECTION ( 'NONE',  ( 0.0000000000000000000, 0.0000000000000000000, 1.000000000000000000 ) ) ;
#174 = VERTEX_POINT ( 'NONE', #163 ) ;
#175 = CARTESIAN_POINT ( 'NONE',  ( 0.0000000000000000000, 0.0000000000000000000, 0.8750000000000000000 ) ) ;
ENDSEC;
END-ISO-10303-21;
