ISO-10303-21;
HEADER;
FILE_DESCRIPTION (( 'STEP AP203' ),
    '1' );
FILE_NAME ('Web Model 46459_15980.step',
    '2020-10-09T14:03:57',
    ( '' ),
    ( '' ),
    'SwSTEP 2.0',
    'SolidWorks 2018',
    '' );
FILE_SCHEMA (( 'CONFIG_CONTROL_DESIGN' ));
ENDSEC;

DATA;
#1 = VERTEX_POINT ( 'NONE', #183 ) ;
#2 = COORDINATED_UNIVERSAL_TIME_OFFSET ( 5, 0, .BEHIND. ) ;
#3 = DIRECTION ( 'NONE',  ( 0.0000000000000000000, -2.048885995248197414E-16, 1.000000000000000000 ) ) ;
#4 = CARTESIAN_POINT ( 'NONE',  ( -0.7500000000000000000, -12.70000000000000107, 12.70000000000000462 ) ) ;
#5 = LINE ( 'NONE', #172, #118 ) ;
#6 = EDGE_LOOP ( 'NONE', ( #104, #135, #159, #219 ) ) ;
#7 = CARTESIAN_POINT ( 'NONE',  ( 0.7500000000000000000, 12.69999999999999751, 12.69999999999999929 ) ) ;
#8 = ORIENTED_EDGE ( 'NONE', *, *, #60, .F. ) ;
#9 = CARTESIAN_POINT ( 'NONE',  ( -0.7500000000000000000, 12.69999999999999751, 12.69999999999999929 ) ) ;
#10 = PERSON_AND_ORGANIZATION ( #147, #91 ) ;
#11 = ORIENTED_EDGE ( 'NONE', *, *, #179, .T. ) ;
#12 = COORDINATED_UNIVERSAL_TIME_OFFSET ( 5, 0, .BEHIND. ) ;
#13 = CC_DESIGN_APPROVAL ( #116, ( #77 ) ) ;
#14 = ADVANCED_FACE ( 'NONE', ( #53 ), #87, .F. ) ;
#15 = AXIS2_PLACEMENT_3D ( 'NONE', #145, #144, #40 ) ;
#16 = ORIENTED_EDGE ( 'NONE', *, *, #179, .F. ) ;
#17 = DATE_AND_TIME ( #236, #26 ) ;
#18 = VECTOR ( 'NONE', #224, 1000.000000000000000 ) ;
#19 = DIRECTION ( 'NONE',  ( -0.0000000000000000000, 1.000000000000000000, 2.048885995248197414E-16 ) ) ;
#20 = CARTESIAN_POINT ( 'NONE',  ( 0.7500000000000000000, -12.70000000000000107, 12.70000000000000462 ) ) ;
#21 = LINE ( 'NONE', #201, #18 ) ;
#22 = EDGE_CURVE ( 'NONE', #207, #44, #196, .T. ) ;
#23 =( LENGTH_UNIT ( ) NAMED_UNIT ( * ) SI_UNIT ( .MILLI., .METRE. ) );
#24 = PLANE ( 'NONE',  #78 ) ;
#25 = APPROVAL_ROLE ( '' ) ;
#26 = LOCAL_TIME ( 10, 3, 57.00000000000000000, #216 ) ;
#27 = ORIENTED_EDGE ( 'NONE', *, *, #60, .T. ) ;
#28 = APPROVAL_DATE_TIME ( #142, #202 ) ;
#29 = APPROVAL_DATE_TIME ( #17, #62 ) ;
#30 = DATE_AND_TIME ( #110, #152 ) ;
#31 = VERTEX_POINT ( 'NONE', #85 ) ;
#32 = DIRECTION ( 'NONE',  ( 0.0000000000000000000, 0.0000000000000000000, -1.000000000000000000 ) ) ;
#33 = VECTOR ( 'NONE', #230, 1000.000000000000000 ) ;
#34 = CARTESIAN_POINT ( 'NONE',  ( 0.7500000000000000000, 12.69999999999999751, 12.69999999999999929 ) ) ;
#35 = PLANE ( 'NONE',  #227 ) ;
#36 = DATE_TIME_ROLE ( 'creation_date' ) ;
#37 = ORIENTED_EDGE ( 'NONE', *, *, #43, .F. ) ;
#38 = PERSON_AND_ORGANIZATION_ROLE ( 'design_owner' ) ;
#39 = EDGE_CURVE ( 'NONE', #1, #166, #173, .T. ) ;
#40 = DIRECTION ( 'NONE',  ( 1.000000000000000000, 0.0000000000000000000, 0.0000000000000000000 ) ) ;
#41 =( NAMED_UNIT ( * ) SI_UNIT ( $, .STERADIAN. ) SOLID_ANGLE_UNIT ( ) );
#42 = VECTOR ( 'NONE', #121, 1000.000000000000000 ) ;
#43 = EDGE_CURVE ( 'NONE', #150, #44, #21, .T. ) ;
#44 = VERTEX_POINT ( 'NONE', #83 ) ;
#45 = CALENDAR_DATE ( 2020, 9, 10 ) ;
#46 = EDGE_CURVE ( 'NONE', #1, #187, #73, .T. ) ;
#47 = FACE_OUTER_BOUND ( 'NONE', #195, .T. ) ;
#48 = DIRECTION ( 'NONE',  ( 0.0000000000000000000, -1.000000000000000000, -2.048885995248197414E-16 ) ) ;
#49 = DIRECTION ( 'NONE',  ( 0.0000000000000000000, -1.000000000000000000, 0.0000000000000000000 ) ) ;
#50 = DIRECTION ( 'NONE',  ( -1.000000000000000000, -0.0000000000000000000, -0.0000000000000000000 ) ) ;
#51 = DATE_AND_TIME ( #205, #58 ) ;
#52 = MECHANICAL_CONTEXT ( 'NONE', #90, 'mechanical' ) ;
#53 = FACE_OUTER_BOUND ( 'NONE', #120, .T. ) ;
#54 = CARTESIAN_POINT ( 'NONE',  ( -0.7500000000000000000, -12.70000000000000107, 12.70000000000000462 ) ) ;
#55 = CARTESIAN_POINT ( 'NONE',  ( 0.7500000000000000000, -12.70000000000000107, -12.70000000000000462 ) ) ;
#56 = APPROVAL_STATUS ( 'not_yet_approved' ) ;
#57 = CARTESIAN_POINT ( 'NONE',  ( 0.7500000000000000000, 0.0000000000000000000, 0.0000000000000000000 ) ) ;
#58 = LOCAL_TIME ( 10, 3, 57.00000000000000000, #157 ) ;
#59 = CC_DESIGN_PERSON_AND_ORGANIZATION_ASSIGNMENT ( #74, #71, ( #160 ) ) ;
#60 = EDGE_CURVE ( 'NONE', #166, #207, #194, .T. ) ;
#61 = CARTESIAN_POINT ( 'NONE',  ( 0.7500000000000000000, -12.70000000000000107, 12.70000000000000462 ) ) ;
#62 = APPROVAL ( #56, 'UNSPECIFIED' ) ;
#63 = ORIENTED_EDGE ( 'NONE', *, *, #125, .T. ) ;
#64 = APPROVAL_PERSON_ORGANIZATION ( #114, #116, #233 ) ;
#65 = DIRECTION ( 'NONE',  ( 0.0000000000000000000, -1.000000000000000000, 2.048885995248197414E-16 ) ) ;
#66 = APPROVAL_STATUS ( 'not_yet_approved' ) ;
#67 = DIRECTION ( 'NONE',  ( 1.000000000000000000, 0.0000000000000000000, 0.0000000000000000000 ) ) ;
#68 = AXIS2_PLACEMENT_3D ( 'NONE', #7, #122, #140 ) ;
#69 = DATE_AND_TIME ( #45, #76 ) ;
#70 = APPROVAL_ROLE ( '' ) ;
#71 = PERSON_AND_ORGANIZATION_ROLE ( 'design_supplier' ) ;
#72 = LINE ( 'NONE', #141, #111 ) ;
#73 = LINE ( 'NONE', #61, #42 ) ;
#74 = PERSON_AND_ORGANIZATION ( #147, #91 ) ;
#75 = ORIENTED_EDGE ( 'NONE', *, *, #22, .T. ) ;
#76 = LOCAL_TIME ( 10, 3, 57.00000000000000000, #12 ) ;
#77 = SECURITY_CLASSIFICATION ( '', '', #235 ) ;
#78 = AXIS2_PLACEMENT_3D ( 'NONE', #208, #67, #193 ) ;
#79 = LINE ( 'NONE', #124, #237 ) ;
#80 = LOCAL_TIME ( 10, 3, 57.00000000000000000, #131 ) ;
#81 = EDGE_LOOP ( 'NONE', ( #113, #218, #88, #8 ) ) ;
#82 = SHAPE_DEFINITION_REPRESENTATION ( #133, #231 ) ;
#83 = CARTESIAN_POINT ( 'NONE',  ( -0.7500000000000000000, 12.69999999999999751, -12.69999999999999929 ) ) ;
#84 = EDGE_LOOP ( 'NONE', ( #234, #221, #192, #63 ) ) ;
#85 = CARTESIAN_POINT ( 'NONE',  ( 0.7500000000000000000, 12.69999999999999751, 12.69999999999999929 ) ) ;
#86 = CARTESIAN_POINT ( 'NONE',  ( -0.7500000000000000000, 12.69999999999999751, -12.69999999999999929 ) ) ;
#87 = PLANE ( 'NONE',  #153 ) ;
#88 = ORIENTED_EDGE ( 'NONE', *, *, #22, .F. ) ;
#89 = DIRECTION ( 'NONE',  ( 0.0000000000000000000, 0.0000000000000000000, -1.000000000000000000 ) ) ;
#90 = APPLICATION_CONTEXT ( 'configuration controlled 3d designs of mechanical parts and assemblies' ) ;
#91 = ORGANIZATION ( 'UNSPECIFIED', 'UNSPECIFIED', '' ) ;
#92 = DIRECTION ( 'NONE',  ( -0.0000000000000000000, 1.000000000000000000, 2.048885995248197414E-16 ) ) ;
#93 = CC_DESIGN_APPROVAL ( #202, ( #160 ) ) ;
#94 = ORIENTED_EDGE ( 'NONE', *, *, #97, .T. ) ;
#95 = APPROVAL_STATUS ( 'not_yet_approved' ) ;
#96 = ORIENTED_EDGE ( 'NONE', *, *, #225, .F. ) ;
#97 = EDGE_CURVE ( 'NONE', #150, #31, #177, .T. ) ;
#98 = FACE_OUTER_BOUND ( 'NONE', #81, .T. ) ;
#99 = ADVANCED_FACE ( 'NONE', ( #129 ), #103, .F. ) ;
#100 = CALENDAR_DATE ( 2020, 9, 10 ) ;
#101 =( GEOMETRIC_REPRESENTATION_CONTEXT ( 3 ) GLOBAL_UNCERTAINTY_ASSIGNED_CONTEXT ( ( #115 ) ) GLOBAL_UNIT_ASSIGNED_CONTEXT ( ( #23, #106, #41 ) ) REPRESENTATION_CONTEXT ( 'NONE', 'WORKASPACE' ) );
#102 = PLANE ( 'NONE',  #68 ) ;
#103 = PLANE ( 'NONE',  #186 ) ;
#104 = ORIENTED_EDGE ( 'NONE', *, *, #189, .T. ) ;
#105 = DIRECTION ( 'NONE',  ( -1.000000000000000000, -0.0000000000000000000, -0.0000000000000000000 ) ) ;
#106 =( NAMED_UNIT ( * ) PLANE_ANGLE_UNIT ( ) SI_UNIT ( $, .RADIAN. ) );
#107 = DIRECTION ( 'NONE',  ( -0.0000000000000000000, 1.000000000000000000, 0.0000000000000000000 ) ) ;
#108 = CC_DESIGN_PERSON_AND_ORGANIZATION_ASSIGNMENT ( #203, #38, ( #220 ) ) ;
#109 = APPLICATION_PROTOCOL_DEFINITION ( 'international standard', 'config_control_design', 1994, #90 ) ;
#110 = CALENDAR_DATE ( 2020, 9, 10 ) ;
#111 = VECTOR ( 'NONE', #50, 1000.000000000000000 ) ;
#112 = ORIENTED_EDGE ( 'NONE', *, *, #39, .T. ) ;
#113 = ORIENTED_EDGE ( 'NONE', *, *, #155, .F. ) ;
#114 = PERSON_AND_ORGANIZATION ( #147, #91 ) ;
#115 = UNCERTAINTY_MEASURE_WITH_UNIT (LENGTH_MEASURE( 1.000000000000000082E-05 ), #23, 'distance_accuracy_value', 'NONE');
#116 = APPROVAL ( #95, 'UNSPECIFIED' ) ;
#117 = ADVANCED_FACE ( 'NONE', ( #212 ), #102, .F. ) ;
#118 = VECTOR ( 'NONE', #105, 1000.000000000000000 ) ;
#119 = PERSON_AND_ORGANIZATION ( #147, #91 ) ;
#120 = EDGE_LOOP ( 'NONE', ( #75, #37, #96, #11 ) ) ;
#121 = DIRECTION ( 'NONE',  ( 0.0000000000000000000, 0.0000000000000000000, -1.000000000000000000 ) ) ;
#122 = DIRECTION ( 'NONE',  ( 0.0000000000000000000, -2.048885995248197414E-16, -1.000000000000000000 ) ) ;
#123 = CARTESIAN_POINT ( 'NONE',  ( 0.7500000000000000000, 12.69999999999999751, 12.69999999999999929 ) ) ;
#124 = CARTESIAN_POINT ( 'NONE',  ( 0.7500000000000000000, 12.69999999999999751, 12.69999999999999929 ) ) ;
#125 = EDGE_CURVE ( 'NONE', #31, #174, #72, .T. ) ;
#126 = PERSON_AND_ORGANIZATION ( #147, #91 ) ;
#127 = DIRECTION ( 'NONE',  ( -0.0000000000000000000, -0.0000000000000000000, 1.000000000000000000 ) ) ;
#128 = APPLICATION_PROTOCOL_DEFINITION ( 'international standard', 'config_control_design', 1994, #171 ) ;
#129 = FACE_OUTER_BOUND ( 'NONE', #6, .T. ) ;
#130 = DATE_TIME_ROLE ( 'classification_date' ) ;
#131 = COORDINATED_UNIVERSAL_TIME_OFFSET ( 5, 0, .BEHIND. ) ;
#132 = VECTOR ( 'NONE', #32, 1000.000000000000000 ) ;
#133 = PRODUCT_DEFINITION_SHAPE ( 'NONE', 'NONE',  #146 ) ;
#134 = ADVANCED_FACE ( 'NONE', ( #47 ), #167, .T. ) ;
#135 = ORIENTED_EDGE ( 'NONE', *, *, #125, .F. ) ;
#136 = ORIENTED_EDGE ( 'NONE', *, *, #46, .F. ) ;
#137 = CARTESIAN_POINT ( 'NONE',  ( 0.7500000000000000000, 12.69999999999999751, -12.69999999999999929 ) ) ;
#138 = EDGE_LOOP ( 'NONE', ( #27, #16, #136, #112 ) ) ;
#139 = EDGE_CURVE ( 'NONE', #31, #1, #79, .T. ) ;
#140 = DIRECTION ( 'NONE',  ( 0.0000000000000000000, 1.000000000000000000, -2.048885995248197414E-16 ) ) ;
#141 = CARTESIAN_POINT ( 'NONE',  ( 0.7500000000000000000, 12.69999999999999751, 12.69999999999999929 ) ) ;
#142 = DATE_AND_TIME ( #100, #80 ) ;
#143 = DIRECTION ( 'NONE',  ( 1.000000000000000000, 0.0000000000000000000, 0.0000000000000000000 ) ) ;
#144 = DIRECTION ( 'NONE',  ( 0.0000000000000000000, 0.0000000000000000000, 1.000000000000000000 ) ) ;
#145 = CARTESIAN_POINT ( 'NONE',  ( 0.0000000000000000000, 0.0000000000000000000, 0.0000000000000000000 ) ) ;
#146 = PRODUCT_DEFINITION ( 'UNKNOWN', '', #160, #164 ) ;
#147 = PERSON ( 'UNSPECIFIED', 'UNSPECIFIED', 'UNSPECIFIED', ('UNSPECIFIED'), ('UNSPECIFIED'), ('UNSPECIFIED') ) ;
#148 = VECTOR ( 'NONE', #163, 1000.000000000000000 ) ;
#149 = PERSON_AND_ORGANIZATION_ROLE ( 'creator' ) ;
#150 = VERTEX_POINT ( 'NONE', #137 ) ;
#151 = APPROVAL_PERSON_ORGANIZATION ( #180, #62, #25 ) ;
#152 = LOCAL_TIME ( 10, 3, 57.00000000000000000, #2 ) ;
#153 = AXIS2_PLACEMENT_3D ( 'NONE', #184, #3, #48 ) ;
#154 = MANIFOLD_SOLID_BREP ( 'Boss-Extrude1', #162 ) ;
#155 = EDGE_CURVE ( 'NONE', #174, #166, #198, .T. ) ;
#156 = ADVANCED_FACE ( 'NONE', ( #98 ), #24, .F. ) ;
#157 = COORDINATED_UNIVERSAL_TIME_OFFSET ( 5, 0, .BEHIND. ) ;
#158 = ORIENTED_EDGE ( 'NONE', *, *, #225, .T. ) ;
#159 = ORIENTED_EDGE ( 'NONE', *, *, #97, .F. ) ;
#160 = PRODUCT_DEFINITION_FORMATION_WITH_SPECIFIED_SOURCE ( 'ANY', '', #220, .NOT_KNOWN. ) ;
#161 = VECTOR ( 'NONE', #19, 1000.000000000000000 ) ;
#162 = CLOSED_SHELL ( 'NONE', ( #117, #222, #14, #99, #134, #156 ) ) ;
#163 = DIRECTION ( 'NONE',  ( -0.0000000000000000000, -0.0000000000000000000, 1.000000000000000000 ) ) ;
#164 = DESIGN_CONTEXT ( 'detailed design', #171, 'design' ) ;
#165 = ORIENTED_EDGE ( 'NONE', *, *, #46, .T. ) ;
#166 = VERTEX_POINT ( 'NONE', #54 ) ;
#167 = PLANE ( 'NONE',  #215 ) ;
#168 = CC_DESIGN_APPROVAL ( #62, ( #146 ) ) ;
#169 = CARTESIAN_POINT ( 'NONE',  ( 0.7500000000000000000, 12.69999999999999751, -12.69999999999999929 ) ) ;
#170 = FACE_OUTER_BOUND ( 'NONE', #138, .T. ) ;
#171 = APPLICATION_CONTEXT ( 'configuration controlled 3d designs of mechanical parts and assemblies' ) ;
#172 = CARTESIAN_POINT ( 'NONE',  ( 0.7500000000000000000, -12.70000000000000107, -12.70000000000000462 ) ) ;
#173 = LINE ( 'NONE', #20, #229 ) ;
#174 = VERTEX_POINT ( 'NONE', #9 ) ;
#175 = CC_DESIGN_DATE_AND_TIME_ASSIGNMENT ( #51, #36, ( #146 ) ) ;
#176 = PRODUCT_RELATED_PRODUCT_CATEGORY ( 'detail', '', ( #220 ) ) ;
#177 = LINE ( 'NONE', #123, #148 ) ;
#178 = APPROVAL_DATE_TIME ( #69, #116 ) ;
#179 = EDGE_CURVE ( 'NONE', #187, #207, #5, .T. ) ;
#180 = PERSON_AND_ORGANIZATION ( #147, #91 ) ;
#181 = DIRECTION ( 'NONE',  ( -1.000000000000000000, -0.0000000000000000000, -0.0000000000000000000 ) ) ;
#182 = CC_DESIGN_DATE_AND_TIME_ASSIGNMENT ( #30, #130, ( #77 ) ) ;
#183 = CARTESIAN_POINT ( 'NONE',  ( 0.7500000000000000000, -12.70000000000000107, 12.70000000000000462 ) ) ;
#184 = CARTESIAN_POINT ( 'NONE',  ( 0.7500000000000000000, 12.69999999999999751, -12.69999999999999929 ) ) ;
#185 = LINE ( 'NONE', #169, #190 ) ;
#186 = AXIS2_PLACEMENT_3D ( 'NONE', #34, #49, #204 ) ;
#187 = VERTEX_POINT ( 'NONE', #55 ) ;
#188 = CARTESIAN_POINT ( 'NONE',  ( -0.7500000000000000000, 12.69999999999999751, 12.69999999999999929 ) ) ;
#189 = EDGE_CURVE ( 'NONE', #44, #174, #232, .T. ) ;
#190 = VECTOR ( 'NONE', #92, 1000.000000000000000 ) ;
#191 = CC_DESIGN_PERSON_AND_ORGANIZATION_ASSIGNMENT ( #126, #228, ( #160 ) ) ;
#192 = ORIENTED_EDGE ( 'NONE', *, *, #139, .F. ) ;
#193 = DIRECTION ( 'NONE',  ( 0.0000000000000000000, 0.0000000000000000000, -1.000000000000000000 ) ) ;
#194 = LINE ( 'NONE', #4, #132 ) ;
#195 = EDGE_LOOP ( 'NONE', ( #200, #165, #158, #94 ) ) ;
#196 = LINE ( 'NONE', #86, #161 ) ;
#197 = CC_DESIGN_SECURITY_CLASSIFICATION ( #77, ( #160 ) ) ;
#198 = LINE ( 'NONE', #188, #33 ) ;
#199 = APPROVAL_PERSON_ORGANIZATION ( #10, #202, #70 ) ;
#200 = ORIENTED_EDGE ( 'NONE', *, *, #139, .T. ) ;
#201 = CARTESIAN_POINT ( 'NONE',  ( 0.7500000000000000000, 12.69999999999999751, -12.69999999999999929 ) ) ;
#202 = APPROVAL ( #66, 'UNSPECIFIED' ) ;
#203 = PERSON_AND_ORGANIZATION ( #147, #91 ) ;
#204 = DIRECTION ( 'NONE',  ( 0.0000000000000000000, -0.0000000000000000000, -1.000000000000000000 ) ) ;
#205 = CALENDAR_DATE ( 2020, 9, 10 ) ;
#206 = CC_DESIGN_PERSON_AND_ORGANIZATION_ASSIGNMENT ( #226, #217, ( #77 ) ) ;
#207 = VERTEX_POINT ( 'NONE', #213 ) ;
#208 = CARTESIAN_POINT ( 'NONE',  ( -0.7500000000000000000, 0.0000000000000000000, 0.0000000000000000000 ) ) ;
#209 = DIRECTION ( 'NONE',  ( 0.0000000000000000000, -0.0000000000000000000, 1.000000000000000000 ) ) ;
#210 = CC_DESIGN_PERSON_AND_ORGANIZATION_ASSIGNMENT ( #119, #149, ( #146 ) ) ;
#211 = CARTESIAN_POINT ( 'NONE',  ( 0.7500000000000000000, -12.70000000000000107, 12.70000000000000462 ) ) ;
#212 = FACE_OUTER_BOUND ( 'NONE', #84, .T. ) ;
#213 = CARTESIAN_POINT ( 'NONE',  ( -0.7500000000000000000, -12.70000000000000107, -12.70000000000000462 ) ) ;
#214 = CARTESIAN_POINT ( 'NONE',  ( -0.7500000000000000000, 12.69999999999999751, 12.69999999999999929 ) ) ;
#215 = AXIS2_PLACEMENT_3D ( 'NONE', #57, #143, #89 ) ;
#216 = COORDINATED_UNIVERSAL_TIME_OFFSET ( 5, 0, .BEHIND. ) ;
#217 = PERSON_AND_ORGANIZATION_ROLE ( 'classification_officer' ) ;
#218 = ORIENTED_EDGE ( 'NONE', *, *, #189, .F. ) ;
#219 = ORIENTED_EDGE ( 'NONE', *, *, #43, .T. ) ;
#220 = PRODUCT ( 'Web Model 46459_15980', 'Web Model 46459_15980', '', ( #52 ) ) ;
#221 = ORIENTED_EDGE ( 'NONE', *, *, #39, .F. ) ;
#222 = ADVANCED_FACE ( 'NONE', ( #170 ), #35, .F. ) ;
#223 = VECTOR ( 'NONE', #127, 1000.000000000000000 ) ;
#224 = DIRECTION ( 'NONE',  ( -1.000000000000000000, -0.0000000000000000000, -0.0000000000000000000 ) ) ;
#225 = EDGE_CURVE ( 'NONE', #187, #150, #185, .T. ) ;
#226 = PERSON_AND_ORGANIZATION ( #147, #91 ) ;
#227 = AXIS2_PLACEMENT_3D ( 'NONE', #211, #107, #209 ) ;
#228 = PERSON_AND_ORGANIZATION_ROLE ( 'creator' ) ;
#229 = VECTOR ( 'NONE', #181, 1000.000000000000000 ) ;
#230 = DIRECTION ( 'NONE',  ( 0.0000000000000000000, -1.000000000000000000, 2.048885995248197414E-16 ) ) ;
#231 = ADVANCED_BREP_SHAPE_REPRESENTATION ( 'Web Model 46459_15980', ( #154, #15 ), #101 ) ;
#232 = LINE ( 'NONE', #214, #223 ) ;
#233 = APPROVAL_ROLE ( '' ) ;
#234 = ORIENTED_EDGE ( 'NONE', *, *, #155, .T. ) ;
#235 = SECURITY_CLASSIFICATION_LEVEL ( 'unclassified' ) ;
#236 = CALENDAR_DATE ( 2020, 9, 10 ) ;
#237 = VECTOR ( 'NONE', #65, 1000.000000000000000 ) ;
ENDSEC;
END-ISO-10303-21;
