ISO-10303-21;
HEADER;
FILE_DESCRIPTION (( 'STEP AP203' ),
    '1' );
FILE_NAME ('Web Model 19311_22589.step',
    '2022-06-07T14:20:44',
    ( 'WC' ),
    ( 'Windows Central' ),
    'SwSTEP 2.0',
    'SolidWorks 2021',
    '' );
FILE_SCHEMA (( 'CONFIG_CONTROL_DESIGN' ));
ENDSEC;

DATA;
#1 = DIRECTION ( 'NONE',  ( 1.000000000000000000, 0.000000000000000000, 0.000000000000000000 ) ) ;
#2 = CARTESIAN_POINT ( 'NONE',  ( -106.3599999999999994, 0.000000000000000000, 0.000000000000000000 ) ) ;
#3 = DIRECTION ( 'NONE',  ( -0.000000000000000000, -0.000000000000000000, -1.000000000000000000 ) ) ;
#4 = FACE_OUTER_BOUND ( 'NONE', #154, .T. ) ;
#5 = CARTESIAN_POINT ( 'NONE',  ( 0.000000000000000000, 0.000000000000000000, -0.002000000000000000042 ) ) ;
#6 = AXIS2_PLACEMENT_3D ( 'NONE', #359, #162, #67 ) ;
#7 = DIRECTION ( 'NONE',  ( -0.000000000000000000, -0.000000000000000000, -1.000000000000000000 ) ) ;
#8 = EDGE_CURVE ( 'NONE', #374, #407, #200, .T. ) ;
#9 = FACE_OUTER_BOUND ( 'NONE', #317, .T. ) ;
#10 = DIRECTION ( 'NONE',  ( -0.000000000000000000, -0.000000000000000000, -1.000000000000000000 ) ) ;
#11 = ORIENTED_EDGE ( 'NONE', *, *, #223, .F. ) ;
#12 = CC_DESIGN_PERSON_AND_ORGANIZATION_ASSIGNMENT ( #16, #309, ( #92 ) ) ;
#13 = VERTEX_POINT ( 'NONE', #205 ) ;
#14 = FACE_OUTER_BOUND ( 'NONE', #318, .T. ) ;
#15 = ORIENTED_EDGE ( 'NONE', *, *, #8, .F. ) ;
#16 = PERSON_AND_ORGANIZATION ( #320, #348 ) ;
#17 = APPLICATION_CONTEXT ( 'configuration controlled 3d designs of mechanical parts and assemblies' ) ;
#18 = EDGE_LOOP ( 'NONE', ( #187, #174 ) ) ;
#19 = AXIS2_PLACEMENT_3D ( 'NONE', #203, #286, #44 ) ;
#20 = ORIENTED_EDGE ( 'NONE', *, *, #132, .T. ) ;
#21 = PERSON_AND_ORGANIZATION ( #320, #348 ) ;
#22 = ORIENTED_EDGE ( 'NONE', *, *, #302, .F. ) ;
#23 = CALENDAR_DATE ( 2022, 7, 6 ) ;
#24 = ORIENTED_EDGE ( 'NONE', *, *, #372, .F. ) ;
#25 = ORIENTED_EDGE ( 'NONE', *, *, #137, .F. ) ;
#26 = PRODUCT_DEFINITION_SHAPE ( 'NONE', 'NONE',  #92 ) ;
#27 = APPROVAL_DATE_TIME ( #377, #41 ) ;
#28 = CYLINDRICAL_SURFACE ( 'NONE', #256, 1.755000000000006555 ) ;
#29 = AXIS2_PLACEMENT_3D ( 'NONE', #391, #38, #70 ) ;
#30 = VECTOR ( 'NONE', #7, 1000.000000000000000 ) ;
#31 = ADVANCED_FACE ( 'NONE', ( #354 ), #272, .F. ) ;
#32 = DIRECTION ( 'NONE',  ( -0.000000000000000000, -0.000000000000000000, -1.000000000000000000 ) ) ;
#33 = FACE_OUTER_BOUND ( 'NONE', #216, .T. ) ;
#34 = CARTESIAN_POINT ( 'NONE',  ( 0.000000000000000000, 0.000000000000000000, -0.002000000000000000042 ) ) ;
#35 = CIRCLE ( 'NONE', #6, 1.755000000000006555 ) ;
#36 = CARTESIAN_POINT ( 'NONE',  ( 111.1250000000000000, 1.360888755552496385E-14, -0.002000000000000000042 ) ) ;
#37 = EDGE_CURVE ( 'NONE', #407, #374, #413, .T. ) ;
#38 = DIRECTION ( 'NONE',  ( 0.000000000000000000, 0.000000000000000000, 1.000000000000000000 ) ) ;
#39 = CARTESIAN_POINT ( 'NONE',  ( 106.3599999999999994, 0.000000000000000000, 0.000000000000000000 ) ) ;
#40 = CIRCLE ( 'NONE', #29, 111.1250000000000000 ) ;
#41 = APPROVAL ( #184, 'UNSPECIFIED' ) ;
#42 = LOCAL_TIME ( 10, 20, 44.00000000000000000, #316 ) ;
#43 = CARTESIAN_POINT ( 'NONE',  ( 0.000000000000000000, 0.000000000000000000, 9.529999999999999361 ) ) ;
#44 = DIRECTION ( 'NONE',  ( 1.000000000000000000, 0.000000000000000000, 0.000000000000000000 ) ) ;
#45 = DIRECTION ( 'NONE',  ( -1.000000000000000000, 0.000000000000000000, 0.000000000000000000 ) ) ;
#46 = CYLINDRICAL_SURFACE ( 'NONE', #181, 1.755000000000006555 ) ;
#47 = ORIENTED_EDGE ( 'NONE', *, *, #278, .T. ) ;
#48 = DIRECTION ( 'NONE',  ( 1.000000000000000000, 0.000000000000000000, 0.000000000000000000 ) ) ;
#49 = AXIS2_PLACEMENT_3D ( 'NONE', #141, #300, #45 ) ;
#50 = PLANE ( 'NONE',  #405 ) ;
#51 = VERTEX_POINT ( 'NONE', #208 ) ;
#52 = DATE_TIME_ROLE ( 'classification_date' ) ;
#53 = ORIENTED_EDGE ( 'NONE', *, *, #372, .T. ) ;
#54 = ORIENTED_EDGE ( 'NONE', *, *, #8, .T. ) ;
#55 = APPROVAL_DATE_TIME ( #307, #186 ) ;
#56 = EDGE_CURVE ( 'NONE', #188, #81, #386, .T. ) ;
#57 = VECTOR ( 'NONE', #10, 1000.000000000000000 ) ;
#58 = ORIENTED_EDGE ( 'NONE', *, *, #56, .F. ) ;
#59 = CARTESIAN_POINT ( 'NONE',  ( 0.000000000000000000, 0.000000000000000000, 0.000000000000000000 ) ) ;
#60 = ORIENTED_EDGE ( 'NONE', *, *, #328, .F. ) ;
#61 = CARTESIAN_POINT ( 'NONE',  ( 0.000000000000000000, 0.000000000000000000, 9.529999999999999361 ) ) ;
#62 = CC_DESIGN_PERSON_AND_ORGANIZATION_ASSIGNMENT ( #353, #246, ( #382 ) ) ;
#63 = LINE ( 'NONE', #189, #381 ) ;
#64 = AXIS2_PLACEMENT_3D ( 'NONE', #125, #255, #69 ) ;
#65 = AXIS2_PLACEMENT_3D ( 'NONE', #225, #193, #100 ) ;
#66 = CIRCLE ( 'NONE', #151, 101.5999999999999943 ) ;
#67 = DIRECTION ( 'NONE',  ( 1.000000000000000000, 0.000000000000000000, 0.000000000000000000 ) ) ;
#68 = UNCERTAINTY_MEASURE_WITH_UNIT (LENGTH_MEASURE( 1.000000000000000082E-05 ), #134, 'distance_accuracy_value', 'NONE');
#69 = DIRECTION ( 'NONE',  ( 1.000000000000000000, 0.000000000000000000, 0.000000000000000000 ) ) ;
#70 = DIRECTION ( 'NONE',  ( 1.000000000000000000, 0.000000000000000000, 0.000000000000000000 ) ) ;
#71 = APPROVAL_PERSON_ORGANIZATION ( #119, #41, #82 ) ;
#72 = CARTESIAN_POINT ( 'NONE',  ( -101.5999999999999943, 0.000000000000000000, 9.529999999999999361 ) ) ;
#73 = EDGE_CURVE ( 'NONE', #51, #400, #102, .T. ) ;
#74 = DIRECTION ( 'NONE',  ( -1.000000000000000000, 0.000000000000000000, 0.000000000000000000 ) ) ;
#75 = VECTOR ( 'NONE', #198, 1000.000000000000000 ) ;
#76 = CARTESIAN_POINT ( 'NONE',  ( -104.6049999999999898, 2.149255132503607638E-16, 9.529999999999999361 ) ) ;
#77 = FACE_OUTER_BOUND ( 'NONE', #180, .T. ) ;
#78 = CARTESIAN_POINT ( 'NONE',  ( 0.000000000000000000, 0.000000000000000000, 9.529999999999999361 ) ) ;
#79 = CARTESIAN_POINT ( 'NONE',  ( -101.5999999999999943, 0.000000000000000000, 0.000000000000000000 ) ) ;
#80 = VERTEX_POINT ( 'NONE', #93 ) ;
#81 = VERTEX_POINT ( 'NONE', #79 ) ;
#82 = APPROVAL_ROLE ( '' ) ;
#83 = ADVANCED_FACE ( 'NONE', ( #77 ), #221, .F. ) ;
#84 = ORIENTED_EDGE ( 'NONE', *, *, #409, .F. ) ;
#85 = DATE_AND_TIME ( #23, #341 ) ;
#86 = ORIENTED_EDGE ( 'NONE', *, *, #291, .F. ) ;
#87 = DIRECTION ( 'NONE',  ( 0.000000000000000000, 0.000000000000000000, 1.000000000000000000 ) ) ;
#88 = AXIS2_PLACEMENT_3D ( 'NONE', #131, #262, #98 ) ;
#89 = APPROVAL_PERSON_ORGANIZATION ( #411, #186, #122 ) ;
#90 = EDGE_LOOP ( 'NONE', ( #349, #306 ) ) ;
#91 = SHAPE_DEFINITION_REPRESENTATION ( #26, #414 ) ;
#92 = PRODUCT_DEFINITION ( 'UNKNOWN', '', #128, #251 ) ;
#93 = CARTESIAN_POINT ( 'NONE',  ( -111.1250000000000000, 0.000000000000000000, 9.529999999999999361 ) ) ;
#94 = CARTESIAN_POINT ( 'NONE',  ( 0.000000000000000000, 0.000000000000000000, 9.529999999999999361 ) ) ;
#95 = DIRECTION ( 'NONE',  ( 0.000000000000000000, 0.000000000000000000, 1.000000000000000000 ) ) ;
#96 = AXIS2_PLACEMENT_3D ( 'NONE', #126, #194, #324 ) ;
#97 = AXIS2_PLACEMENT_3D ( 'NONE', #270, #398, #202 ) ;
#98 = DIRECTION ( 'NONE',  ( -1.000000000000000000, 0.000000000000000000, 0.000000000000000000 ) ) ;
#99 = ADVANCED_FACE ( 'NONE', ( #9 ), #46, .F. ) ;
#100 = DIRECTION ( 'NONE',  ( 1.000000000000000000, 0.000000000000000000, -0.000000000000000000 ) ) ;
#101 = LINE ( 'NONE', #327, #263 ) ;
#102 = CIRCLE ( 'NONE', #373, 1.755000000000006555 ) ;
#103 = AXIS2_PLACEMENT_3D ( 'NONE', #136, #266, #107 ) ;
#104 = FACE_OUTER_BOUND ( 'NONE', #113, .T. ) ;
#105 = DIRECTION ( 'NONE',  ( 0.000000000000000000, 0.000000000000000000, 1.000000000000000000 ) ) ;
#106 = DIRECTION ( 'NONE',  ( -0.000000000000000000, -0.000000000000000000, -1.000000000000000000 ) ) ;
#107 = DIRECTION ( 'NONE',  ( 1.000000000000000000, 0.000000000000000000, 0.000000000000000000 ) ) ;
#108 = CARTESIAN_POINT ( 'NONE',  ( -106.3599999999999994, 0.000000000000000000, 0.000000000000000000 ) ) ;
#109 = ADVANCED_FACE ( 'NONE', ( #303 ), #111, .F. ) ;
#110 = CYLINDRICAL_SURFACE ( 'NONE', #325, 1.755000000000006555 ) ;
#111 = CYLINDRICAL_SURFACE ( 'NONE', #115, 101.5999999999999943 ) ;
#112 = EDGE_LOOP ( 'NONE', ( #60, #248 ) ) ;
#113 = EDGE_LOOP ( 'NONE', ( #114, #120, #342, #183 ) ) ;
#114 = ORIENTED_EDGE ( 'NONE', *, *, #265, .F. ) ;
#115 = AXIS2_PLACEMENT_3D ( 'NONE', #319, #239, #340 ) ;
#116 = DATE_TIME_ROLE ( 'creation_date' ) ;
#117 = ADVANCED_FACE ( 'NONE', ( #14 ), #50, .T. ) ;
#118 = EDGE_LOOP ( 'NONE', ( #304, #378, #178, #58 ) ) ;
#119 = PERSON_AND_ORGANIZATION ( #320, #348 ) ;
#120 = ORIENTED_EDGE ( 'NONE', *, *, #302, .T. ) ;
#121 = PERSON_AND_ORGANIZATION ( #320, #348 ) ;
#122 = APPROVAL_ROLE ( '' ) ;
#123 = ORIENTED_EDGE ( 'NONE', *, *, #56, .T. ) ;
#124 = DIRECTION ( 'NONE',  ( -0.000000000000000000, -0.000000000000000000, -1.000000000000000000 ) ) ;
#125 = CARTESIAN_POINT ( 'NONE',  ( 106.3599999999999994, 0.000000000000000000, 0.000000000000000000 ) ) ;
#126 = CARTESIAN_POINT ( 'NONE',  ( 0.000000000000000000, 0.000000000000000000, 9.529999999999999361 ) ) ;
#127 = ADVANCED_FACE ( 'NONE', ( #380 ), #28, .F. ) ;
#128 = PRODUCT_DEFINITION_FORMATION_WITH_SPECIFIED_SOURCE ( 'ANY', '', #130, .NOT_KNOWN. ) ;
#129 = FACE_BOUND ( 'NONE', #90, .T. ) ;
#130 = PRODUCT ( 'Web Model 19311_22589', 'Web Model 19311_22589', '', ( #235 ) ) ;
#131 = CARTESIAN_POINT ( 'NONE',  ( 0.000000000000000000, 0.000000000000000000, 9.529999999999999361 ) ) ;
#132 = EDGE_CURVE ( 'NONE', #277, #81, #217, .T. ) ;
#133 = DIRECTION ( 'NONE',  ( 1.000000000000000000, 0.000000000000000000, 0.000000000000000000 ) ) ;
#134 =( LENGTH_UNIT ( ) NAMED_UNIT ( * ) SI_UNIT ( .MILLI., .METRE. ) );
#135 = PLANE ( 'NONE',  #140 ) ;
#136 = CARTESIAN_POINT ( 'NONE',  ( 0.000000000000000000, 0.000000000000000000, 0.000000000000000000 ) ) ;
#137 = EDGE_CURVE ( 'NONE', #281, #333, #209, .T. ) ;
#138 = ORIENTED_EDGE ( 'NONE', *, *, #37, .F. ) ;
#139 = AXIS2_PLACEMENT_3D ( 'NONE', #78, #172, #334 ) ;
#140 = AXIS2_PLACEMENT_3D ( 'NONE', #298, #105, #237 ) ;
#141 = CARTESIAN_POINT ( 'NONE',  ( 0.000000000000000000, 0.000000000000000000, 9.529999999999999361 ) ) ;
#142 = VERTEX_POINT ( 'NONE', #326 ) ;
#143 = EDGE_LOOP ( 'NONE', ( #84, #146, #337, #220 ) ) ;
#144 =( NAMED_UNIT ( * ) SI_UNIT ( $, .STERADIAN. ) SOLID_ANGLE_UNIT ( ) );
#145 = DIRECTION ( 'NONE',  ( 0.000000000000000000, 0.000000000000000000, 1.000000000000000000 ) ) ;
#146 = ORIENTED_EDGE ( 'NONE', *, *, #177, .T. ) ;
#147 = PERSON_AND_ORGANIZATION_ROLE ( 'design_supplier' ) ;
#148 = CC_DESIGN_DATE_AND_TIME_ASSIGNMENT ( #85, #116, ( #92 ) ) ;
#149 = ORIENTED_EDGE ( 'NONE', *, *, #367, .T. ) ;
#150 = AXIS2_PLACEMENT_3D ( 'NONE', #34, #287, #1 ) ;
#151 = AXIS2_PLACEMENT_3D ( 'NONE', #43, #168, #175 ) ;
#152 = ORIENTED_EDGE ( 'NONE', *, *, #223, .T. ) ;
#153 = COORDINATED_UNIVERSAL_TIME_OFFSET ( 5, 0, .BEHIND. ) ;
#154 = EDGE_LOOP ( 'NONE', ( #344, #403 ) ) ;
#155 = DATE_AND_TIME ( #280, #269 ) ;
#156 = MANIFOLD_SOLID_BREP ( 'Boss-Extrude2', #196 ) ;
#157 = CARTESIAN_POINT ( 'NONE',  ( 0.000000000000000000, 0.000000000000000000, 0.000000000000000000 ) ) ;
#158 = DIRECTION ( 'NONE',  ( 1.000000000000000000, 0.000000000000000000, 0.000000000000000000 ) ) ;
#159 = APPROVAL_PERSON_ORGANIZATION ( #121, #201, #345 ) ;
#160 = CARTESIAN_POINT ( 'NONE',  ( -108.1150000000000091, 0.000000000000000000, 0.000000000000000000 ) ) ;
#161 = EDGE_CURVE ( 'NONE', #215, #179, #40, .T. ) ;
#162 = DIRECTION ( 'NONE',  ( 0.000000000000000000, 0.000000000000000000, 1.000000000000000000 ) ) ;
#163 = LINE ( 'NONE', #289, #75 ) ;
#164 = AXIS2_PLACEMENT_3D ( 'NONE', #108, #95, #361 ) ;
#165 = DIRECTION ( 'NONE',  ( 0.000000000000000000, 0.000000000000000000, 1.000000000000000000 ) ) ;
#166 = EDGE_CURVE ( 'NONE', #51, #281, #195, .T. ) ;
#167 = DIRECTION ( 'NONE',  ( 1.000000000000000000, 0.000000000000000000, -0.000000000000000000 ) ) ;
#168 = DIRECTION ( 'NONE',  ( 0.000000000000000000, 0.000000000000000000, 1.000000000000000000 ) ) ;
#169 = CIRCLE ( 'NONE', #360, 1.755000000000006555 ) ;
#170 = LINE ( 'NONE', #76, #30 ) ;
#171 = DIRECTION ( 'NONE',  ( -0.000000000000000000, -0.000000000000000000, -1.000000000000000000 ) ) ;
#172 = DIRECTION ( 'NONE',  ( 0.000000000000000000, 0.000000000000000000, 1.000000000000000000 ) ) ;
#173 = DIRECTION ( 'NONE',  ( -0.000000000000000000, -0.000000000000000000, -1.000000000000000000 ) ) ;
#174 = ORIENTED_EDGE ( 'NONE', *, *, #260, .T. ) ;
#175 = DIRECTION ( 'NONE',  ( 1.000000000000000000, 0.000000000000000000, 0.000000000000000000 ) ) ;
#176 = CARTESIAN_POINT ( 'NONE',  ( 106.3599999999999994, 0.000000000000000000, 9.529999999999999361 ) ) ;
#177 = EDGE_CURVE ( 'NONE', #400, #51, #35, .T. ) ;
#178 = ORIENTED_EDGE ( 'NONE', *, *, #367, .F. ) ;
#179 = VERTEX_POINT ( 'NONE', #229 ) ;
#180 = EDGE_LOOP ( 'NONE', ( #252, #383, #123, #247 ) ) ;
#181 = AXIS2_PLACEMENT_3D ( 'NONE', #305, #124, #412 ) ;
#182 = APPROVAL_STATUS ( 'not_yet_approved' ) ;
#183 = ORIENTED_EDGE ( 'NONE', *, *, #207, .F. ) ;
#184 = APPROVAL_STATUS ( 'not_yet_approved' ) ;
#185 = DIRECTION ( 'NONE',  ( 0.000000000000000000, 0.000000000000000000, 1.000000000000000000 ) ) ;
#186 = APPROVAL ( #182, 'UNSPECIFIED' ) ;
#187 = ORIENTED_EDGE ( 'NONE', *, *, #137, .T. ) ;
#188 = VERTEX_POINT ( 'NONE', #72 ) ;
#189 = CARTESIAN_POINT ( 'NONE',  ( 104.6049999999999898, 0.000000000000000000, 9.529999999999999361 ) ) ;
#190 = AXIS2_PLACEMENT_3D ( 'NONE', #176, #236, #368 ) ;
#191 = CIRCLE ( 'NONE', #285, 1.755000000000006555 ) ;
#192 = ADVANCED_FACE ( 'NONE', ( #321 ), #257, .T. ) ;
#193 = DIRECTION ( 'NONE',  ( 0.000000000000000000, 0.000000000000000000, 1.000000000000000000 ) ) ;
#194 = DIRECTION ( 'NONE',  ( 0.000000000000000000, 0.000000000000000000, 1.000000000000000000 ) ) ;
#195 = LINE ( 'NONE', #259, #301 ) ;
#196 = CLOSED_SHELL ( 'NONE', ( #31, #99, #109, #363, #218, #232, #83, #310, #127, #117, #388, #192, #228 ) ) ;
#197 = DIRECTION ( 'NONE',  ( 0.000000000000000000, 0.000000000000000000, 1.000000000000000000 ) ) ;
#198 = DIRECTION ( 'NONE',  ( -0.000000000000000000, -0.000000000000000000, -1.000000000000000000 ) ) ;
#199 = CARTESIAN_POINT ( 'NONE',  ( 111.1250000000000000, 1.360888755552496385E-14, 9.529999999999999361 ) ) ;
#200 = CIRCLE ( 'NONE', #19, 1.755000000000006555 ) ;
#201 = APPROVAL ( #379, 'UNSPECIFIED' ) ;
#202 = DIRECTION ( 'NONE',  ( 1.000000000000000000, 0.000000000000000000, 0.000000000000000000 ) ) ;
#203 = CARTESIAN_POINT ( 'NONE',  ( 106.3599999999999994, 0.000000000000000000, 9.529999999999999361 ) ) ;
#204 = DIRECTION ( 'NONE',  ( -0.000000000000000000, -0.000000000000000000, -1.000000000000000000 ) ) ;
#205 = CARTESIAN_POINT ( 'NONE',  ( 101.5999999999999943, 1.244241147933710746E-14, 9.529999999999999361 ) ) ;
#206 = CARTESIAN_POINT ( 'NONE',  ( 111.1250000000000000, 1.360888755552496385E-14, 9.529999999999999361 ) ) ;
#207 = EDGE_CURVE ( 'NONE', #80, #179, #101, .T. ) ;
#208 = CARTESIAN_POINT ( 'NONE',  ( -108.1150000000000091, 0.000000000000000000, 9.529999999999999361 ) ) ;
#209 = CIRCLE ( 'NONE', #164, 1.755000000000006555 ) ;
#210 = ORIENTED_EDGE ( 'NONE', *, *, #284, .F. ) ;
#211 = COORDINATED_UNIVERSAL_TIME_OFFSET ( 5, 0, .BEHIND. ) ;
#212 = ORIENTED_EDGE ( 'NONE', *, *, #166, .F. ) ;
#213 = CALENDAR_DATE ( 2022, 7, 6 ) ;
#214 = APPLICATION_CONTEXT ( 'configuration controlled 3d designs of mechanical parts and assemblies' ) ;
#215 = VERTEX_POINT ( 'NONE', #36 ) ;
#216 = EDGE_LOOP ( 'NONE', ( #86, #308 ) ) ;
#217 = CIRCLE ( 'NONE', #392, 101.5999999999999943 ) ;
#218 = ADVANCED_FACE ( 'NONE', ( #129, #4, #390, #322 ), #355, .T. ) ;
#219 = DIRECTION ( 'NONE',  ( 1.000000000000000000, 0.000000000000000000, -0.000000000000000000 ) ) ;
#220 = ORIENTED_EDGE ( 'NONE', *, *, #260, .F. ) ;
#221 = CYLINDRICAL_SURFACE ( 'NONE', #339, 101.5999999999999943 ) ;
#222 = DIRECTION ( 'NONE',  ( 0.000000000000000000, 0.000000000000000000, 1.000000000000000000 ) ) ;
#223 = EDGE_CURVE ( 'NONE', #142, #279, #267, .T. ) ;
#224 = CIRCLE ( 'NONE', #234, 111.1250000000000000 ) ;
#225 = CARTESIAN_POINT ( 'NONE',  ( 0.000000000000000000, 0.000000000000000000, 9.529999999999999361 ) ) ;
#226 = DIRECTION ( 'NONE',  ( -0.000000000000000000, -0.000000000000000000, -1.000000000000000000 ) ) ;
#227 = FACE_OUTER_BOUND ( 'NONE', #352, .T. ) ;
#228 = ADVANCED_FACE ( 'NONE', ( #33 ), #293, .F. ) ;
#229 = CARTESIAN_POINT ( 'NONE',  ( -111.1250000000000000, 0.000000000000000000, -0.002000000000000000042 ) ) ;
#230 = FACE_OUTER_BOUND ( 'NONE', #18, .T. ) ;
#231 = FACE_OUTER_BOUND ( 'NONE', #143, .T. ) ;
#232 = ADVANCED_FACE ( 'NONE', ( #227 ), #292, .T. ) ;
#233 = DIRECTION ( 'NONE',  ( 0.000000000000000000, 0.000000000000000000, 1.000000000000000000 ) ) ;
#234 = AXIS2_PLACEMENT_3D ( 'NONE', #94, #222, #358 ) ;
#235 = MECHANICAL_CONTEXT ( 'NONE', #214, 'mechanical' ) ;
#236 = DIRECTION ( 'NONE',  ( -0.000000000000000000, -0.000000000000000000, -1.000000000000000000 ) ) ;
#237 = DIRECTION ( 'NONE',  ( 1.000000000000000000, 0.000000000000000000, -0.000000000000000000 ) ) ;
#238 = CC_DESIGN_PERSON_AND_ORGANIZATION_ASSIGNMENT ( #274, #404, ( #130 ) ) ;
#239 = DIRECTION ( 'NONE',  ( -0.000000000000000000, -0.000000000000000000, -1.000000000000000000 ) ) ;
#240 = EDGE_LOOP ( 'NONE', ( #149, #20 ) ) ;
#241 = DIRECTION ( 'NONE',  ( -1.000000000000000000, 0.000000000000000000, 0.000000000000000000 ) ) ;
#242 = AXIS2_PLACEMENT_3D ( 'NONE', #387, #197, #167 ) ;
#243 = ORIENTED_EDGE ( 'NONE', *, *, #207, .T. ) ;
#244 = CC_DESIGN_APPROVAL ( #186, ( #128 ) ) ;
#245 = COORDINATED_UNIVERSAL_TIME_OFFSET ( 5, 0, .BEHIND. ) ;
#246 = PERSON_AND_ORGANIZATION_ROLE ( 'classification_officer' ) ;
#247 = ORIENTED_EDGE ( 'NONE', *, *, #132, .F. ) ;
#248 = ORIENTED_EDGE ( 'NONE', *, *, #395, .F. ) ;
#249 = VECTOR ( 'NONE', #204, 1000.000000000000000 ) ;
#250 = CALENDAR_DATE ( 2022, 7, 6 ) ;
#251 = DESIGN_CONTEXT ( 'detailed design', #17, 'design' ) ;
#252 = ORIENTED_EDGE ( 'NONE', *, *, #335, .F. ) ;
#253 = CC_DESIGN_PERSON_AND_ORGANIZATION_ASSIGNMENT ( #21, #147, ( #128 ) ) ;
#254 = CARTESIAN_POINT ( 'NONE',  ( 106.3599999999999994, 0.000000000000000000, 9.529999999999999361 ) ) ;
#255 = DIRECTION ( 'NONE',  ( 0.000000000000000000, 0.000000000000000000, 1.000000000000000000 ) ) ;
#256 = AXIS2_PLACEMENT_3D ( 'NONE', #254, #268, #351 ) ;
#257 = PLANE ( 'NONE',  #242 ) ;
#258 = LOCAL_TIME ( 10, 20, 44.00000000000000000, #211 ) ;
#259 = CARTESIAN_POINT ( 'NONE',  ( -108.1150000000000091, 0.000000000000000000, 9.529999999999999361 ) ) ;
#260 = EDGE_CURVE ( 'NONE', #333, #281, #169, .T. ) ;
#261 = DIRECTION ( 'NONE',  ( 0.000000000000000000, 0.000000000000000000, 1.000000000000000000 ) ) ;
#262 = DIRECTION ( 'NONE',  ( -0.000000000000000000, -0.000000000000000000, -1.000000000000000000 ) ) ;
#263 = VECTOR ( 'NONE', #3, 1000.000000000000000 ) ;
#264 = APPLICATION_PROTOCOL_DEFINITION ( 'international standard', 'config_control_design', 1994, #214 ) ;
#265 = EDGE_CURVE ( 'NONE', #336, #80, #224, .T. ) ;
#266 = DIRECTION ( 'NONE',  ( 0.000000000000000000, 0.000000000000000000, 1.000000000000000000 ) ) ;
#267 = CIRCLE ( 'NONE', #64, 1.755000000000006555 ) ;
#268 = DIRECTION ( 'NONE',  ( -0.000000000000000000, -0.000000000000000000, -1.000000000000000000 ) ) ;
#269 = LOCAL_TIME ( 10, 20, 44.00000000000000000, #153 ) ;
#270 = CARTESIAN_POINT ( 'NONE',  ( 0.000000000000000000, 0.000000000000000000, 0.000000000000000000 ) ) ;
#271 = CARTESIAN_POINT ( 'NONE',  ( 106.3599999999999994, 0.000000000000000000, 9.529999999999999361 ) ) ;
#272 = CYLINDRICAL_SURFACE ( 'NONE', #190, 1.755000000000006555 ) ;
#273 = ORIENTED_EDGE ( 'NONE', *, *, #73, .T. ) ;
#274 = PERSON_AND_ORGANIZATION ( #320, #348 ) ;
#275 = CIRCLE ( 'NONE', #96, 111.1250000000000000 ) ;
#276 = CC_DESIGN_SECURITY_CLASSIFICATION ( #382, ( #128 ) ) ;
#277 = VERTEX_POINT ( 'NONE', #389 ) ;
#278 = EDGE_CURVE ( 'NONE', #374, #279, #63, .T. ) ;
#279 = VERTEX_POINT ( 'NONE', #356 ) ;
#280 = CALENDAR_DATE ( 2022, 7, 6 ) ;
#281 = VERTEX_POINT ( 'NONE', #160 ) ;
#282 = SECURITY_CLASSIFICATION_LEVEL ( 'unclassified' ) ;
#283 = LINE ( 'NONE', #199, #57 ) ;
#284 = EDGE_CURVE ( 'NONE', #80, #336, #275, .T. ) ;
#285 = AXIS2_PLACEMENT_3D ( 'NONE', #39, #233, #48 ) ;
#286 = DIRECTION ( 'NONE',  ( 0.000000000000000000, 0.000000000000000000, 1.000000000000000000 ) ) ;
#287 = DIRECTION ( 'NONE',  ( 0.000000000000000000, 0.000000000000000000, 1.000000000000000000 ) ) ;
#288 = DIRECTION ( 'NONE',  ( 1.000000000000000000, 0.000000000000000000, -0.000000000000000000 ) ) ;
#289 = CARTESIAN_POINT ( 'NONE',  ( 108.1150000000000091, 2.149255132503607638E-16, 9.529999999999999361 ) ) ;
#290 = CIRCLE ( 'NONE', #97, 101.5999999999999943 ) ;
#291 = EDGE_CURVE ( 'NONE', #179, #215, #331, .T. ) ;
#292 = CYLINDRICAL_SURFACE ( 'NONE', #88, 111.1250000000000000 ) ;
#293 = PLANE ( 'NONE',  #296 ) ;
#294 = EDGE_CURVE ( 'NONE', #407, #142, #163, .T. ) ;
#295 = LINE ( 'NONE', #332, #249 ) ;
#296 = AXIS2_PLACEMENT_3D ( 'NONE', #5, #165, #288 ) ;
#297 = CC_DESIGN_APPROVAL ( #41, ( #92 ) ) ;
#298 = CARTESIAN_POINT ( 'NONE',  ( 0.000000000000000000, 0.000000000000000000, 0.000000000000000000 ) ) ;
#299 = EDGE_LOOP ( 'NONE', ( #54, #406, #24, #371 ) ) ;
#300 = DIRECTION ( 'NONE',  ( -0.000000000000000000, -0.000000000000000000, -1.000000000000000000 ) ) ;
#301 = VECTOR ( 'NONE', #226, 1000.000000000000000 ) ;
#302 = EDGE_CURVE ( 'NONE', #336, #215, #283, .T. ) ;
#303 = FACE_OUTER_BOUND ( 'NONE', #118, .T. ) ;
#304 = ORIENTED_EDGE ( 'NONE', *, *, #328, .T. ) ;
#305 = CARTESIAN_POINT ( 'NONE',  ( -106.3599999999999994, 0.000000000000000000, 9.529999999999999361 ) ) ;
#306 = ORIENTED_EDGE ( 'NONE', *, *, #177, .F. ) ;
#307 = DATE_AND_TIME ( #347, #312 ) ;
#308 = ORIENTED_EDGE ( 'NONE', *, *, #161, .F. ) ;
#309 = PERSON_AND_ORGANIZATION_ROLE ( 'creator' ) ;
#310 = ADVANCED_FACE ( 'NONE', ( #231 ), #110, .F. ) ;
#311 = CIRCLE ( 'NONE', #139, 101.5999999999999943 ) ;
#312 = LOCAL_TIME ( 10, 20, 44.00000000000000000, #245 ) ;
#313 = ORIENTED_EDGE ( 'NONE', *, *, #37, .T. ) ;
#314 = PERSON_AND_ORGANIZATION ( #320, #348 ) ;
#315 = EDGE_LOOP ( 'NONE', ( #15, #138 ) ) ;
#316 = COORDINATED_UNIVERSAL_TIME_OFFSET ( 5, 0, .BEHIND. ) ;
#317 = EDGE_LOOP ( 'NONE', ( #273, #376, #25, #212 ) ) ;
#318 = EDGE_LOOP ( 'NONE', ( #53, #152 ) ) ;
#319 = CARTESIAN_POINT ( 'NONE',  ( 0.000000000000000000, 0.000000000000000000, 9.529999999999999361 ) ) ;
#320 = PERSON ( 'UNSPECIFIED', 'UNSPECIFIED', 'UNSPECIFIED', ('UNSPECIFIED'), ('UNSPECIFIED'), ('UNSPECIFIED') ) ;
#321 = FACE_OUTER_BOUND ( 'NONE', #240, .T. ) ;
#322 = FACE_BOUND ( 'NONE', #315, .T. ) ;
#323 = PRODUCT_RELATED_PRODUCT_CATEGORY ( 'detail', '', ( #130 ) ) ;
#324 = DIRECTION ( 'NONE',  ( 1.000000000000000000, 0.000000000000000000, 0.000000000000000000 ) ) ;
#325 = AXIS2_PLACEMENT_3D ( 'NONE', #338, #106, #74 ) ;
#326 = CARTESIAN_POINT ( 'NONE',  ( 108.1150000000000091, 2.149255132503602215E-16, 0.000000000000000000 ) ) ;
#327 = CARTESIAN_POINT ( 'NONE',  ( -111.1250000000000000, 0.000000000000000000, 9.529999999999999361 ) ) ;
#328 = EDGE_CURVE ( 'NONE', #188, #13, #311, .T. ) ;
#329 = CARTESIAN_POINT ( 'NONE',  ( -104.6049999999999898, 2.149255132503602215E-16, 0.000000000000000000 ) ) ;
#330 = CYLINDRICAL_SURFACE ( 'NONE', #49, 111.1250000000000000 ) ;
#331 = CIRCLE ( 'NONE', #150, 111.1250000000000000 ) ;
#332 = CARTESIAN_POINT ( 'NONE',  ( 101.5999999999999943, 1.244241147933710746E-14, 9.529999999999999361 ) ) ;
#333 = VERTEX_POINT ( 'NONE', #329 ) ;
#334 = DIRECTION ( 'NONE',  ( 1.000000000000000000, 0.000000000000000000, 0.000000000000000000 ) ) ;
#335 = EDGE_CURVE ( 'NONE', #13, #277, #295, .T. ) ;
#336 = VERTEX_POINT ( 'NONE', #206 ) ;
#337 = ORIENTED_EDGE ( 'NONE', *, *, #166, .T. ) ;
#338 = CARTESIAN_POINT ( 'NONE',  ( -106.3599999999999994, 0.000000000000000000, 9.529999999999999361 ) ) ;
#339 = AXIS2_PLACEMENT_3D ( 'NONE', #61, #171, #241 ) ;
#340 = DIRECTION ( 'NONE',  ( -1.000000000000000000, 0.000000000000000000, 0.000000000000000000 ) ) ;
#341 = LOCAL_TIME ( 10, 20, 44.00000000000000000, #343 ) ;
#342 = ORIENTED_EDGE ( 'NONE', *, *, #161, .T. ) ;
#343 = COORDINATED_UNIVERSAL_TIME_OFFSET ( 5, 0, .BEHIND. ) ;
#344 = ORIENTED_EDGE ( 'NONE', *, *, #284, .T. ) ;
#345 = APPROVAL_ROLE ( '' ) ;
#346 = ORIENTED_EDGE ( 'NONE', *, *, #291, .T. ) ;
#347 = CALENDAR_DATE ( 2022, 7, 6 ) ;
#348 = ORGANIZATION ( 'UNSPECIFIED', 'UNSPECIFIED', '' ) ;
#349 = ORIENTED_EDGE ( 'NONE', *, *, #73, .F. ) ;
#350 = APPROVAL_DATE_TIME ( #384, #201 ) ;
#351 = DIRECTION ( 'NONE',  ( -1.000000000000000000, 0.000000000000000000, 0.000000000000000000 ) ) ;
#352 = EDGE_LOOP ( 'NONE', ( #22, #210, #243, #346 ) ) ;
#353 = PERSON_AND_ORGANIZATION ( #320, #348 ) ;
#354 = FACE_OUTER_BOUND ( 'NONE', #299, .T. ) ;
#355 = PLANE ( 'NONE',  #65 ) ;
#356 = CARTESIAN_POINT ( 'NONE',  ( 104.6049999999999898, 0.000000000000000000, 0.000000000000000000 ) ) ;
#357 = CC_DESIGN_DATE_AND_TIME_ASSIGNMENT ( #155, #52, ( #382 ) ) ;
#358 = DIRECTION ( 'NONE',  ( 1.000000000000000000, 0.000000000000000000, 0.000000000000000000 ) ) ;
#359 = CARTESIAN_POINT ( 'NONE',  ( -106.3599999999999994, 0.000000000000000000, 9.529999999999999361 ) ) ;
#360 = AXIS2_PLACEMENT_3D ( 'NONE', #2, #261, #133 ) ;
#361 = DIRECTION ( 'NONE',  ( 1.000000000000000000, 0.000000000000000000, 0.000000000000000000 ) ) ;
#362 =( GEOMETRIC_REPRESENTATION_CONTEXT ( 3 ) GLOBAL_UNCERTAINTY_ASSIGNED_CONTEXT ( ( #68 ) ) GLOBAL_UNIT_ASSIGNED_CONTEXT ( ( #134, #394, #144 ) ) REPRESENTATION_CONTEXT ( 'NONE', 'WORKASPACE' ) );
#363 = ADVANCED_FACE ( 'NONE', ( #104 ), #330, .T. ) ;
#364 = CARTESIAN_POINT ( 'NONE',  ( 108.1150000000000091, 2.149255132503602215E-16, 9.529999999999999361 ) ) ;
#365 = CARTESIAN_POINT ( 'NONE',  ( -104.6049999999999898, 2.149255132503602215E-16, 9.529999999999999361 ) ) ;
#366 = AXIS2_PLACEMENT_3D ( 'NONE', #271, #87, #385 ) ;
#367 = EDGE_CURVE ( 'NONE', #81, #277, #290, .T. ) ;
#368 = DIRECTION ( 'NONE',  ( -1.000000000000000000, 0.000000000000000000, 0.000000000000000000 ) ) ;
#369 = CARTESIAN_POINT ( 'NONE',  ( 104.6049999999999898, 0.000000000000000000, 9.529999999999999361 ) ) ;
#370 = EDGE_LOOP ( 'NONE', ( #410, #313, #47, #11 ) ) ;
#371 = ORIENTED_EDGE ( 'NONE', *, *, #278, .F. ) ;
#372 = EDGE_CURVE ( 'NONE', #279, #142, #191, .T. ) ;
#373 = AXIS2_PLACEMENT_3D ( 'NONE', #402, #415, #158 ) ;
#374 = VERTEX_POINT ( 'NONE', #369 ) ;
#375 = PERSON_AND_ORGANIZATION_ROLE ( 'creator' ) ;
#376 = ORIENTED_EDGE ( 'NONE', *, *, #409, .T. ) ;
#377 = DATE_AND_TIME ( #213, #258 ) ;
#378 = ORIENTED_EDGE ( 'NONE', *, *, #335, .T. ) ;
#379 = APPROVAL_STATUS ( 'not_yet_approved' ) ;
#380 = FACE_OUTER_BOUND ( 'NONE', #370, .T. ) ;
#381 = VECTOR ( 'NONE', #32, 1000.000000000000000 ) ;
#382 = SECURITY_CLASSIFICATION ( '', '', #282 ) ;
#383 = ORIENTED_EDGE ( 'NONE', *, *, #395, .T. ) ;
#384 = DATE_AND_TIME ( #250, #42 ) ;
#385 = DIRECTION ( 'NONE',  ( 1.000000000000000000, 0.000000000000000000, 0.000000000000000000 ) ) ;
#386 = LINE ( 'NONE', #399, #396 ) ;
#387 = CARTESIAN_POINT ( 'NONE',  ( 0.000000000000000000, 0.000000000000000000, 0.000000000000000000 ) ) ;
#388 = ADVANCED_FACE ( 'NONE', ( #230 ), #135, .T. ) ;
#389 = CARTESIAN_POINT ( 'NONE',  ( 101.5999999999999943, 1.244241147933710746E-14, 0.000000000000000000 ) ) ;
#390 = FACE_BOUND ( 'NONE', #112, .T. ) ;
#391 = CARTESIAN_POINT ( 'NONE',  ( 0.000000000000000000, 0.000000000000000000, -0.002000000000000000042 ) ) ;
#392 = AXIS2_PLACEMENT_3D ( 'NONE', #59, #185, #397 ) ;
#393 = CC_DESIGN_APPROVAL ( #201, ( #382 ) ) ;
#394 =( NAMED_UNIT ( * ) PLANE_ANGLE_UNIT ( ) SI_UNIT ( $, .RADIAN. ) );
#395 = EDGE_CURVE ( 'NONE', #13, #188, #66, .T. ) ;
#396 = VECTOR ( 'NONE', #173, 1000.000000000000000 ) ;
#397 = DIRECTION ( 'NONE',  ( 1.000000000000000000, 0.000000000000000000, 0.000000000000000000 ) ) ;
#398 = DIRECTION ( 'NONE',  ( 0.000000000000000000, 0.000000000000000000, 1.000000000000000000 ) ) ;
#399 = CARTESIAN_POINT ( 'NONE',  ( -101.5999999999999943, 0.000000000000000000, 9.529999999999999361 ) ) ;
#400 = VERTEX_POINT ( 'NONE', #365 ) ;
#401 = CC_DESIGN_PERSON_AND_ORGANIZATION_ASSIGNMENT ( #314, #375, ( #128 ) ) ;
#402 = CARTESIAN_POINT ( 'NONE',  ( -106.3599999999999994, 0.000000000000000000, 9.529999999999999361 ) ) ;
#403 = ORIENTED_EDGE ( 'NONE', *, *, #265, .T. ) ;
#404 = PERSON_AND_ORGANIZATION_ROLE ( 'design_owner' ) ;
#405 = AXIS2_PLACEMENT_3D ( 'NONE', #157, #145, #219 ) ;
#406 = ORIENTED_EDGE ( 'NONE', *, *, #294, .T. ) ;
#407 = VERTEX_POINT ( 'NONE', #364 ) ;
#408 = APPLICATION_PROTOCOL_DEFINITION ( 'international standard', 'config_control_design', 1994, #17 ) ;
#409 = EDGE_CURVE ( 'NONE', #400, #333, #170, .T. ) ;
#410 = ORIENTED_EDGE ( 'NONE', *, *, #294, .F. ) ;
#411 = PERSON_AND_ORGANIZATION ( #320, #348 ) ;
#412 = DIRECTION ( 'NONE',  ( -1.000000000000000000, 0.000000000000000000, 0.000000000000000000 ) ) ;
#413 = CIRCLE ( 'NONE', #366, 1.755000000000006555 ) ;
#414 = ADVANCED_BREP_SHAPE_REPRESENTATION ( 'Web Model 19311_22589', ( #156, #103 ), #362 ) ;
#415 = DIRECTION ( 'NONE',  ( 0.000000000000000000, 0.000000000000000000, 1.000000000000000000 ) ) ;
ENDSEC;
END-ISO-10303-21;
