  0
SECTION
  2
HEADER
  9
$ACADVER
  1
AC1012
  9
$DWGCODEPAGE
  3
ANSI_1252
  9
$INSBASE
 10
0.0
 20
0.0
 30
0.0
  9
$EXTMIN
 10
0.1873298831660577
 20
0.4763682885427656
 30
-0.0000164751332946
  9
$EXTMAX
 10
17.21910697027001
 20
11.50763847214651
 30
0.3600164818391755
  9
$LIMMIN
 10
0.0
 20
0.0
  9
$LIMMAX
 10
17.0
 20
11.0
  9
$ORTHOMODE
 70
     1
  9
$REGENMODE
 70
     1
  9
$FILLMODE
 70
     1
  9
$QTEXTMODE
 70
     0
  9
$MIRRTEXT
 70
     0
  9
$DRAGMODE
 70
     2
  9
$LTSCALE
 40
0.35
  9
$OSMODE
 70
    37
  9
$ATTMODE
 70
     1
  9
$TEXTSIZE
 40
0.08
  9
$TRACEWID
 40
0.05
  9
$TEXTSTYLE
  7
STANDARD
  9
$CLAYER
  8
S1
  9
$CELTYPE
  6
BYLAYER
  9
$CECOLOR
 62
   256
  9
$CELTSCALE
 40
1.0
  9
$DELOBJ
 70
     1
  9
$DISPSILH
 70
     0
  9
$DIMSCALE
 40
1.0
  9
$DIMASZ
 40
0.18
  9
$DIMEXO
 40
0.04
  9
$DIMDLI
 40
0.38
  9
$DIMRND
 40
0.0
  9
$DIMDLE
 40
0.0
  9
$DIMEXE
 40
0.04
  9
$DIMTP
 40
0.0
  9
$DIMTM
 40
0.0
  9
$DIMTXT
 40
0.1
  9
$DIMCEN
 40
0.09
  9
$DIMTSZ
 40
0.0
  9
$DIMTOL
 70
     0
  9
$DIMLIM
 70
     0
  9
$DIMTIH
 70
     1
  9
$DIMTOH
 70
     1
  9
$DIMSE1
 70
     0
  9
$DIMSE2
 70
     0
  9
$DIMTAD
 70
     0
  9
$DIMZIN
 70
     0
  9
$DIMBLK
  1

  9
$DIMASO
 70
     0
  9
$DIMSHO
 70
     0
  9
$DIMPOST
  1

  9
$DIMAPOST
  1

  9
$DIMALT
 70
     0
  9
$DIMALTD
 70
     2
  9
$DIMALTF
 40
25.4
  9
$DIMLFAC
 40
1.0
  9
$DIMTOFL
 70
     0
  9
$DIMTVP
 40
0.0
  9
$DIMTIX
 70
     0
  9
$DIMSOXD
 70
     0
  9
$DIMSAH
 70
     0
  9
$DIMBLK1
  1

  9
$DIMBLK2
  1

  9
$DIMSTYLE
  2
STANDARD
  9
$DIMCLRD
 70
     0
  9
$DIMCLRE
 70
     0
  9
$DIMCLRT
 70
     0
  9
$DIMTFAC
 40
1.0
  9
$DIMGAP
 40
0.09
  9
$DIMJUST
 70
     0
  9
$DIMSD1
 70
     0
  9
$DIMSD2
 70
     0
  9
$DIMTOLJ
 70
     1
  9
$DIMTZIN
 70
     0
  9
$DIMALTZ
 70
     0
  9
$DIMALTTZ
 70
     0
  9
$DIMFIT
 70
     0
  9
$DIMUPT
 70
     1
  9
$DIMUNIT
 70
     2
  9
$DIMDEC
 70
     3
  9
$DIMTDEC
 70
     3
  9
$DIMALTU
 70
     2
  9
$DIMALTTD
 70
     2
  9
$DIMTXSTY
  7
STANDARD
  9
$DIMAUNIT
 70
     0
  9
$LUNITS
 70
     2
  9
$LUPREC
 70
     8
  9
$SKETCHINC
 40
0.005
  9
$FILLETRAD
 40
0.0
  9
$AUNITS
 70
     0
  9
$AUPREC
 70
     0
  9
$MENU
  1
C:\R13\WIN\SUPPORT\ACAD
  9
$ELEVATION
 40
0.0
  9
$PELEVATION
 40
0.0
  9
$THICKNESS
 40
0.0
  9
$LIMCHECK
 70
     0
  9
$BLIPMODE
 70
     0
  9
$CHAMFERA
 40
0.3
  9
$CHAMFERB
 40
0.3
  9
$CHAMFERC
 40
0.0
  9
$CHAMFERD
 40
0.0
  9
$SKPOLY
 70
     0
  9
$TDCREATE
 40
2449547.531668518
  9
$TDUPDATE
 40
2453224.408363622
  9
$TDINDWG
 40
1.3843540625
  9
$TDUSRTIMER
 40
1.3843540625
  9
$USRTIMER
 70
     1
  9
$ANGBASE
 50
0.0
  9
$ANGDIR
 70
     0
  9
$PDMODE
 70
     0
  9
$PDSIZE
 40
0.0
  9
$PLINEWID
 40
0.03
  9
$COORDS
 70
     1
  9
$SPLFRAME
 70
     0
  9
$SPLINETYPE
 70
     6
  9
$SPLINESEGS
 70
     8
  9
$ATTDIA
 70
     0
  9
$ATTREQ
 70
     1
  9
$HANDLING
 70
-16383
  9
$HANDSEED
  5
6D5F
  9
$SURFTAB1
 70
     6
  9
$SURFTAB2
 70
     6
  9
$SURFTYPE
 70
     6
  9
$SURFU
 70
     6
  9
$SURFV
 70
     6
  9
$UCSNAME
  2

  9
$UCSORG
 10
0.0
 20
0.0
 30
0.0
  9
$UCSXDIR
 10
1.0
 20
0.0
 30
0.0
  9
$UCSYDIR
 10
0.0
 20
1.0
 30
0.0
  9
$PUCSNAME
  2

  9
$PUCSORG
 10
0.0
 20
0.0
 30
0.0
  9
$PUCSXDIR
 10
1.0
 20
0.0
 30
0.0
  9
$PUCSYDIR
 10
0.0
 20
1.0
 30
0.0
  9
$USERI1
 70
     0
  9
$USERI2
 70
     0
  9
$USERI3
 70
     0
  9
$USERI4
 70
     0
  9
$USERI5
 70
     0
  9
$USERR1
 40
0.0
  9
$USERR2
 40
0.0
  9
$USERR3
 40
0.0
  9
$USERR4
 40
0.0
  9
$USERR5
 40
0.0
  9
$WORLDVIEW
 70
     1
  9
$SHADEDGE
 70
     3
  9
$SHADEDIF
 70
    70
  9
$TILEMODE
 70
     1
  9
$MAXACTVP
 70
    16
  9
$PINSBASE
 10
0.0
 20
0.0
 30
0.0
  9
$PLIMCHECK
 70
     0
  9
$PEXTMIN
 10
1.000000000000000E+20
 20
1.000000000000000E+20
 30
1.000000000000000E+20
  9
$PEXTMAX
 10
-1.000000000000000E+20
 20
-1.000000000000000E+20
 30
-1.000000000000000E+20
  9
$PLIMMIN
 10
0.0
 20
0.0
  9
$PLIMMAX
 10
12.0
 20
9.0
  9
$UNITMODE
 70
     0
  9
$VISRETAIN
 70
     0
  9
$PLINEGEN
 70
     0
  9
$PSLTSCALE
 70
     0
  9
$TREEDEPTH
 70
  3020
  9
$PICKSTYLE
 70
     1
  9
$CMLSTYLE
  2
STANDARD
  9
$CMLJUST
 70
     0
  9
$CMLSCALE
 40
1.0
  9
$SAVEIMAGES
 70
     1
  0
ENDSEC
  0
SECTION
  2
CLASSES
  0
CLASS
  1
LWPOLYLINE
  2
AcDbPolyline
  3
AutoCAD 2000
 90
    32768
280
     0
281
     1
  0
CLASS
  1
ACDBDICTIONARYWDFLT
  2
AcDbDictionaryWithDefault
  3
AutoCAD 2000
 90
    32768
280
     0
281
     0
  0
CLASS
  1
ACDBPLACEHOLDER
  2
AcDbPlaceHolder
  3
AutoCAD 2000
 90
    32768
280
     0
281
     0
  0
CLASS
  1
LAYOUT
  2
AcDbLayout
  3
AutoCAD 2000
 90
    32768
280
     0
281
     0
  0
CLASS
  1
DICTIONARYVAR
  2
AcDbDictionaryVar
  3
AutoCAD 2000
 90
    32768
280
     0
281
     0
  0
CLASS
  1
LONG_TRANSACTION
  2
AcDbLongTransaction
  3
AutoCAD 2000
 90
    32768
280
     0
281
     0
  0
CLASS
  1
LWPOLYLINE
  2
AcDbPolyline
  3
AutoCAD 2000
 90
    32768
280
     0
281
     1
  0
CLASS
  1
HATCH
  2
AcDbHatch
  3
AutoCAD 2000
 90
    32768
280
     0
281
     1
  0
CLASS
  1
XRECORD
  2
AcDbXrecord
  3
AutoCAD 2000
 90
    32768
280
     0
281
     0
  0
ENDSEC
  0
SECTION
  2
TABLES
  0
TABLE
  2
VPORT
  5
8
330
0
100
AcDbSymbolTable
 70
     2
  0
VPORT
  5
6BDD
330
8
100
AcDbSymbolTableRecord
100
AcDbViewportTableRecord
  2
*ACTIVE
 70
     0
 10
0.0
 20
0.0
 11
1.0
 21
1.0
 12
8.702959959589154
 22
6.006860842426909
 13
0.0
 23
0.0
 14
0.005
 24
0.005
 15
0.25
 25
0.25
 16
0.0
 26
0.0
 36
1.0
 17
0.0
 27
0.0
 37
0.0
 40
11.1787090806794
 41
1.735074626865671
 42
50.0
 43
0.0
 44
0.0
 50
0.0
 51
0.0
 71
     0
 72
 20000
 73
     1
 74
     2
 75
     0
 76
     0
 77
     0
 78
     0
  0
ENDTAB
  0
TABLE
  2
LTYPE
  5
5
330
0
100
AcDbSymbolTable
 70
     4
  0
LTYPE
  5
12
330
5
100
AcDbSymbolTableRecord
100
AcDbLinetypeTableRecord
  2
BYBLOCK
 70
     0
  3

 72
    65
 73
     0
 40
0.0
  0
LTYPE
  5
13
330
5
100
AcDbSymbolTableRecord
100
AcDbLinetypeTableRecord
  2
BYLAYER
 70
     0
  3

 72
    65
 73
     0
 40
0.0
  0
LTYPE
  5
14
330
5
100
AcDbSymbolTableRecord
100
AcDbLinetypeTableRecord
  2
CONTINUOUS
 70
     0
  3
Solid line
 72
    65
 73
     0
 40
0.0
  0
LTYPE
  5
5DB4
330
5
100
AcDbSymbolTableRecord
100
AcDbLinetypeTableRecord
  2
HIDDEN
 70
     0
  3
Hidden __ __ __ __ __ __ __ __ __ __ __ __ __ _
 72
    65
 73
     2
 40
0.375
 49
0.25
 74
     0
 49
-0.125
 74
     0
  0
LTYPE
  5
627A
330
5
100
AcDbSymbolTableRecord
100
AcDbLinetypeTableRecord
  2
CENTER
 70
     0
  3
Center ____ _ ____ _ ____ _ ____ _ ____ _ ____
 72
    65
 73
     4
 40
2.0
 49
1.25
 74
     0
 49
-0.25
 74
     0
 49
0.25
 74
     0
 49
-0.25
 74
     0
  0
LTYPE
  5
68C0
330
5
100
AcDbSymbolTableRecord
100
AcDbLinetypeTableRecord
  2
CENTER2
 70
     0
  3
Center (.5x) ___ _ ___ _ ___ _ ___ _ ___ _ ___
 72
    65
 73
     4
 40
1.125
 49
0.75
 74
     0
 49
-0.125
 74
     0
 49
0.125
 74
     0
 49
-0.125
 74
     0
  0
ENDTAB
  0
TABLE
  2
LAYER
  5
2
330
0
100
AcDbSymbolTable
 70
    14
  0
LAYER
  5
F
330
2
100
AcDbSymbolTableRecord
100
AcDbLayerTableRecord
  2
0
 70
     0
 62
     7
  6
CONTINUOUS
  0
LAYER
  5
1E
330
2
100
AcDbSymbolTableRecord
100
AcDbLayerTableRecord
  2
BORDER
 70
     0
 62
     7
  6
CONTINUOUS
  0
LAYER
  5
20
330
2
100
AcDbSymbolTableRecord
100
AcDbLayerTableRecord
  2
D1
 70
     0
 62
     7
  6
CONTINUOUS
  0
LAYER
  5
13F
330
2
100
AcDbSymbolTableRecord
100
AcDbLayerTableRecord
  2
S2
 70
     0
 62
     7
  6
CONTINUOUS
  0
LAYER
  5
5944
330
2
100
AcDbSymbolTableRecord
100
AcDbLayerTableRecord
  2
S1
 70
     0
 62
     7
  6
CONTINUOUS
  0
LAYER
  5
5DFF
330
2
100
AcDbSymbolTableRecord
100
AcDbLayerTableRecord
  2
SHEET1
 70
     0
 62
     7
  6
CONTINUOUS
  0
LAYER
  5
6022
330
2
100
AcDbSymbolTableRecord
100
AcDbLayerTableRecord
  2
350280
 70
     0
 62
     7
  6
CONTINUOUS
  0
LAYER
  5
61EE
330
2
100
AcDbSymbolTableRecord
100
AcDbLayerTableRecord
  2
DIM1
 70
     0
 62
     7
  6
CONTINUOUS
  0
LAYER
  5
6225
330
2
100
AcDbSymbolTableRecord
100
AcDbLayerTableRecord
  2
DIM
 70
     0
 62
     7
  6
CONTINUOUS
  0
LAYER
  5
64CC
330
2
100
AcDbSymbolTableRecord
100
AcDbLayerTableRecord
  2
SMA
 70
     0
 62
     7
  6
CONTINUOUS
  0
LAYER
  5
64CD
330
2
100
AcDbSymbolTableRecord
100
AcDbLayerTableRecord
  2
S4
 70
     0
 62
     7
  6
CONTINUOUS
  0
LAYER
  5
6773
330
2
100
AcDbSymbolTableRecord
100
AcDbLayerTableRecord
  2
S3
 70
     0
 62
     7
  6
CONTINUOUS
  0
LAYER
  5
6774
330
2
100
AcDbSymbolTableRecord
100
AcDbLayerTableRecord
  2
DIODE
 70
     0
 62
     7
  6
CONTINUOUS
  0
LAYER
  5
6775
330
2
100
AcDbSymbolTableRecord
100
AcDbLayerTableRecord
  2
S5
 70
     0
 62
     7
  6
CONTINUOUS
  0
ENDTAB
  0
TABLE
  2
STYLE
  5
3
330
0
100
AcDbSymbolTable
 70
     1
  0
STYLE
  5
10
330
3
100
AcDbSymbolTableRecord
100
AcDbTextStyleTableRecord
  2
STANDARD
 70
     0
 40
0.0
 41
1.0
 50
0.0
 71
     0
 42
0.08
  3
txt
  4

  0
ENDTAB
  0
TABLE
  2
VIEW
  5
6
330
0
100
AcDbSymbolTable
 70
     0
  0
ENDTAB
  0
TABLE
  2
UCS
  5
7
330
0
100
AcDbSymbolTable
 70
     0
  0
ENDTAB
  0
TABLE
  2
APPID
  5
9
330
0
100
AcDbSymbolTable
 70
     7
  0
APPID
  5
11
330
9
100
AcDbSymbolTableRecord
100
AcDbRegAppTableRecord
  2
ACAD
 70
     0
  0
APPID
  5
140
330
9
100
AcDbSymbolTableRecord
100
AcDbRegAppTableRecord
  2
AME_SOL
 70
     0
  0
APPID
  5
5904
330
9
100
AcDbSymbolTableRecord
100
AcDbRegAppTableRecord
  2
CONTENTTABDATA
 70
     0
  0
APPID
  5
5905
330
9
100
AcDbSymbolTableRecord
100
AcDbRegAppTableRecord
  2
CONTENTCURRENTTAB
 70
     0
  0
APPID
  5
5908
330
9
100
AcDbSymbolTableRecord
100
AcDbRegAppTableRecord
  2
CONTENTBLOCKDESCRIPTION
 70
     0
  0
APPID
  5
5922
330
9
100
AcDbSymbolTableRecord
100
AcDbRegAppTableRecord
  2
CONTENTLONGBLOCKNAME
 70
     0
  0
APPID
  5
5923
330
9
100
AcDbSymbolTableRecord
100
AcDbRegAppTableRecord
  2
CONTENTBLOCKICON
 70
     0
  0
ENDTAB
  0
TABLE
  2
DIMSTYLE
  5
A
330
0
100
AcDbSymbolTable
 70
     1
  0
DIMSTYLE
105
12F
330
A
100
AcDbSymbolTableRecord
100
AcDbDimStyleTableRecord
  2
STANDARD
 70
     0
  3

  4

  5

  6

  7

 40
1.0
 41
0.18
 42
0.04
 43
0.38
 44
0.04
 45
0.0
 46
0.0
 47
0.0
 48
0.0
140
0.1
141
0.09
142
0.0
143
25.4
144
1.0
145
0.0
146
1.0
147
0.09
 71
     0
 72
     0
 73
     1
 74
     1
 75
     0
 76
     0
 77
     0
 78
     0
170
     0
171
     2
172
     0
173
     0
174
     0
175
     0
176
     0
177
     0
178
     0
270
     2
271
     3
272
     3
273
     2
274
     2
340
10
275
     0
280
     0
281
     0
282
     0
283
     1
284
     0
285
     0
286
     0
287
     3
288
     1
  0
ENDTAB
  0
TABLE
  2
BLOCK_RECORD
  5
1
330
0
100
AcDbSymbolTable
 70
    32
  0
BLOCK_RECORD
  5
18
102
{ACAD_XDICTIONARY
360
6BE0
102
}
330
1
100
AcDbSymbolTableRecord
100
AcDbBlockTableRecord
  2
*MODEL_SPACE
  0
BLOCK_RECORD
  5
15
102
{ACAD_XDICTIONARY
360
6BDE
102
}
330
1
100
AcDbSymbolTableRecord
100
AcDbBlockTableRecord
  2
*PAPER_SPACE
  0
BLOCK_RECORD
  5
139
330
1
100
AcDbSymbolTableRecord
100
AcDbBlockTableRecord
  2
AME_NIL
  0
BLOCK_RECORD
  5
13C
330
1
100
AcDbSymbolTableRecord
100
AcDbBlockTableRecord
  2
AME_SOL
  0
BLOCK_RECORD
  5
5DF5
330
1
100
AcDbSymbolTableRecord
100
AcDbBlockTableRecord
  2
COPYRIGHT03
  0
BLOCK_RECORD
  5
5DF9
330
1
100
AcDbSymbolTableRecord
100
AcDbBlockTableRecord
  2
ESD-INFO
  0
BLOCK_RECORD
  5
61C1
330
1
100
AcDbSymbolTableRecord
100
AcDbBlockTableRecord
  2
A$C6F4D6EFA
  0
BLOCK_RECORD
  5
633A
330
1
100
AcDbSymbolTableRecord
100
AcDbBlockTableRecord
  2
A$C39B157C7
  0
BLOCK_RECORD
  5
6393
330
1
100
AcDbSymbolTableRecord
100
AcDbBlockTableRecord
  2
A$C2EF52C5C
  0
BLOCK_RECORD
  5
63F9
330
1
100
AcDbSymbolTableRecord
100
AcDbBlockTableRecord
  2
A$C19596B21
  0
BLOCK_RECORD
  5
64CE
330
1
100
AcDbSymbolTableRecord
100
AcDbBlockTableRecord
  2
A$C313E7406
  0
BLOCK_RECORD
  5
6530
330
1
100
AcDbSymbolTableRecord
100
AcDbBlockTableRecord
  2
A$C39013EF9
  0
BLOCK_RECORD
  5
65A9
330
1
100
AcDbSymbolTableRecord
100
AcDbBlockTableRecord
  2
A$C61BD28BD
  0
BLOCK_RECORD
  5
65DC
330
1
100
AcDbSymbolTableRecord
100
AcDbBlockTableRecord
  2
A$C1F6670DA
  0
BLOCK_RECORD
  5
667B
330
1
100
AcDbSymbolTableRecord
100
AcDbBlockTableRecord
  2
A$C6BC477B1
  0
BLOCK_RECORD
  5
66FF
330
1
100
AcDbSymbolTableRecord
100
AcDbBlockTableRecord
  2
A$C405C6523
  0
BLOCK_RECORD
  5
6723
330
1
100
AcDbSymbolTableRecord
100
AcDbBlockTableRecord
  2
A$C4575524A
  0
BLOCK_RECORD
  5
6739
330
1
100
AcDbSymbolTableRecord
100
AcDbBlockTableRecord
  2
A$C6F3A2D97
  0
BLOCK_RECORD
  5
6757
330
1
100
AcDbSymbolTableRecord
100
AcDbBlockTableRecord
  2
A$C77CD3A52
  0
BLOCK_RECORD
  5
6760
330
1
100
AcDbSymbolTableRecord
100
AcDbBlockTableRecord
  2
A$C532869D3
  0
BLOCK_RECORD
  5
6776
330
1
100
AcDbSymbolTableRecord
100
AcDbBlockTableRecord
  2
A$C7AF130EF
  0
BLOCK_RECORD
  5
677F
330
1
100
AcDbSymbolTableRecord
100
AcDbBlockTableRecord
  2
A$C020B7361
  0
BLOCK_RECORD
  5
67C9
330
1
100
AcDbSymbolTableRecord
100
AcDbBlockTableRecord
  2
A$C0FB24E91
  0
BLOCK_RECORD
  5
68C1
330
1
100
AcDbSymbolTableRecord
100
AcDbBlockTableRecord
  2
A$C31D660D7
  0
BLOCK_RECORD
  5
69BD
330
1
100
AcDbSymbolTableRecord
100
AcDbBlockTableRecord
  2
A$C10D34D05
  0
BLOCK_RECORD
  5
6A55
330
1
100
AcDbSymbolTableRecord
100
AcDbBlockTableRecord
  2
A$C536F5B75
  0
BLOCK_RECORD
  5
6A98
330
1
100
AcDbSymbolTableRecord
100
AcDbBlockTableRecord
  2
A$C760F02AF
  0
BLOCK_RECORD
  5
6C6F
330
1
100
AcDbSymbolTableRecord
100
AcDbBlockTableRecord
  2
*X25
  0
BLOCK_RECORD
  5
6C9B
330
1
100
AcDbSymbolTableRecord
100
AcDbBlockTableRecord
  2
*X26
  0
BLOCK_RECORD
  5
6CB8
330
1
100
AcDbSymbolTableRecord
100
AcDbBlockTableRecord
  2
*X27
  0
BLOCK_RECORD
  5
6CCA
330
1
100
AcDbSymbolTableRecord
100
AcDbBlockTableRecord
  2
*X28
  0
BLOCK_RECORD
  5
6CDC
330
1
100
AcDbSymbolTableRecord
100
AcDbBlockTableRecord
  2
*U29
  0
BLOCK_RECORD
  5
6D1D
330
1
100
AcDbSymbolTableRecord
100
AcDbBlockTableRecord
  2
*U30
  0
BLOCK_RECORD
  5
6D58
330
1
100
AcDbSymbolTableRecord
100
AcDbBlockTableRecord
  2
*U31
  0
ENDTAB
  0
ENDSEC
  0
SECTION
  2
BLOCKS
  0
BLOCK
  5
28
330
18
100
AcDbEntity
  8
0
100
AcDbBlockBegin
  2
*MODEL_SPACE
 70
     0
 10
0.0
 20
0.0
 30
0.0
  3
*MODEL_SPACE
  1

  0
ENDBLK
  5
29
330
18
100
AcDbEntity
  8
0
100
AcDbBlockEnd
  0
BLOCK
  5
26
330
15
100
AcDbEntity
 67
     1
  8
0
100
AcDbBlockBegin
  2
*PAPER_SPACE
 70
     0
 10
0.0
 20
0.0
 30
0.0
  3
*PAPER_SPACE
  1

  0
ENDBLK
  5
27
330
15
100
AcDbEntity
 67
     1
  8
0
100
AcDbBlockEnd
  0
BLOCK
  5
13A
330
139
100
AcDbEntity
  8
0
100
AcDbBlockBegin
  2
AME_NIL
 70
     0
 10
0.0
 20
0.0
 30
0.0
  3
AME_NIL
  1
AME_NIL
  0
ENDBLK
  5
13B
330
139
100
AcDbEntity
  8
0
100
AcDbBlockEnd
  0
BLOCK
  5
13D
330
13C
100
AcDbEntity
  8
0
100
AcDbBlockBegin
  2
AME_SOL
 70
     0
 10
0.0
 20
0.0
 30
0.0
  3
AME_SOL
  1
AME_SOL
  0
ENDBLK
  5
13E
330
13C
100
AcDbEntity
  8
0
100
AcDbBlockEnd
  0
BLOCK
  5
5DF7
330
5DF5
100
AcDbEntity
  8
0
100
AcDbBlockBegin
  2
COPYRIGHT03
 70
     0
 10
0.0
 20
0.0
 30
0.0
  3
COPYRIGHT03
  1

  0
MTEXT
  5
5DF6
330
5DF5
100
AcDbEntity
  8
BORDER
100
AcDbMText
 10
0.0258733304183885
 20
0.323044704881891
 30
0.0
 40
0.24999
 41
9.340999999999999
 71
     1
 72
     1
  1
{\FVERDANA.TTF;COPYRIGHT \FSYMBOL.TTF;\H1.2x;Ó\FVERDANA.TTF;\H0.8333x; 2003 by THORLABS INC.}
1001
ACAD
1000
MTEXTBEGIN
1070
    73
1070
     1
1070
    44
1040
1.0
1070
    74
1070
     0
1000
MTEXTEND
  0
ENDBLK
  5
5DF8
330
5DF5
100
AcDbEntity
  8
0
100
AcDbBlockEnd
  0
BLOCK
  5
5DFD
330
5DF9
100
AcDbEntity
  8
0
100
AcDbBlockBegin
  2
ESD-INFO
 70
     0
 10
0.0
 20
0.0
 30
0.0
  3
ESD-INFO
  1

  0
LINE
  5
5DFA
330
5DF9
100
AcDbEntity
  8
D1
100
AcDbLine
 10
2.98789804994233
 20
0.0002966651217227
 30
0.0
 11
-2.987323406216175
 21
0.0002966651217227
 31
0.0
  0
LINE
  5
5DFB
330
5DF9
100
AcDbEntity
  8
D1
100
AcDbLine
 10
-2.892290062977073
 20
0.0596366990926454
 30
0.0
 11
2.892864706703228
 21
0.0596366990926454
 31
0.0
  0
TEXT
  5
5DFC
330
5DF9
100
AcDbEntity
  8
D1
100
AcDbText
 10
-2.79456480303434
 20
0.1065187961070997
 30
0.0
 40
0.15
  1
INFORMATION ONLY, NOT FOR MANUFACTURING
100
AcDbText
  0
ENDBLK
  5
5DFE
330
5DF9
100
AcDbEntity
  8
0
100
AcDbBlockEnd
  0
BLOCK
  5
61C3
330
61C1
100
AcDbEntity
  8
0
100
AcDbBlockBegin
  2
A$C6F4D6EFA
 70
     0
 10
0.0
 20
0.0
 30
0.0
  3
A$C6F4D6EFA
  1

  0
TEXT
  5
61C2
330
61C1
100
AcDbEntity
  8
D1
100
AcDbText
 10
0.0000000034144296
 20
0.0000000092623533
 30
0.0
 40
0.0864
  1
KPL
100
AcDbText
  0
ENDBLK
  5
61C4
330
61C1
100
AcDbEntity
  8
0
100
AcDbBlockEnd
  0
BLOCK
  5
6360
330
633A
100
AcDbEntity
  8
0
100
AcDbBlockBegin
  2
A$C39B157C7
 70
     0
 10
0.0
 20
0.0
 30
0.0
  3
A$C39B157C7
  1

  0
MTEXT
  5
633B
330
633A
100
AcDbEntity
  8
D1
  6
CONTINUOUS
100
AcDbMText
 10
-2.175
 20
-0.1999999999999993
 30
0.0
 40
0.12
 41
0.0
 71
     5
 72
     1
  1
D
1001
ACAD
1000
MTEXTBEGIN
1070
    73
1070
     1
1070
    44
1040
1.0
1070
    74
1070
     0
1000
MTEXTEND
  0
MTEXT
  5
633C
330
633A
100
AcDbEntity
  8
D1
  6
CONTINUOUS
100
AcDbMText
 10
-2.175
 20
-0.5999999999999988
 30
0.0
 40
0.1
 41
0.0
 71
     5
 72
     1
  1
3.07mm
1001
ACAD
1000
MTEXTBEGIN
1070
    73
1070
     1
1070
    44
1040
1.0
1070
    74
1070
     0
1000
MTEXTEND
  0
MTEXT
  5
633D
330
633A
100
AcDbEntity
  8
D1
  6
CONTINUOUS
100
AcDbMText
 10
-2.175
 20
-1.399999999999999
 30
0.0
 40
0.1
 41
0.0
 71
     5
 72
     1
  1
3.09mm
1001
ACAD
1000
MTEXTBEGIN
1070
    73
1070
     1
1070
    44
1040
1.0
1070
    74
1070
     0
1000
MTEXTEND
  0
MTEXT
  5
633E
330
633A
100
AcDbEntity
  8
D1
  6
CONTINUOUS
100
AcDbMText
 10
-2.175
 20
-1.799999999999999
 30
0.0
 40
0.1
 41
0.0
 71
     5
 72
     1
  1
3.08mm
1001
ACAD
1000
MTEXTBEGIN
1070
    73
1070
     1
1070
    44
1040
1.0
1070
    74
1070
     0
1000
MTEXTEND
  0
MTEXT
  5
633F
330
633A
100
AcDbEntity
  8
D1
  6
CONTINUOUS
100
AcDbMText
 10
-2.175
 20
-0.9999999999999991
 30
0.0
 40
0.1
 41
0.0
 71
     5
 72
     1
  1
3.06mm
1001
ACAD
1000
MTEXTBEGIN
1070
    73
1070
     1
1070
    44
1040
1.0
1070
    74
1070
     0
1000
MTEXTEND
  0
LINE
  5
6340
330
633A
100
AcDbEntity
  8
0
  6
CONTINUOUS
100
AcDbLine
 10
-3.799812485116218
 20
-0.3999999999999986
 30
0.0
 11
0.0
 21
-0.3999999999999986
 31
0.0
  0
LINE
  5
6341
330
633A
100
AcDbEntity
  8
0
  6
CONTINUOUS
100
AcDbLine
 10
-3.799812485116218
 20
-0.799999999999999
 30
0.0
 11
0.0
 21
-0.799999999999999
 31
0.0
  0
LINE
  5
6342
330
633A
100
AcDbEntity
  8
0
  6
CONTINUOUS
100
AcDbLine
 10
-3.799812485116218
 20
0.0
 30
0.0
 11
0.0
 21
0.0
 31
0.0
  0
LINE
  5
6343
330
633A
100
AcDbEntity
  8
0
  6
CONTINUOUS
100
AcDbLine
 10
-3.799812485116216
 20
-1.199999999999999
 30
0.0
 11
0.0
 21
-1.199999999999999
 31
0.0
  0
LINE
  5
6344
330
633A
100
AcDbEntity
  8
0
  6
CONTINUOUS
100
AcDbLine
 10
-3.799812485116216
 20
-1.599999999999999
 30
0.0
 11
0.0
 21
-1.599999999999999
 31
0.0
  0
LINE
  5
6345
330
633A
100
AcDbEntity
  8
0
  6
CONTINUOUS
100
AcDbLine
 10
-3.799812485116216
 20
-2.0
 30
0.0
 11
0.0
 21
-2.0
 31
0.0
  0
LINE
  5
6346
330
633A
100
AcDbEntity
  8
0
  6
CONTINUOUS
100
AcDbLine
 10
-3.799812485116218
 20
-0.3363540886671705
 30
0.0
 11
0.0
 21
-0.3363540886671705
 31
0.0
  0
MTEXT
  5
6347
330
633A
100
AcDbEntity
  8
D1
  6
CENTER
100
AcDbMText
 10
-3.800202218426505
 20
-2.593417656486868
 30
0.0
 40
0.09
 41
0.0
 71
     7
 72
     1
  1
D = 1/e2 OUTPUT BEAM DIAMETER
1001
ACAD
1000
MTEXTBEGIN
1070
    73
1070
     1
1070
    44
1040
1.0
1070
    74
1070
     0
1000
MTEXTEND
  0
MTEXT
  5
6348
330
633A
100
AcDbEntity
  8
D1
  6
CENTER
100
AcDbMText
 10
-3.800202218426505
 20
-2.818417656486872
 30
0.0
 40
0.09
 41
0.0
 71
     7
 72
     1
  1
{\FCOUR.TTF;\U+03B8\FCOUR.TTF; }= FULL-ANGLE BEAM DIVERGENCE
1001
ACAD
1000
MTEXTBEGIN
1070
    73
1070
     1
1070
    44
1040
1.0
1070
    74
1070
     0
1000
MTEXTEND
  0
MTEXT
  5
6349
330
633A
100
AcDbEntity
  8
D1
  6
CENTER
100
AcDbMText
 10
-3.800202218426505
 20
-3.04341765648687
 30
0.0
 40
0.09
 41
0.0
 71
     7
 72
     1
  1
C = AR COATING
1001
ACAD
1000
MTEXTBEGIN
1070
    73
1070
     1
1070
    44
1040
1.0
1070
    74
1070
     0
1000
MTEXTEND
  0
LINE
  5
634A
330
633A
100
AcDbEntity
  8
0
  6
CONTINUOUS
100
AcDbLine
 10
-2.549648037489975
 20
0.0
 30
0.0
 11
-2.550092844518671
 21
-2.0
 31
0.0
  0
LINE
  5
634B
330
633A
100
AcDbEntity
  8
0
  6
CONTINUOUS
100
AcDbLine
 10
-3.799812485116218
 20
0.0
 30
0.0
 11
-3.799812485116217
 21
-2.0
 31
0.0
  0
MTEXT
  5
634C
330
633A
100
AcDbEntity
  8
D1
  6
CONTINUOUS
100
AcDbMText
 10
-3.174812485116216
 20
-1.389061801446481
 30
0.0
 40
0.1
 41
0.0
 71
     5
 72
     1
  1
F260FC-C
1001
ACAD
1000
MTEXTBEGIN
1070
    73
1070
     1
1070
    44
1040
1.0
1070
    74
1070
     0
1000
MTEXTEND
  0
MTEXT
  5
634D
330
633A
100
AcDbEntity
  8
D1
  6
CONTINUOUS
100
AcDbMText
 10
-3.174812485116216
 20
-1.799999999999999
 30
0.0
 40
0.1
 41
0.0
 71
     5
 72
     1
  1
F260FC-1550
1001
ACAD
1000
MTEXTBEGIN
1070
    73
1070
     1
1070
    44
1040
1.0
1070
    74
1070
     0
1000
MTEXTEND
  0
MTEXT
  5
634E
330
633A
100
AcDbEntity
  8
D1
  6
CONTINUOUS
100
AcDbMText
 10
-3.174812485116216
 20
-0.9919005527816207
 30
0.0
 40
0.1
 41
0.0
 71
     5
 72
     1
  1
F260FC-B
1001
ACAD
1000
MTEXTBEGIN
1070
    73
1070
     1
1070
    44
1040
1.0
1070
    74
1070
     0
1000
MTEXTEND
  0
MTEXT
  5
634F
330
633A
100
AcDbEntity
  8
D1
  6
CENTER
100
AcDbMText
 10
-3.800202218426505
 20
-2.36841765648687
 30
0.0
 40
0.09
 41
0.0
 71
     7
 72
     1
  1
P.N. = PART NUMBER
1001
ACAD
1000
MTEXTBEGIN
1070
    73
1070
     1
1070
    44
1040
1.0
1070
    74
1070
     0
1000
MTEXTEND
  0
MTEXT
  5
6350
330
633A
100
AcDbEntity
  8
D1
  6
CENTER
100
AcDbMText
 10
-3.81726116114528
 20
0.3000676057876852
 30
0.0
 40
0.12
 41
0.0
 71
     1
 72
     1
  1
SPECIFICATIONS:
1001
ACAD
1000
MTEXTBEGIN
1070
    73
1070
     1
1070
    44
1040
1.0
1070
    74
1070
     0
1000
MTEXTEND
  0
MTEXT
  5
6351
330
633A
100
AcDbEntity
  8
D1
  6
CONTINUOUS
100
AcDbMText
 10
-3.174812485116216
 20
-0.5999999999999988
 30
0.0
 40
0.1
 41
0.0
 71
     5
 72
     1
  1
F260FC-A
1001
ACAD
1000
MTEXTBEGIN
1070
    73
1070
     1
1070
    44
1040
1.0
1070
    74
1070
     0
1000
MTEXTEND
  0
MTEXT
  5
6352
330
633A
100
AcDbEntity
  8
D1
  6
CONTINUOUS
100
AcDbMText
 10
-3.174812485116216
 20
-0.1999999999999993
 30
0.0
 40
0.12
 41
0.0
 71
     5
 72
     1
  1
P.N.
1001
ACAD
1000
MTEXTBEGIN
1070
    73
1070
     1
1070
    44
1040
1.0
1070
    74
1070
     0
1000
MTEXTEND
  0
LINE
  5
6353
330
633A
100
AcDbEntity
  8
0
  6
CONTINUOUS
100
AcDbLine
 10
0.0
 20
-2.0
 30
0.0
 11
0.0
 21
0.0
 31
0.0
  0
LINE
  5
6354
330
633A
100
AcDbEntity
  8
0
  6
CONTINUOUS
100
AcDbLine
 10
-1.15
 20
-2.0
 30
0.0
 11
-1.15
 21
0.0
 31
0.0
  0
LINE
  5
6355
330
633A
100
AcDbEntity
  8
0
  6
CONTINUOUS
100
AcDbLine
 10
-1.8
 20
-2.0
 30
0.0
 11
-1.8
 21
0.0
 31
0.0
  0
MTEXT
  5
6356
330
633A
100
AcDbEntity
  8
D1
  6
CONTINUOUS
100
AcDbMText
 10
-0.5750000000000011
 20
-1.799999999999999
 30
0.0
 40
0.1
 41
0.0
 71
     5
 72
     1
  1
1050-1550nm
1001
ACAD
1000
MTEXTBEGIN
1070
    73
1070
     1
1070
    44
1040
1.0
1070
    74
1070
     0
1000
MTEXTEND
  0
MTEXT
  5
6357
330
633A
100
AcDbEntity
  8
D1
  6
CONTINUOUS
100
AcDbMText
 10
-0.5750000000000011
 20
-1.399999999999999
 30
0.0
 40
0.1
 41
0.0
 71
     5
 72
     1
  1
1050-1550nm
1001
ACAD
1000
MTEXTBEGIN
1070
    73
1070
     1
1070
    44
1040
1.0
1070
    74
1070
     0
1000
MTEXTEND
  0
MTEXT
  5
6358
330
633A
100
AcDbEntity
  8
D1
  6
CONTINUOUS
100
AcDbMText
 10
-0.5750000000000011
 20
-0.9999999999999991
 30
0.0
 40
0.1
 41
0.0
 71
     5
 72
     1
  1
600-1050nm
1001
ACAD
1000
MTEXTBEGIN
1070
    73
1070
     1
1070
    44
1040
1.0
1070
    74
1070
     0
1000
MTEXTEND
  0
MTEXT
  5
6359
330
633A
100
AcDbEntity
  8
D1
  6
CONTINUOUS
100
AcDbMText
 10
-1.474999999999999
 20
-1.799999999999999
 30
0.0
 40
0.1
 41
0.0
 71
     5
 72
     1
  1
0.123°
1001
ACAD
1000
MTEXTBEGIN
1070
    73
1070
     1
1070
    44
1040
1.0
1070
    74
1070
     0
1000
MTEXTEND
  0
MTEXT
  5
635A
330
633A
100
AcDbEntity
  8
D1
  6
CONTINUOUS
100
AcDbMText
 10
-1.474999999999999
 20
-1.399999999999999
 30
0.0
 40
0.1
 41
0.0
 71
     5
 72
     1
  1
0.123°
1001
ACAD
1000
MTEXTBEGIN
1070
    73
1070
     1
1070
    44
1040
1.0
1070
    74
1070
     0
1000
MTEXTEND
  0
MTEXT
  5
635B
330
633A
100
AcDbEntity
  8
D1
  6
CONTINUOUS
100
AcDbMText
 10
-1.474999999999999
 20
-0.9999999999999991
 30
0.0
 40
0.1
 41
0.0
 71
     5
 72
     1
  1
0.145°
1001
ACAD
1000
MTEXTBEGIN
1070
    73
1070
     1
1070
    44
1040
1.0
1070
    74
1070
     0
1000
MTEXTEND
  0
MTEXT
  5
635C
330
633A
100
AcDbEntity
  8
D1
  6
CONTINUOUS
100
AcDbMText
 10
-0.5750000000000011
 20
-0.5999999999999988
 30
0.0
 40
0.1
 41
0.0
 71
     5
 72
     1
  1
350-600nm
1001
ACAD
1000
MTEXTBEGIN
1070
    73
1070
     1
1070
    44
1040
1.0
1070
    74
1070
     0
1000
MTEXTEND
  0
MTEXT
  5
635D
330
633A
100
AcDbEntity
  8
D1
  6
CONTINUOUS
100
AcDbMText
 10
-1.474999999999999
 20
-0.1999999999999993
 30
0.0
 40
0.12
 41
0.0
 71
     5
 72
     1
  1
{\FCOUR.TTF;\U+03B8}
1001
ACAD
1000
MTEXTBEGIN
1070
    73
1070
     1
1070
    44
1040
1.0
1070
    74
1070
     0
1000
MTEXTEND
  0
MTEXT
  5
635E
330
633A
100
AcDbEntity
  8
D1
  6
CONTINUOUS
100
AcDbMText
 10
-1.474999999999999
 20
-0.5999999999999988
 30
0.0
 40
0.1
 41
0.0
 71
     5
 72
     1
  1
0.015°
1001
ACAD
1000
MTEXTBEGIN
1070
    73
1070
     1
1070
    44
1040
1.0
1070
    74
1070
     0
1000
MTEXTEND
  0
MTEXT
  5
635F
330
633A
100
AcDbEntity
  8
D1
  6
CONTINUOUS
100
AcDbMText
 10
-0.5750000000000011
 20
-0.1999999999999993
 30
0.0
 40
0.12
 41
0.0
 71
     5
 72
     1
  1
C
1001
ACAD
1000
MTEXTBEGIN
1070
    73
1070
     1
1070
    44
1040
1.0
1070
    74
1070
     0
1000
MTEXTEND
  0
ENDBLK
  5
6361
330
633A
100
AcDbEntity
  8
0
100
AcDbBlockEnd
  0
BLOCK
  5
63B9
330
6393
100
AcDbEntity
  8
0
100
AcDbBlockBegin
  2
A$C2EF52C5C
 70
     0
 10
0.0
 20
0.0
 30
0.0
  3
A$C2EF52C5C
  1

  0
LINE
  5
6394
330
6393
100
AcDbEntity
  8
0
  6
CONTINUOUS
100
AcDbLine
 10
-3.799812485116218
 20
-0.3749999999999982
 30
0.0
 11
0.0
 21
-0.3749999999999982
 31
0.0
  0
MTEXT
  5
6395
330
6393
100
AcDbEntity
  8
D1
  6
CENTER
100
AcDbMText
 10
-3.800202218426505
 20
-2.818417656486872
 30
0.0
 40
0.09
 41
0.0
 71
     7
 72
     1
  1
{\FCOUR.TTF;\U+03B8\FCOUR.TTF; }= FULL-ANGLE BEAM DIVERGENCE
1001
ACAD
1000
MTEXTBEGIN
1070
    73
1070
     1
1070
    44
1040
1.0
1070
    74
1070
     0
1000
MTEXTEND
  0
MTEXT
  5
6396
330
6393
100
AcDbEntity
  8
D1
  6
CENTER
100
AcDbMText
 10
-3.800202218426505
 20
-2.593417656486868
 30
0.0
 40
0.09
 41
0.0
 71
     7
 72
     1
  1
D = 1/e2 OUTPUT BEAM DIAMETER
1001
ACAD
1000
MTEXTBEGIN
1070
    73
1070
     1
1070
    44
1040
1.0
1070
    74
1070
     0
1000
MTEXTEND
  0
LINE
  5
6397
330
6393
100
AcDbEntity
  8
0
  6
CONTINUOUS
100
AcDbLine
 10
-3.799812485116216
 20
-2.0
 30
0.0
 11
0.0
 21
-2.0
 31
0.0
  0
LINE
  5
6398
330
6393
100
AcDbEntity
  8
0
  6
CONTINUOUS
100
AcDbLine
 10
-3.799812485116216
 20
-1.599999999999999
 30
0.0
 11
0.0
 21
-1.599999999999999
 31
0.0
  0
LINE
  5
6399
330
6393
100
AcDbEntity
  8
0
  6
CONTINUOUS
100
AcDbLine
 10
-3.799812485116216
 20
-1.199999999999999
 30
0.0
 11
0.0
 21
-1.199999999999999
 31
0.0
  0
LINE
  5
639A
330
6393
100
AcDbEntity
  8
0
  6
CONTINUOUS
100
AcDbLine
 10
-3.799812485116218
 20
0.0
 30
0.0
 11
0.0
 21
0.0
 31
0.0
  0
LINE
  5
639B
330
6393
100
AcDbEntity
  8
0
  6
CONTINUOUS
100
AcDbLine
 10
-3.799812485116218
 20
-0.799999999999999
 30
0.0
 11
0.0
 21
-0.799999999999999
 31
0.0
  0
LINE
  5
639C
330
6393
100
AcDbEntity
  8
0
  6
CONTINUOUS
100
AcDbLine
 10
-3.799812485116218
 20
-0.3999999999999986
 30
0.0
 11
0.0
 21
-0.3999999999999986
 31
0.0
  0
LINE
  5
639D
330
6393
100
AcDbEntity
  8
0
  6
CONTINUOUS
100
AcDbLine
 10
-1.8
 20
-2.0
 30
0.0
 11
-1.8
 21
0.0
 31
0.0
  0
LINE
  5
639E
330
6393
100
AcDbEntity
  8
0
  6
CONTINUOUS
100
AcDbLine
 10
-3.799812485116218
 20
0.0
 30
0.0
 11
-3.799812485116216
 21
-2.0
 31
0.0
  0
LINE
  5
639F
330
6393
100
AcDbEntity
  8
0
  6
CONTINUOUS
100
AcDbLine
 10
-2.549648037489975
 20
0.0
 30
0.0
 11
-2.550092844518671
 21
-2.0
 31
0.0
  0
MTEXT
  5
63A0
330
6393
100
AcDbEntity
  8
D1
  6
CENTER
100
AcDbMText
 10
-3.800202218426505
 20
-2.36841765648687
 30
0.0
 40
0.09
 41
0.0
 71
     7
 72
     1
  1
P.N. = PART NUMBER
1001
ACAD
1000
MTEXTBEGIN
1070
    73
1070
     1
1070
    44
1040
1.0
1070
    74
1070
     0
1000
MTEXTEND
  0
MTEXT
  5
63A1
330
6393
100
AcDbEntity
  8
D1
  6
CONTINUOUS
100
AcDbMText
 10
-3.174812485116216
 20
-1.799999999999999
 30
0.0
 40
0.1
 41
0.0
 71
     5
 72
     1
  1
F260FC-1550
1001
ACAD
1000
MTEXTBEGIN
1070
    73
1070
     1
1070
    44
1040
1.0
1070
    74
1070
     0
1000
MTEXTEND
  0
MTEXT
  5
63A2
330
6393
100
AcDbEntity
  8
D1
  6
CENTER
100
AcDbMText
 10
-3.800202218426505
 20
-3.04341765648687
 30
0.0
 40
0.09
 41
0.0
 71
     7
 72
     1
  1
C = AR COATING
1001
ACAD
1000
MTEXTBEGIN
1070
    73
1070
     1
1070
    44
1040
1.0
1070
    74
1070
     0
1000
MTEXTEND
  0
MTEXT
  5
63A3
330
6393
100
AcDbEntity
  8
D1
  6
CONTINUOUS
100
AcDbMText
 10
-2.175
 20
-1.799999999999999
 30
0.0
 40
0.1
 41
0.0
 71
     5
 72
     1
  1
2.87mm
1001
ACAD
1000
MTEXTBEGIN
1070
    73
1070
     1
1070
    44
1040
1.0
1070
    74
1070
     0
1000
MTEXTEND
  0
MTEXT
  5
63A4
330
6393
100
AcDbEntity
  8
D1
  6
CONTINUOUS
100
AcDbMText
 10
-3.174812485116216
 20
-0.1999999999999993
 30
0.0
 40
0.12
 41
0.0
 71
     5
 72
     1
  1
P.N.
1001
ACAD
1000
MTEXTBEGIN
1070
    73
1070
     1
1070
    44
1040
1.0
1070
    74
1070
     0
1000
MTEXTEND
  0
MTEXT
  5
63A5
330
6393
100
AcDbEntity
  8
D1
  6
CONTINUOUS
100
AcDbMText
 10
-3.174812485116216
 20
-0.5999999999999979
 30
0.0
 40
0.1
 41
0.0
 71
     5
 72
     1
  1
F260FC-A
1001
ACAD
1000
MTEXTBEGIN
1070
    73
1070
     1
1070
    44
1040
1.0
1070
    74
1070
     0
1000
MTEXTEND
  0
MTEXT
  5
63A6
330
6393
100
AcDbEntity
  8
D1
  6
CENTER
100
AcDbMText
 10
-3.81726116114528
 20
0.3000676057876852
 30
0.0
 40
0.12
 41
0.0
 71
     1
 72
     1
  1
SPECIFICATIONS:
1001
ACAD
1000
MTEXTBEGIN
1070
    73
1070
     1
1070
    44
1040
1.0
1070
    74
1070
     0
1000
MTEXTEND
  0
MTEXT
  5
63A7
330
6393
100
AcDbEntity
  8
D1
  6
CONTINUOUS
100
AcDbMText
 10
-3.174812485116216
 20
-0.9919005527816207
 30
0.0
 40
0.1
 41
0.0
 71
     5
 72
     1
  1
F260FC-B
1001
ACAD
1000
MTEXTBEGIN
1070
    73
1070
     1
1070
    44
1040
1.0
1070
    74
1070
     0
1000
MTEXTEND
  0
MTEXT
  5
63A8
330
6393
100
AcDbEntity
  8
D1
  6
CONTINUOUS
100
AcDbMText
 10
-3.174812485116216
 20
-1.389061801446481
 30
0.0
 40
0.1
 41
0.0
 71
     5
 72
     1
  1
F260FC-C
1001
ACAD
1000
MTEXTBEGIN
1070
    73
1070
     1
1070
    44
1040
1.0
1070
    74
1070
     0
1000
MTEXTEND
  0
MTEXT
  5
63A9
330
6393
100
AcDbEntity
  8
D1
  6
CONTINUOUS
100
AcDbMText
 10
-2.175
 20
-0.5999999999999979
 30
0.0
 40
0.1
 41
0.0
 71
     5
 72
     1
  1
3.02mm
1001
ACAD
1000
MTEXTBEGIN
1070
    73
1070
     1
1070
    44
1040
1.0
1070
    74
1070
     0
1000
MTEXTEND
  0
MTEXT
  5
63AA
330
6393
100
AcDbEntity
  8
D1
  6
CONTINUOUS
100
AcDbMText
 10
-2.175
 20
-1.0
 30
0.0
 40
0.1
 41
0.0
 71
     5
 72
     1
  1
3.08mm
1001
ACAD
1000
MTEXTBEGIN
1070
    73
1070
     1
1070
    44
1040
1.0
1070
    74
1070
     0
1000
MTEXTEND
  0
MTEXT
  5
63AB
330
6393
100
AcDbEntity
  8
D1
  6
CONTINUOUS
100
AcDbMText
 10
-2.175
 20
-1.399999999999999
 30
0.0
 40
0.1
 41
0.0
 71
     5
 72
     1
  1
2.74mm
1001
ACAD
1000
MTEXTBEGIN
1070
    73
1070
     1
1070
    44
1040
1.0
1070
    74
1070
     0
1000
MTEXTEND
  0
MTEXT
  5
63AC
330
6393
100
AcDbEntity
  8
D1
  6
CONTINUOUS
100
AcDbMText
 10
-2.175
 20
-0.1999999999999993
 30
0.0
 40
0.12
 41
0.0
 71
     5
 72
     1
  1
D
1001
ACAD
1000
MTEXTBEGIN
1070
    73
1070
     1
1070
    44
1040
1.0
1070
    74
1070
     0
1000
MTEXTEND
  0
LINE
  5
63AD
330
6393
100
AcDbEntity
  8
0
  6
CONTINUOUS
100
AcDbLine
 10
-1.15
 20
-2.0
 30
0.0
 11
-1.15
 21
0.0
 31
0.0
  0
LINE
  5
63AE
330
6393
100
AcDbEntity
  8
0
  6
CONTINUOUS
100
AcDbLine
 10
0.0
 20
-2.0
 30
0.0
 11
0.0
 21
0.0
 31
0.0
  0
MTEXT
  5
63AF
330
6393
100
AcDbEntity
  8
D1
  6
CONTINUOUS
100
AcDbMText
 10
-0.5750000000000011
 20
-1.799999999999999
 30
0.0
 40
0.1
 41
0.0
 71
     5
 72
     1
  1
1050-1550nm
1001
ACAD
1000
MTEXTBEGIN
1070
    73
1070
     1
1070
    44
1040
1.0
1070
    74
1070
     0
1000
MTEXTEND
  0
MTEXT
  5
63B0
330
6393
100
AcDbEntity
  8
D1
  6
CONTINUOUS
100
AcDbMText
 10
-1.474999999999999
 20
-1.799999999999999
 30
0.0
 40
0.1
 41
0.0
 71
     5
 72
     1
  1
0.039°
1001
ACAD
1000
MTEXTBEGIN
1070
    73
1070
     1
1070
    44
1040
1.0
1070
    74
1070
     0
1000
MTEXTEND
  0
MTEXT
  5
63B1
330
6393
100
AcDbEntity
  8
D1
  6
CONTINUOUS
100
AcDbMText
 10
-0.5750000000000011
 20
-0.5999999999999979
 30
0.0
 40
0.1
 41
0.0
 71
     5
 72
     1
  1
350-600nm
1001
ACAD
1000
MTEXTBEGIN
1070
    73
1070
     1
1070
    44
1040
1.0
1070
    74
1070
     0
1000
MTEXTEND
  0
MTEXT
  5
63B2
330
6393
100
AcDbEntity
  8
D1
  6
CONTINUOUS
100
AcDbMText
 10
-0.5750000000000011
 20
-1.0
 30
0.0
 40
0.1
 41
0.0
 71
     5
 72
     1
  1
600-1050nm
1001
ACAD
1000
MTEXTBEGIN
1070
    73
1070
     1
1070
    44
1040
1.0
1070
    74
1070
     0
1000
MTEXTEND
  0
MTEXT
  5
63B3
330
6393
100
AcDbEntity
  8
D1
  6
CONTINUOUS
100
AcDbMText
 10
-0.5750000000000011
 20
-1.399999999999999
 30
0.0
 40
0.1
 41
0.0
 71
     5
 72
     1
  1
1050-1550nm
1001
ACAD
1000
MTEXTBEGIN
1070
    73
1070
     1
1070
    44
1040
1.0
1070
    74
1070
     0
1000
MTEXTEND
  0
MTEXT
  5
63B4
330
6393
100
AcDbEntity
  8
D1
  6
CONTINUOUS
100
AcDbMText
 10
-1.474999999999999
 20
-0.5999999999999979
 30
0.0
 40
0.1
 41
0.0
 71
     5
 72
     1
  1
0.013°
1001
ACAD
1000
MTEXTBEGIN
1070
    73
1070
     1
1070
    44
1040
1.0
1070
    74
1070
     0
1000
MTEXTEND
  0
MTEXT
  5
63B5
330
6393
100
AcDbEntity
  8
D1
  6
CONTINUOUS
100
AcDbMText
 10
-1.474999999999999
 20
-1.0
 30
0.0
 40
0.1
 41
0.0
 71
     5
 72
     1
  1
0.015°
1001
ACAD
1000
MTEXTBEGIN
1070
    73
1070
     1
1070
    44
1040
1.0
1070
    74
1070
     0
1000
MTEXTEND
  0
MTEXT
  5
63B6
330
6393
100
AcDbEntity
  8
D1
  6
CONTINUOUS
100
AcDbMText
 10
-1.474999999999999
 20
-1.399999999999999
 30
0.0
 40
0.1
 41
0.0
 71
     5
 72
     1
  1
0.035°
1001
ACAD
1000
MTEXTBEGIN
1070
    73
1070
     1
1070
    44
1040
1.0
1070
    74
1070
     0
1000
MTEXTEND
  0
MTEXT
  5
63B7
330
6393
100
AcDbEntity
  8
D1
  6
CONTINUOUS
100
AcDbMText
 10
-1.474999999999999
 20
-0.1999999999999993
 30
0.0
 40
0.12
 41
0.0
 71
     5
 72
     1
  1
{\FCOUR.TTF;\U+03B8}
1001
ACAD
1000
MTEXTBEGIN
1070
    73
1070
     1
1070
    44
1040
1.0
1070
    74
1070
     0
1000
MTEXTEND
  0
MTEXT
  5
63B8
330
6393
100
AcDbEntity
  8
D1
  6
CONTINUOUS
100
AcDbMText
 10
-0.5750000000000011
 20
-0.1999999999999993
 30
0.0
 40
0.12
 41
0.0
 71
     5
 72
     1
  1
C
1001
ACAD
1000
MTEXTBEGIN
1070
    73
1070
     1
1070
    44
1040
1.0
1070
    74
1070
     0
1000
MTEXTEND
  0
ENDBLK
  5
63BA
330
6393
100
AcDbEntity
  8
0
100
AcDbBlockEnd
  0
BLOCK
  5
642D
330
63F9
100
AcDbEntity
  8
0
100
AcDbBlockBegin
  2
A$C19596B21
 70
     0
 10
0.0
 20
0.0
 30
0.0
  3
A$C19596B21
  1

  0
MTEXT
  5
63FA
330
63F9
100
AcDbEntity
  8
D1
100
AcDbMText
 10
-5.750202218426505
 20
-3.518860724684859
 30
0.0
 40
0.09
 41
0.0
 71
     7
 72
     1
  1
{\FCOUR.TTF;\U+03BB\FCOUR.TTF;\H1.333x; }= FIBER USED FOR ALIGNMENT
1001
ACAD
1000
MTEXTBEGIN
1070
    73
1070
     1
1070
    44
1040
1.0
1070
    74
1070
     0
1000
MTEXTEND
  0
MTEXT
  5
63FB
330
63F9
100
AcDbEntity
  8
D1
100
AcDbMText
 10
-5.750202218426505
 20
-3.282391062129224
 30
0.0
 40
0.09
 41
0.0
 71
     7
 72
     1
  1
F = FIBER USED FOR ALIGNMENT
1001
ACAD
1000
MTEXTBEGIN
1070
    73
1070
     1
1070
    44
1040
1.0
1070
    74
1070
     0
1000
MTEXTEND
  0
MTEXT
  5
63FC
330
63F9
100
AcDbEntity
  8
D1
100
AcDbMText
 10
-5.749812485116217
 20
0.3000676057876852
 30
0.0
 40
0.12
 41
0.0
 71
     1
 72
     1
  1
F260FC - SPECIFICATIONS:
1001
ACAD
1000
MTEXTBEGIN
1070
    73
1070
     1
1070
    44
1040
1.0
1070
    74
1070
     0
1000
MTEXTEND
  0
LINE
  5
63FD
330
63F9
100
AcDbEntity
  8
0
100
AcDbLine
 10
-5.749812485116216
 20
-2.0
 30
0.0
 11
0.0
 21
-2.0
 31
0.0
  0
LINE
  5
63FE
330
63F9
100
AcDbEntity
  8
0
100
AcDbLine
 10
-5.749812485116216
 20
-1.599999999999999
 30
0.0
 11
0.0
 21
-1.599999999999999
 31
0.0
  0
LINE
  5
63FF
330
63F9
100
AcDbEntity
  8
0
100
AcDbLine
 10
-5.749812485116216
 20
-1.199999999999999
 30
0.0
 11
0.0
 21
-1.199999999999999
 31
0.0
  0
LINE
  5
6400
330
63F9
100
AcDbEntity
  8
0
100
AcDbLine
 10
-5.749812485116217
 20
-0.799999999999999
 30
0.0
 11
0.0
 21
-0.799999999999999
 31
0.0
  0
LINE
  5
6401
330
63F9
100
AcDbEntity
  8
0
100
AcDbLine
 10
-5.749812485116217
 20
-0.3999999999999986
 30
0.0
 11
0.0
 21
-0.3999999999999986
 31
0.0
  0
LINE
  5
6402
330
63F9
100
AcDbEntity
  8
0
100
AcDbLine
 10
-5.749812485116217
 20
-0.3749999999999982
 30
0.0
 11
0.0
 21
-0.3749999999999982
 31
0.0
  0
LINE
  5
6403
330
63F9
100
AcDbEntity
  8
0
100
AcDbLine
 10
-5.749812485116217
 20
0.0
 30
0.0
 11
0.0
 21
0.0
 31
0.0
  0
MTEXT
  5
6404
330
63F9
100
AcDbEntity
  8
D1
100
AcDbMText
 10
-4.125
 20
-0.1999999999999993
 30
0.0
 40
0.12
 41
0.0
 71
     5
 72
     1
  1
D
1001
ACAD
1000
MTEXTBEGIN
1070
    73
1070
     1
1070
    44
1040
1.0
1070
    74
1070
     0
1000
MTEXTEND
  0
MTEXT
  5
6405
330
63F9
100
AcDbEntity
  8
D1
100
AcDbMText
 10
-4.125
 20
-0.5999999999999988
 30
0.0
 40
0.1
 41
0.0
 71
     5
 72
     1
  1
3.07mm
1001
ACAD
1000
MTEXTBEGIN
1070
    73
1070
     1
1070
    44
1040
1.0
1070
    74
1070
     0
1000
MTEXTEND
  0
MTEXT
  5
6406
330
63F9
100
AcDbEntity
  8
D1
100
AcDbMText
 10
-4.125
 20
-1.399999999999999
 30
0.0
 40
0.1
 41
0.0
 71
     5
 72
     1
  1
3.09mm
1001
ACAD
1000
MTEXTBEGIN
1070
    73
1070
     1
1070
    44
1040
1.0
1070
    74
1070
     0
1000
MTEXTEND
  0
MTEXT
  5
6407
330
63F9
100
AcDbEntity
  8
D1
100
AcDbMText
 10
-4.125
 20
-1.799999999999999
 30
0.0
 40
0.1
 41
0.0
 71
     5
 72
     1
  1
3.08mm
1001
ACAD
1000
MTEXTBEGIN
1070
    73
1070
     1
1070
    44
1040
1.0
1070
    74
1070
     0
1000
MTEXTEND
  0
MTEXT
  5
6408
330
63F9
100
AcDbEntity
  8
D1
100
AcDbMText
 10
-4.125
 20
-0.9999999999999991
 30
0.0
 40
0.1
 41
0.0
 71
     5
 72
     1
  1
3.06mm
1001
ACAD
1000
MTEXTBEGIN
1070
    73
1070
     1
1070
    44
1040
1.0
1070
    74
1070
     0
1000
MTEXTEND
  0
MTEXT
  5
6409
330
63F9
100
AcDbEntity
  8
D1
100
AcDbMText
 10
-5.750202218426505
 20
-2.593417656486868
 30
0.0
 40
0.09
 41
0.0
 71
     7
 72
     1
  1
D = 1/e2 OUTPUT BEAM DIAMETER
1001
ACAD
1000
MTEXTBEGIN
1070
    73
1070
     1
1070
    44
1040
1.0
1070
    74
1070
     0
1000
MTEXTEND
  0
MTEXT
  5
640A
330
63F9
100
AcDbEntity
  8
D1
100
AcDbMText
 10
-5.750202218426505
 20
-2.818417656486872
 30
0.0
 40
0.09
 41
0.0
 71
     7
 72
     1
  1
{\FCOUR.TTF;\U+03B8\FCOUR.TTF; }= FULL-ANGLE BEAM DIVERGENCE
1001
ACAD
1000
MTEXTBEGIN
1070
    73
1070
     1
1070
    44
1040
1.0
1070
    74
1070
     0
1000
MTEXTEND
  0
MTEXT
  5
640B
330
63F9
100
AcDbEntity
  8
D1
100
AcDbMText
 10
-5.750202218426505
 20
-3.04341765648687
 30
0.0
 40
0.09
 41
0.0
 71
     7
 72
     1
  1
C = AR COATING
1001
ACAD
1000
MTEXTBEGIN
1070
    73
1070
     1
1070
    44
1040
1.0
1070
    74
1070
     0
1000
MTEXTEND
  0
LINE
  5
640C
330
63F9
100
AcDbEntity
  8
0
100
AcDbLine
 10
-5.749812485116217
 20
0.0
 30
0.0
 11
-5.749812485116216
 21
-2.0
 31
0.0
  0
LINE
  5
640D
330
63F9
100
AcDbEntity
  8
0
100
AcDbLine
 10
-4.499648037489974
 20
0.0
 30
0.0
 11
-4.50009284451867
 21
-2.0
 31
0.0
  0
MTEXT
  5
640E
330
63F9
100
AcDbEntity
  8
D1
100
AcDbMText
 10
-5.124812485116216
 20
-1.389061801446481
 30
0.0
 40
0.1
 41
0.0
 71
     5
 72
     1
  1
F260FC-C
1001
ACAD
1000
MTEXTBEGIN
1070
    73
1070
     1
1070
    44
1040
1.0
1070
    74
1070
     0
1000
MTEXTEND
  0
MTEXT
  5
640F
330
63F9
100
AcDbEntity
  8
D1
100
AcDbMText
 10
-5.124812485116216
 20
-1.799999999999999
 30
0.0
 40
0.1
 41
0.0
 71
     5
 72
     1
  1
F260FC-1550
1001
ACAD
1000
MTEXTBEGIN
1070
    73
1070
     1
1070
    44
1040
1.0
1070
    74
1070
     0
1000
MTEXTEND
  0
MTEXT
  5
6410
330
63F9
100
AcDbEntity
  8
D1
100
AcDbMText
 10
-5.124812485116216
 20
-0.9919005527816207
 30
0.0
 40
0.1
 41
0.0
 71
     5
 72
     1
  1
F260FC-B
1001
ACAD
1000
MTEXTBEGIN
1070
    73
1070
     1
1070
    44
1040
1.0
1070
    74
1070
     0
1000
MTEXTEND
  0
MTEXT
  5
6411
330
63F9
100
AcDbEntity
  8
D1
100
AcDbMText
 10
-5.750202218426505
 20
-2.36841765648687
 30
0.0
 40
0.09
 41
0.0
 71
     7
 72
     1
  1
P.N. = PART NUMBER
1001
ACAD
1000
MTEXTBEGIN
1070
    73
1070
     1
1070
    44
1040
1.0
1070
    74
1070
     0
1000
MTEXTEND
  0
MTEXT
  5
6412
330
63F9
100
AcDbEntity
  8
D1
100
AcDbMText
 10
-5.124812485116216
 20
-0.5999999999999988
 30
0.0
 40
0.1
 41
0.0
 71
     5
 72
     1
  1
F260FC-A
1001
ACAD
1000
MTEXTBEGIN
1070
    73
1070
     1
1070
    44
1040
1.0
1070
    74
1070
     0
1000
MTEXTEND
  0
MTEXT
  5
6413
330
63F9
100
AcDbEntity
  8
D1
100
AcDbMText
 10
-5.124812485116216
 20
-0.1999999999999993
 30
0.0
 40
0.12
 41
0.0
 71
     5
 72
     1
  1
P.N.
1001
ACAD
1000
MTEXTBEGIN
1070
    73
1070
     1
1070
    44
1040
1.0
1070
    74
1070
     0
1000
MTEXTEND
  0
MTEXT
  5
6414
330
63F9
100
AcDbEntity
  8
D1
100
AcDbMText
 10
-1.352075299297821
 20
-0.9999999999999982
 30
0.0
 40
0.1
 41
0.0
 71
     5
 72
     1
  1
FS-SN-3224
1001
ACAD
1000
MTEXTBEGIN
1070
    73
1070
     1
1070
    44
1040
1.0
1070
    74
1070
     0
1000
MTEXTEND
  0
MTEXT
  5
6415
330
63F9
100
AcDbEntity
  8
D1
100
AcDbMText
 10
-1.352075299297821
 20
-1.799999999999998
 30
0.0
 40
0.1
 41
0.0
 71
     5
 72
     1
  1
SMF-28
1001
ACAD
1000
MTEXTBEGIN
1070
    73
1070
     1
1070
    44
1040
1.0
1070
    74
1070
     0
1000
MTEXTEND
  0
MTEXT
  5
6416
330
63F9
100
AcDbEntity
  8
D1
100
AcDbMText
 10
-1.352075299297821
 20
-1.399999999999998
 30
0.0
 40
0.1
 41
0.0
 71
     5
 72
     1
  1
SMF-28
1001
ACAD
1000
MTEXTBEGIN
1070
    73
1070
     1
1070
    44
1040
1.0
1070
    74
1070
     0
1000
MTEXTEND
  0
MTEXT
  5
6417
330
63F9
100
AcDbEntity
  8
D1
100
AcDbMText
 10
-1.352075299297821
 20
-0.5999999999999979
 30
0.0
 40
0.1
 41
0.0
 71
     5
 72
     1
  1
460HP
1001
ACAD
1000
MTEXTBEGIN
1070
    73
1070
     1
1070
    44
1040
1.0
1070
    74
1070
     0
1000
MTEXTEND
  0
LINE
  5
6418
330
63F9
100
AcDbEntity
  8
0
100
AcDbLine
 10
-1.949999999999999
 20
-2.0
 30
0.0
 11
-1.949999999999999
 21
0.0
 31
0.0
  0
LINE
  5
6419
330
63F9
100
AcDbEntity
  8
0
100
AcDbLine
 10
-3.099999999999999
 20
-2.0
 30
0.0
 11
-3.099999999999999
 21
0.0
 31
0.0
  0
LINE
  5
641A
330
63F9
100
AcDbEntity
  8
0
100
AcDbLine
 10
-3.75
 20
-2.0
 30
0.0
 11
-3.75
 21
0.0
 31
0.0
  0
MTEXT
  5
641B
330
63F9
100
AcDbEntity
  8
D1
100
AcDbMText
 10
-2.525
 20
-1.799999999999999
 30
0.0
 40
0.1
 41
0.0
 71
     5
 72
     1
  1
1050-1550nm
1001
ACAD
1000
MTEXTBEGIN
1070
    73
1070
     1
1070
    44
1040
1.0
1070
    74
1070
     0
1000
MTEXTEND
  0
MTEXT
  5
641C
330
63F9
100
AcDbEntity
  8
D1
100
AcDbMText
 10
-2.525
 20
-1.399999999999999
 30
0.0
 40
0.1
 41
0.0
 71
     5
 72
     1
  1
1050-1550nm
1001
ACAD
1000
MTEXTBEGIN
1070
    73
1070
     1
1070
    44
1040
1.0
1070
    74
1070
     0
1000
MTEXTEND
  0
MTEXT
  5
641D
330
63F9
100
AcDbEntity
  8
D1
100
AcDbMText
 10
-2.525
 20
-0.9999999999999991
 30
0.0
 40
0.1
 41
0.0
 71
     5
 72
     1
  1
600-1050nm
1001
ACAD
1000
MTEXTBEGIN
1070
    73
1070
     1
1070
    44
1040
1.0
1070
    74
1070
     0
1000
MTEXTEND
  0
MTEXT
  5
641E
330
63F9
100
AcDbEntity
  8
D1
100
AcDbMText
 10
-3.424999999999998
 20
-1.799999999999999
 30
0.0
 40
0.1
 41
0.0
 71
     5
 72
     1
  1
0.123°
1001
ACAD
1000
MTEXTBEGIN
1070
    73
1070
     1
1070
    44
1040
1.0
1070
    74
1070
     0
1000
MTEXTEND
  0
MTEXT
  5
641F
330
63F9
100
AcDbEntity
  8
D1
100
AcDbMText
 10
-3.424999999999998
 20
-1.399999999999999
 30
0.0
 40
0.1
 41
0.0
 71
     5
 72
     1
  1
0.123°
1001
ACAD
1000
MTEXTBEGIN
1070
    73
1070
     1
1070
    44
1040
1.0
1070
    74
1070
     0
1000
MTEXTEND
  0
MTEXT
  5
6420
330
63F9
100
AcDbEntity
  8
D1
100
AcDbMText
 10
-3.424999999999998
 20
-0.9999999999999991
 30
0.0
 40
0.1
 41
0.0
 71
     5
 72
     1
  1
0.145°
1001
ACAD
1000
MTEXTBEGIN
1070
    73
1070
     1
1070
    44
1040
1.0
1070
    74
1070
     0
1000
MTEXTEND
  0
MTEXT
  5
6421
330
63F9
100
AcDbEntity
  8
D1
100
AcDbMText
 10
-2.525
 20
-0.5999999999999988
 30
0.0
 40
0.1
 41
0.0
 71
     5
 72
     1
  1
350-600nm
1001
ACAD
1000
MTEXTBEGIN
1070
    73
1070
     1
1070
    44
1040
1.0
1070
    74
1070
     0
1000
MTEXTEND
  0
MTEXT
  5
6422
330
63F9
100
AcDbEntity
  8
D1
100
AcDbMText
 10
-3.424999999999998
 20
-0.1999999999999993
 30
0.0
 40
0.12
 41
0.0
 71
     5
 72
     1
  1
{\FCOUR.TTF;\U+03B8}
1001
ACAD
1000
MTEXTBEGIN
1070
    73
1070
     1
1070
    44
1040
1.0
1070
    74
1070
     0
1000
MTEXTEND
  0
MTEXT
  5
6423
330
63F9
100
AcDbEntity
  8
D1
100
AcDbMText
 10
-3.424999999999998
 20
-0.5999999999999988
 30
0.0
 40
0.1
 41
0.0
 71
     5
 72
     1
  1
0.015°
1001
ACAD
1000
MTEXTBEGIN
1070
    73
1070
     1
1070
    44
1040
1.0
1070
    74
1070
     0
1000
MTEXTEND
  0
MTEXT
  5
6424
330
63F9
100
AcDbEntity
  8
D1
100
AcDbMText
 10
-2.525
 20
-0.1999999999999993
 30
0.0
 40
0.12
 41
0.0
 71
     5
 72
     1
  1
C
1001
ACAD
1000
MTEXTBEGIN
1070
    73
1070
     1
1070
    44
1040
1.0
1070
    74
1070
     0
1000
MTEXTEND
  0
LINE
  5
6425
330
63F9
100
AcDbEntity
  8
0
  6
CONTINUOUS
100
AcDbLine
 10
0.0
 20
-2.0
 30
0.0
 11
0.0
 21
0.0
 31
0.0
  0
LINE
  5
6426
330
63F9
100
AcDbEntity
  8
0
  6
CONTINUOUS
100
AcDbLine
 10
-0.75
 20
-2.0
 30
0.0
 11
-0.75
 21
0.0
 31
0.0
  0
MTEXT
  5
6427
330
63F9
100
AcDbEntity
  8
D1
100
AcDbMText
 10
-0.375
 20
-1.799999999999999
 30
0.0
 40
0.1
 41
0.0
 71
     5
 72
     1
  1
1550nm
1001
ACAD
1000
MTEXTBEGIN
1070
    73
1070
     1
1070
    44
1040
1.0
1070
    74
1070
     0
1000
MTEXTEND
  0
MTEXT
  5
6428
330
63F9
100
AcDbEntity
  8
D1
100
AcDbMText
 10
-0.375
 20
-1.399999999999999
 30
0.0
 40
0.1
 41
0.0
 71
     5
 72
     1
  1
1310nm
1001
ACAD
1000
MTEXTBEGIN
1070
    73
1070
     1
1070
    44
1040
1.0
1070
    74
1070
     0
1000
MTEXTEND
  0
MTEXT
  5
6429
330
63F9
100
AcDbEntity
  8
D1
100
AcDbMText
 10
-0.375
 20
-0.9999999999999991
 30
0.0
 40
0.1
 41
0.0
 71
     5
 72
     1
  1
633nm
1001
ACAD
1000
MTEXTBEGIN
1070
    73
1070
     1
1070
    44
1040
1.0
1070
    74
1070
     0
1000
MTEXTEND
  0
MTEXT
  5
642A
330
63F9
100
AcDbEntity
  8
D1
100
AcDbMText
 10
-1.349999999999999
 20
-0.1999999999999993
 30
0.0
 40
0.12
 41
0.0
 71
     5
 72
     1
  1
F
1001
ACAD
1000
MTEXTBEGIN
1070
    73
1070
     1
1070
    44
1040
1.0
1070
    74
1070
     0
1000
MTEXTEND
  0
MTEXT
  5
642B
330
63F9
100
AcDbEntity
  8
D1
100
AcDbMText
 10
-0.375
 20
-0.1999999999999993
 30
0.0
 40
0.1
 41
0.0
 71
     5
 72
     1
  1
{\FCOUR.TTF;\U+03BB}
1001
ACAD
1000
MTEXTBEGIN
1070
    73
1070
     1
1070
    44
1040
1.0
1070
    74
1070
     0
1000
MTEXTEND
  0
MTEXT
  5
642C
330
63F9
100
AcDbEntity
  8
D1
100
AcDbMText
 10
-0.375
 20
-0.5999999999999988
 30
0.0
 40
0.1
 41
0.0
 71
     5
 72
     1
  1
543nm
1001
ACAD
1000
MTEXTBEGIN
1070
    73
1070
     1
1070
    44
1040
1.0
1070
    74
1070
     0
1000
MTEXTEND
  0
ENDBLK
  5
642E
330
63F9
100
AcDbEntity
  8
0
100
AcDbBlockEnd
  0
BLOCK
  5
6501
330
64CE
100
AcDbEntity
  8
0
100
AcDbBlockBegin
  2
A$C313E7406
 70
     0
 10
0.0
 20
0.0
 30
0.0
  3
A$C313E7406
  1

  0
LINE
  5
64CF
330
64CE
100
AcDbEntity
  8
S4
100
AcDbLine
 10
0.545
 20
0.2675000000000001
 30
0.0
 11
0.0
 21
0.2675000000000001
 31
0.0
  0
LINE
  5
64D0
330
64CE
100
AcDbEntity
  8
S4
100
AcDbLine
 10
0.0
 20
-0.2675000000000001
 30
0.0
 11
0.545
 21
-0.2675000000000001
 31
0.0
  0
LINE
  5
64D1
330
64CE
100
AcDbEntity
  8
S4
100
AcDbLine
 10
0.3749999999999987
 20
-0.2539999999999996
 30
0.0
 11
0.3749999999999987
 21
0.2539999999999996
 31
0.0
  0
LINE
  5
64D2
330
64CE
100
AcDbEntity
  8
S4
100
AcDbLine
 10
0.3249999999999984
 20
0.2539999999999996
 30
0.0
 11
0.3249999999999988
 21
-0.2539999999999996
 31
0.0
  0
LINE
  5
64D3
330
64CE
100
AcDbEntity
  8
S4
100
AcDbLine
 10
0.2749999999999986
 20
-0.2539999999999996
 30
0.0
 11
0.2749999999999986
 21
0.2539999999999996
 31
0.0
  0
LINE
  5
64D4
330
64CE
100
AcDbEntity
  8
S4
100
AcDbLine
 10
0.2249999999999992
 20
0.2539999999999996
 30
0.0
 11
0.2249999999999988
 21
-0.2539999999999996
 31
0.0
  0
LINE
  5
64D5
330
64CE
100
AcDbEntity
  8
S4
100
AcDbLine
 10
0.1749999999999994
 20
-0.2539999999999996
 30
0.0
 11
0.1749999999999994
 21
0.2539999999999996
 31
0.0
  0
LINE
  5
64D6
330
64CE
100
AcDbEntity
  8
S4
100
AcDbLine
 10
0.1249999999999996
 20
0.2539999999999996
 30
0.0
 11
0.1249999999999996
 21
-0.2539999999999996
 31
0.0
  0
LINE
  5
64D7
330
64CE
100
AcDbEntity
  8
S4
100
AcDbLine
 10
0.3499999999999992
 20
0.2000000000000002
 30
0.0
 11
0.3499999999999996
 21
-0.2000000000000002
 31
0.0
  0
LINE
  5
64D8
330
64CE
100
AcDbEntity
  8
S4
100
AcDbLine
 10
0.2999999999999994
 20
-0.2000000000000002
 30
0.0
 11
0.2999999999999994
 21
0.2000000000000002
 31
0.0
  0
LINE
  5
64D9
330
64CE
100
AcDbEntity
  8
S4
100
AcDbLine
 10
0.2499999999999991
 20
0.2000000000000002
 30
0.0
 11
0.2499999999999996
 21
-0.2000000000000002
 31
0.0
  0
LINE
  5
64DA
330
64CE
100
AcDbEntity
  8
S4
100
AcDbLine
 10
0.1999999999999993
 20
-0.2000000000000002
 30
0.0
 11
0.1999999999999993
 21
0.2000000000000002
 31
0.0
  0
LINE
  5
64DB
330
64CE
100
AcDbEntity
  8
S4
100
AcDbLine
 10
0.1499999999999995
 20
0.2000000000000002
 30
0.0
 11
0.1499999999999995
 21
-0.2000000000000002
 31
0.0
  0
LINE
  5
64DC
330
64CE
100
AcDbEntity
  8
S4
100
AcDbLine
 10
0.0999999999999997
 20
0.2000000000000002
 30
0.0
 11
0.0999999999999992
 21
-0.2000000000000002
 31
0.0
  0
LINE
  5
64DD
330
64CE
100
AcDbEntity
  8
S4
100
AcDbLine
 10
0.0749999999999997
 20
0.2539999999999996
 30
0.0
 11
0.0750000000000002
 21
-0.2539999999999996
 31
0.0
  0
LINE
  5
64DE
330
64CE
100
AcDbEntity
  8
S4
100
AcDbLine
 10
0.0499999999999998
 20
0.2000000000000002
 30
0.0
 11
0.0500000000000003
 21
-0.2000000000000002
 31
0.0
  0
LINE
  5
64DF
330
64CE
100
AcDbEntity
  8
S4
100
AcDbLine
 10
0.0249999999999999
 20
0.2539999999999996
 30
0.0
 11
0.0249999999999999
 21
-0.2539999999999996
 31
0.0
  0
LINE
  5
64E0
330
64CE
100
AcDbEntity
  8
S4
100
AcDbLine
 10
0.0
 20
0.2675000000000001
 30
0.0
 11
0.0
 21
-0.2675000000000001
 31
0.0
  0
LINE
  5
64E1
330
64CE
100
AcDbEntity
  8
SMA
100
AcDbLine
 10
0.6421898264535209
 20
0.0849999999999991
 30
0.0
 11
0.6421898264535209
 21
-0.0850000000000009
 31
0.0
  0
LINE
  5
64E2
330
64CE
100
AcDbEntity
  8
SMA
100
AcDbLine
 10
0.842189826453521
 20
0.0549999999999997
 30
0.0
 11
0.842189826453521
 21
-0.0549999999999997
 31
0.0
  0
LINE
  5
64E3
330
64CE
100
AcDbEntity
  8
SMA
100
AcDbLine
 10
0.7921898264535212
 20
-0.0549999999999997
 30
0.0
 11
0.7921898264535212
 21
0.0549999999999997
 31
0.0
  0
LINE
  5
64E4
330
64CE
100
AcDbEntity
  8
SMA
100
AcDbLine
 10
0.7421898264535214
 20
0.0549999999999997
 30
0.0
 11
0.7421898264535214
 21
-0.0549999999999997
 31
0.0
  0
LINE
  5
64E5
330
64CE
100
AcDbEntity
  8
SMA
100
AcDbLine
 10
0.8671898264535204
 20
-0.1050000000000004
 30
0.0
 11
0.8671898264535204
 21
0.1050000000000004
 31
0.0
  0
LINE
  5
64E6
330
64CE
100
AcDbEntity
  8
SMA
100
AcDbLine
 10
0.8171898264535206
 20
0.1050000000000004
 30
0.0
 11
0.8171898264535206
 21
-0.1050000000000004
 31
0.0
  0
LINE
  5
64E7
330
64CE
100
AcDbEntity
  8
SMA
100
AcDbLine
 10
0.7671898264535209
 20
-0.1050000000000004
 30
0.0
 11
0.7671898264535209
 21
0.1050000000000004
 31
0.0
  0
LINE
  5
64E8
330
64CE
100
AcDbEntity
  8
SMA
100
AcDbLine
 10
0.7171898264535211
 20
0.1050000000000004
 30
0.0
 11
0.7171898264535211
 21
-0.1050000000000004
 31
0.0
  0
LINE
  5
64E9
330
64CE
100
AcDbEntity
  8
SMA
100
AcDbLine
 10
0.6921898264535216
 20
0.0549999999999997
 30
0.0
 11
0.6921898264535216
 21
-0.0549999999999997
 31
0.0
  0
LINE
  5
64EA
330
64CE
100
AcDbEntity
  8
SMA
100
AcDbLine
 10
0.6671898264535212
 20
0.1050000000000004
 30
0.0
 11
0.6671898264535212
 21
-0.1050000000000004
 31
0.0
  0
LINE
  5
64EB
330
64CE
100
AcDbEntity
  8
S4
100
AcDbLine
 10
0.5249999999999977
 20
0.2539999999999996
 30
0.0
 11
0.5249999999999977
 21
-0.2539999999999996
 31
0.0
  0
LINE
  5
64EC
330
64CE
100
AcDbEntity
  8
S4
100
AcDbLine
 10
0.4749999999999984
 20
-0.2539999999999996
 30
0.0
 11
0.4749999999999979
 21
0.2539999999999996
 31
0.0
  0
LINE
  5
64ED
330
64CE
100
AcDbEntity
  8
S4
100
AcDbLine
 10
0.4249999999999985
 20
0.2539999999999996
 30
0.0
 11
0.4249999999999985
 21
-0.2539999999999996
 31
0.0
  0
LINE
  5
64EE
330
64CE
100
AcDbEntity
  8
S4
100
AcDbLine
 10
0.5
 20
-0.2000000000000002
 30
0.0
 11
0.5
 21
0.2000000000000002
 31
0.0
  0
LINE
  5
64EF
330
64CE
100
AcDbEntity
  8
S4
100
AcDbLine
 10
0.4499999999999993
 20
0.2000000000000002
 30
0.0
 11
0.4499999999999998
 21
-0.2000000000000002
 31
0.0
  0
LINE
  5
64F0
330
64CE
100
AcDbEntity
  8
S4
100
AcDbLine
 10
0.3999999999999995
 20
-0.2000000000000002
 30
0.0
 11
0.3999999999999995
 21
0.2000000000000002
 31
0.0
  0
LINE
  5
64F1
330
64CE
100
AcDbEntity
  8
S4
100
AcDbLine
 10
0.545
 20
-0.2675000000000001
 30
0.0
 11
0.545
 21
0.2675000000000001
 31
0.0
  0
LINE
  5
64F2
330
64CE
100
AcDbEntity
  8
SMA
  6
CONTINUOUS
100
AcDbLine
 10
0.8921898264535208
 20
-0.1230000000000002
 30
0.0
 11
0.8921898264535208
 21
0.1230000000000002
 31
0.0
  0
LINE
  5
64F3
330
64CE
100
AcDbEntity
  8
SMA
  6
CONTINUOUS
100
AcDbLine
 10
0.6421898264535209
 20
-0.1749999999999998
 30
0.0
 11
0.6421898264535209
 21
0.1749999999999998
 31
0.0
  0
LINE
  5
64F4
330
64CE
100
AcDbEntity
  8
SMA
  6
CONTINUOUS
100
AcDbLine
 10
0.5451898264535214
 20
0.2199999999999989
 30
0.0
 11
0.5451898264535214
 21
-0.2199999999999997
 31
0.0
  0
LINE
  5
64F5
330
64CE
100
AcDbEntity
  8
SMA
  6
CONTINUOUS
100
AcDbLine
 10
0.5801898264535197
 20
0.219999999999998
 30
0.0
 11
0.5801898264535215
 21
-0.2200000000000006
 31
0.0
  0
LINE
  5
64F6
330
64CE
100
AcDbEntity
  8
SMA
  6
CONTINUOUS
100
AcDbLine
 10
0.8921898264535208
 20
-0.1230000000000002
 30
0.0
 11
0.6421898264535209
 21
-0.1230000000000002
 31
0.0
  0
LINE
  5
64F7
330
64CE
100
AcDbEntity
  8
SMA
100
AcDbLine
 10
0.6421898264535209
 20
-0.0850000000000009
 30
0.0
 11
0.5801898264535206
 21
-0.0850000000000009
 31
0.0
  0
LINE
  5
64F8
330
64CE
100
AcDbEntity
  8
SMA
  6
CONTINUOUS
100
AcDbLine
 10
0.5801898264535215
 20
-0.1749999999999998
 30
0.0
 11
0.6421898264535209
 21
-0.1749999999999998
 31
0.0
  0
LINE
  5
64F9
330
64CE
100
AcDbEntity
  8
SMA
  6
CONTINUOUS
100
AcDbLine
 10
0.5801898264535215
 20
-0.2200000000000006
 30
0.0
 11
0.5451898264535214
 21
-0.2199999999999997
 31
0.0
  0
LINE
  5
64FA
330
64CE
100
AcDbEntity
  8
SMA
  6
CONTINUOUS
100
AcDbLine
 10
0.8921898264535208
 20
0.1230000000000002
 30
0.0
 11
0.6421898264535209
 21
0.1230000000000002
 31
0.0
  0
LINE
  5
64FB
330
64CE
100
AcDbEntity
  8
SMA
100
AcDbLine
 10
0.5801898264535206
 20
0.0849999999999991
 30
0.0
 11
0.6421898264535209
 21
0.0849999999999991
 31
0.0
  0
LINE
  5
64FC
330
64CE
100
AcDbEntity
  8
SMA
  6
CONTINUOUS
100
AcDbLine
 10
0.6421898264535209
 20
0.1749999999999998
 30
0.0
 11
0.5801898264535215
 21
0.1749999999999998
 31
0.0
  0
LINE
  5
64FD
330
64CE
100
AcDbEntity
  8
SMA
100
AcDbLine
 10
0.5801898264535206
 20
-0.0000000000000009
 30
0.0
 11
0.5801898264535206
 21
0.0849999999999991
 31
0.0
  0
LINE
  5
64FE
330
64CE
100
AcDbEntity
  8
SMA
  6
CONTINUOUS
100
AcDbLine
 10
0.5801898264535197
 20
0.219999999999998
 30
0.0
 11
0.5451898264535214
 21
0.2199999999999989
 31
0.0
  0
LINE
  5
64FF
330
64CE
100
AcDbEntity
  8
SMA
  6
CONTINUOUS
100
AcDbLine
 10
0.6421898264535209
 20
0.1050000000000004
 30
0.0
 11
0.6421898264535209
 21
0.1050000000000004
 31
0.0
  0
LINE
  5
6500
330
64CE
100
AcDbEntity
  8
SMA
  6
CONTINUOUS
100
AcDbLine
 10
0.6421898264535209
 20
0.0
 30
0.0
 11
0.6421898264535209
 21
0.0
 31
0.0
  0
ENDBLK
  5
6502
330
64CE
100
AcDbEntity
  8
0
100
AcDbBlockEnd
  0
BLOCK
  5
6533
330
6530
100
AcDbEntity
  8
0
100
AcDbBlockBegin
  2
A$C39013EF9
 70
     0
 10
0.0
 20
0.0
 30
0.0
  3
A$C39013EF9
  1

  0
MTEXT
  5
6531
330
6530
100
AcDbEntity
  8
D1
100
AcDbMText
 10
1.39106838484541
 20
0.0499999883762108
 30
0.0
 40
0.1
 41
0.0
 71
     4
 72
     1
  1
%%C0.535-40 THREAD
1001
ACAD
1000
MTEXTBEGIN
1070
    73
1070
     1
1070
    44
1040
1.0
1070
    74
1070
     0
1000
MTEXTEND
  0
LEADER
  5
6532
330
6530
100
AcDbEntity
  8
D1
  6
CONTINUOUS
100
AcDbLeader
  3
STANDARD
 76
     3
 10
-0.0000000029777718
 20
0.7564142668143159
 30
0.0
 10
0.7109538592171658
 20
0.0504604046193755
 30
0.0
 10
1.251671943548337
 20
0.0504604046193755
 30
0.0
1001
ACAD
1000
DSTYLE
1002
{
1070
     5
1000

1070
    77
1070
     0
1070
   147
1040
0.09
1070
   289
1070
     0
1002
}
1000
LEANOF
1010
0.0
1020
0.0
1030
0.0
  0
ENDBLK
  5
6534
330
6530
100
AcDbEntity
  8
0
100
AcDbBlockEnd
  0
BLOCK
  5
65D8
330
65A9
100
AcDbEntity
  8
0
100
AcDbBlockBegin
  2
A$C61BD28BD
 70
     0
 10
0.0
 20
0.0
 30
0.0
  3
A$C61BD28BD
  1

  0
LINE
  5
65AA
330
65A9
100
AcDbEntity
  8
SMA
100
AcDbLine
 10
-0.0999999999999997
 20
0.1550000000000002
 30
0.0
 11
-0.3300000000000001
 21
0.1550000000000002
 31
0.0
  0
LINE
  5
65AB
330
65A9
100
AcDbEntity
  8
SMA
100
AcDbLine
 10
-0.0999999999999997
 20
-0.1550000000000002
 30
0.0
 11
-0.3300000000000001
 21
-0.1550000000000002
 31
0.0
  0
LINE
  5
65AC
330
65A9
100
AcDbEntity
  8
SMA
100
AcDbLine
 10
-0.0999999999999997
 20
0.0
 30
0.0
 11
-0.3300000000000001
 21
0.0
 31
0.0
  0
LINE
  5
65AD
330
65A9
100
AcDbEntity
  8
D1
100
AcDbLine
 39
0.18
 10
-3.452253402613392
 20
-0.5298387147452335
 30
0.0
 11
-3.366905019717799
 21
-0.7154714475431501
 31
0.0
  0
LINE
  5
65AE
330
65A9
100
AcDbEntity
  8
D1
100
AcDbLine
 39
0.18
 10
-3.271905019717797
 20
-0.4154714475431494
 30
0.0
 11
-3.452253402613392
 21
-0.5298387147452335
 31
0.0
  0
LINE
  5
65AF
330
65A9
100
AcDbEntity
  8
D1
100
AcDbLine
 39
0.18
 10
-3.671905019717799
 20
-0.5704714475431505
 30
0.0
 11
-3.271905019717797
 21
-0.4154714475431494
 31
0.0
  0
LINE
  5
65B0
330
65A9
100
AcDbEntity
  8
D1
100
AcDbLine
 39
0.18
 10
-3.487205066600123
 20
-0.4538188455740926
 30
0.0
 11
-3.671905019717799
 21
-0.5704714475431505
 31
0.0
  0
LINE
  5
65B1
330
65A9
100
AcDbEntity
  8
D1
100
AcDbLine
 39
0.18
 10
-3.563942828685261
 20
-0.2804714475431513
 30
0.0
 11
-3.484242875567586
 21
-0.4538188455740926
 31
0.0
  0
ARC
  5
65B2
330
65A9
100
AcDbEntity
  8
D1
100
AcDbCircle
 39
0.18
 10
-1.178252864687531
 20
-5.577427582619796
 30
0.0
 40
5.518171579587931
100
AcDbArc
 50
89.39514289512171
 51
114.2227680103184
  0
ARC
  5
65B3
330
65A9
100
AcDbEntity
  8
D1
100
AcDbCircle
 39
0.18
 10
-1.178252864687531
 20
-5.577427582619796
 30
0.0
 40
5.63817157958793
100
AcDbArc
 50
89.40801683173964
 51
114.2327457190725
  0
TEXT
  5
65B4
330
65A9
100
AcDbEntity
  8
DIM1
100
AcDbText
 10
-4.036628637468176
 20
0.1887555719947027
 30
0.0
 40
0.1
  1
SMA CABLE
100
AcDbText
  0
SOLID
  5
65B5
330
65A9
100
AcDbEntity
  8
D1
100
AcDbTrace
 10
-2.118956932786692
 20
0.0800898179696237
 30
0.0
 11
-2.133462884664848
 21
0.0218697410192395
 31
0.0
 12
-1.951549677874618
 22
0.007461923859962
 32
0.0
 13
-1.951549677874618
 23
0.007461923859962
 33
0.0
  0
LINE
  5
65B6
330
65A9
100
AcDbEntity
  8
D1
100
AcDbLine
 10
-2.12620990872577
 20
0.0509797794944316
 30
0.0
 11
-2.870947920191188
 21
0.236536623834537
 31
0.0
  0
LINE
  5
65B7
330
65A9
100
AcDbEntity
  8
D1
100
AcDbLine
 10
-2.870947920191188
 20
0.236536623834537
 30
0.0
 11
-3.078499047386987
 21
0.236536623834537
 31
0.0
  0
LINE
  5
65B8
330
65A9
100
AcDbEntity
  8
SMA
100
AcDbLine
 10
-0.8300000000000018
 20
-0.0800000000000001
 30
0.0
 11
-1.12
 21
-0.0799999999999992
 31
0.0
  0
LINE
  5
65B9
330
65A9
100
AcDbEntity
  8
SMA
100
AcDbLine
 10
-0.8299999999999982
 20
0.0800000000000001
 30
0.0
 11
-1.12
 21
0.0800000000000001
 31
0.0
  0
LINE
  5
65BA
330
65A9
100
AcDbEntity
  8
SMA
100
AcDbLine
 10
-1.12
 20
0.0800000000000001
 30
0.0
 11
-1.12
 21
-0.0799999999999992
 31
0.0
  0
LINE
  5
65BB
330
65A9
100
AcDbEntity
  8
SMA
100
AcDbLine
 10
-1.12
 20
0.0
 30
0.0
 11
-1.12
 21
-0.0499999999999998
 31
0.0
  0
LINE
  5
65BC
330
65A9
100
AcDbEntity
  8
SMA
100
AcDbLine
 10
-1.12
 20
0.0
 30
0.0
 11
-1.12
 21
0.0499999999999998
 31
0.0
  0
LINE
  5
65BD
330
65A9
100
AcDbEntity
  8
SMA
100
AcDbLine
 10
-0.3900000000000006
 20
-0.1150000000000002
 30
0.0
 11
-0.3900000000000006
 21
0.1150000000000002
 31
0.0
  0
LINE
  5
65BE
330
65A9
100
AcDbEntity
  8
SMA
100
AcDbLine
 10
-0.3600000000000003
 20
-0.1299999999999999
 30
0.0
 11
-0.3600000000000003
 21
0.129999999999999
 31
0.0
  0
LINE
  5
65BF
330
65A9
100
AcDbEntity
  8
SMA
100
AcDbLine
 10
-0.3300000000000001
 20
-0.1550000000000002
 30
0.0
 11
-0.3300000000000001
 21
0.1550000000000002
 31
0.0
  0
LINE
  5
65C0
330
65A9
100
AcDbEntity
  8
SMA
100
AcDbLine
 10
-0.3300000000000001
 20
-0.1299999999999999
 30
0.0
 11
-0.3600000000000003
 21
-0.1299999999999999
 31
0.0
  0
LINE
  5
65C1
330
65A9
100
AcDbEntity
  8
SMA
100
AcDbLine
 10
-0.3300000000000001
 20
-0.1299999999999999
 30
0.0
 11
-0.3600000000000003
 21
-0.1299999999999999
 31
0.0
  0
LINE
  5
65C2
330
65A9
100
AcDbEntity
  8
SMA
100
AcDbLine
 10
-0.3600000000000003
 20
-0.1150000000000002
 30
0.0
 11
-0.3900000000000006
 21
-0.1150000000000002
 31
0.0
  0
LINE
  5
65C3
330
65A9
100
AcDbEntity
  8
SMA
100
AcDbLine
 10
-0.3600000000000003
 20
-0.1150000000000002
 30
0.0
 11
-0.3900000000000006
 21
-0.1150000000000002
 31
0.0
  0
LINE
  5
65C4
330
65A9
100
AcDbEntity
  8
SMA
100
AcDbLine
 10
-0.4200000000000009
 20
-0.0899999999999999
 30
0.0
 11
-0.8200000000000011
 21
-0.0899999999999999
 31
0.0
  0
LINE
  5
65C5
330
65A9
100
AcDbEntity
  8
SMA
100
AcDbLine
 10
-0.4200000000000009
 20
0.0899999999999999
 30
0.0
 11
-0.8200000000000011
 21
0.0899999999999999
 31
0.0
  0
LINE
  5
65C6
330
65A9
100
AcDbEntity
  8
SMA
100
AcDbLine
 10
-0.8200000000000011
 20
0.0899999999999999
 30
0.0
 11
-0.8200000000000011
 21
-0.0900000000000008
 31
0.0
  0
LINE
  5
65C7
330
65A9
100
AcDbEntity
  8
SMA
100
AcDbLine
 10
-0.8299999999999982
 20
0.0800000000000001
 30
0.0
 11
-0.8300000000000018
 21
-0.0800000000000001
 31
0.0
  0
LINE
  5
65C8
330
65A9
100
AcDbEntity
  8
SMA
100
AcDbLine
 10
-0.820000000000002
 20
-0.0899999999999999
 30
0.0
 11
-0.8300000000000018
 21
-0.0800000000000001
 31
0.0
  0
LINE
  5
65C9
330
65A9
100
AcDbEntity
  8
SMA
100
AcDbLine
 10
-0.8200000000000011
 20
0.0899999999999999
 30
0.0
 11
-0.8299999999999982
 21
0.0800000000000001
 31
0.0
  0
LINE
  5
65CA
330
65A9
100
AcDbEntity
  8
SMA
100
AcDbLine
 10
-0.4200000000000009
 20
0.0
 30
0.0
 11
-0.4200000000000009
 21
0.0899999999999999
 31
0.0
  0
LINE
  5
65CB
330
65A9
100
AcDbEntity
  8
SMA
100
AcDbLine
 10
-0.4200000000000009
 20
0.0999999999999997
 30
0.0
 11
-0.4200000000000009
 21
-0.0999999999999997
 31
0.0
  0
LINE
  5
65CC
330
65A9
100
AcDbEntity
  8
SMA
100
AcDbLine
 10
-0.4200000000000009
 20
0.0
 30
0.0
 11
-0.4200000000000009
 21
-0.0899999999999999
 31
0.0
  0
LINE
  5
65CD
330
65A9
100
AcDbEntity
  8
SMA
100
AcDbLine
 10
-0.3900000000000006
 20
-0.0999999999999997
 30
0.0
 11
-0.4200000000000009
 21
-0.0999999999999997
 31
0.0
  0
LINE
  5
65CE
330
65A9
100
AcDbEntity
  8
SMA
100
AcDbLine
 10
-0.3900000000000006
 20
0.0
 30
0.0
 11
-0.3900000000000006
 21
-0.0999999999999997
 31
0.0
  0
LINE
  5
65CF
330
65A9
100
AcDbEntity
  8
SMA
100
AcDbLine
 10
-0.3300000000000001
 20
0.1299999999999999
 30
0.0
 11
-0.3600000000000003
 21
0.129999999999999
 31
0.0
  0
LINE
  5
65D0
330
65A9
100
AcDbEntity
  8
SMA
100
AcDbLine
 10
-0.3900000000000006
 20
0.0999999999999997
 30
0.0
 11
-0.4200000000000009
 21
0.0999999999999997
 31
0.0
  0
LINE
  5
65D1
330
65A9
100
AcDbEntity
  8
SMA
100
AcDbLine
 10
-0.3600000000000003
 20
0.1150000000000002
 30
0.0
 11
-0.3900000000000006
 21
0.1150000000000002
 31
0.0
  0
LINE
  5
65D2
330
65A9
100
AcDbEntity
  8
SMA
100
AcDbLine
 10
-0.0999999999999997
 20
0.1550000000000002
 30
0.0
 11
-0.0999999999999997
 21
-0.1550000000000002
 31
0.0
  0
LINE
  5
65D3
330
65A9
100
AcDbEntity
  8
SMA
100
AcDbLine
 10
-0.0999999999999997
 20
0.1499999999999995
 30
0.0
 11
-0.0999999999999997
 21
-0.1500000000000003
 31
0.0
  0
LINE
  5
65D4
330
65A9
100
AcDbEntity
  8
SMA
100
AcDbLine
 10
0.0
 20
-0.1500000000000003
 30
0.0
 11
0.0
 21
0.1499999999999995
 31
0.0
  0
LINE
  5
65D5
330
65A9
100
AcDbEntity
  8
SMA
100
AcDbLine
 10
0.0
 20
-0.1500000000000003
 30
0.0
 11
-0.0999999999999997
 21
-0.1500000000000003
 31
0.0
  0
LINE
  5
65D6
330
65A9
100
AcDbEntity
  8
SMA
100
AcDbLine
 10
0.0
 20
0.1499999999999995
 30
0.0
 11
-0.0999999999999997
 21
0.1499999999999995
 31
0.0
  0
LINE
  5
65D7
330
65A9
100
AcDbEntity
  8
SMA
100
AcDbLine
 10
0.0
 20
0.1499999999999995
 30
0.0
 11
0.0
 21
0.1499999999999995
 31
0.0
  0
ENDBLK
  5
65D9
330
65A9
100
AcDbEntity
  8
0
100
AcDbBlockEnd
  0
BLOCK
  5
65E7
330
65DC
100
AcDbEntity
  8
0
100
AcDbBlockBegin
  2
A$C1F6670DA
 70
     0
 10
0.0
 20
0.0
 30
0.0
  3
A$C1F6670DA
  1

  0
INSERT
  5
65DD
330
65DC
100
AcDbEntity
  8
S1
  6
CONTINUOUS
100
AcDbBlockReference
  2
A$C313E7406
 10
0.0
 20
0.0
 30
0.0
 41
2.0
 42
2.0
 43
2.0
 50
180.0
  0
MTEXT
  5
65DE
330
65DC
100
AcDbEntity
  8
D1
100
AcDbMText
 10
0.8460683878231822
 20
-1.241414278438105
 30
0.0
 40
0.1
 41
0.0
 71
     4
 72
     1
  1
%%C0.535-40 THREAD
1001
ACAD
1000
MTEXTBEGIN
1070
    73
1070
     1
1070
    44
1040
1.0
1070
    74
1070
     0
1000
MTEXTEND
  0
LEADER
  5
65DF
330
65DC
100
AcDbEntity
  8
D1
  6
CONTINUOUS
100
AcDbLeader
  3
STANDARD
 76
     3
 10
-0.545
 20
-0.5350000000000002
 30
0.0
 10
0.1659538621949377
 20
-1.24095386219494
 30
0.0
 10
0.7066719465261091
 20
-1.24095386219494
 30
0.0
1001
ACAD
1000
DSTYLE
1002
{
1070
     5
1000

1070
    77
1070
     0
1070
   147
1040
0.09
1070
   289
1070
     0
1002
}
1000
LEANOF
1010
0.0
1020
0.0
1030
0.0
  0
LINE
  5
65E0
330
65DC
100
AcDbEntity
  8
D1
  6
CONTINUOUS
100
AcDbLine
 10
0.1799999999999997
 20
1.035
 30
0.0
 11
0.3600000000000003
 21
1.035
 31
0.0
  0
MTEXT
  5
65E1
330
65DC
100
AcDbEntity
  8
D1
  6
CONTINUOUS
100
AcDbMText
 10
-0.545
 20
1.035
 30
0.0
 40
0.1
 41
0.0
 71
     5
 72
     1
  1
0.545"
1001
ACAD
1000
MTEXTBEGIN
1070
    73
1070
     1
1070
    44
1040
1.0
1070
    74
1070
     0
1000
MTEXTEND
  0
LINE
  5
65E2
330
65DC
100
AcDbEntity
  8
D1
  6
CONTINUOUS
100
AcDbLine
 10
-1.089999999999999
 20
0.5749999999999993
 30
0.0
 11
-1.089999999999999
 21
1.075000000000001
 31
0.0
  0
SOLID
  5
65E3
330
65DC
100
AcDbEntity
  8
D1
  6
CONTINUOUS
100
AcDbTrace
 10
-1.269999999999999
 20
1.064999999999999
 30
0.0
 11
-1.269999999999999
 21
1.005
 31
0.0
 12
-1.089999999999999
 22
1.035
 32
0.0
 13
-1.089999999999999
 23
1.035
 33
0.0
  0
LINE
  5
65E4
330
65DC
100
AcDbEntity
  8
D1
  6
CONTINUOUS
100
AcDbLine
 10
-1.269999999999999
 20
1.035
 30
0.0
 11
-1.45
 21
1.035
 31
0.0
  0
LINE
  5
65E5
330
65DC
100
AcDbEntity
  8
D1
  6
CONTINUOUS
100
AcDbLine
 10
0.0
 20
0.5749999999999993
 30
0.0
 11
0.0
 21
1.075000000000001
 31
0.0
  0
SOLID
  5
65E6
330
65DC
100
AcDbEntity
  8
D1
  6
CONTINUOUS
100
AcDbTrace
 10
0.1799999999999997
 20
1.064999999999999
 30
0.0
 11
0.1799999999999997
 21
1.005
 31
0.0
 12
0.0
 22
1.035
 32
0.0
 13
0.0
 23
1.035
 33
0.0
  0
ENDBLK
  5
65E8
330
65DC
100
AcDbEntity
  8
0
100
AcDbBlockEnd
  0
BLOCK
  5
66F4
330
667B
100
AcDbEntity
  8
0
100
AcDbBlockBegin
  2
A$C6BC477B1
 70
     0
 10
0.0
 20
0.0
 30
0.0
  3
A$C6BC477B1
  1

  0
LINE
  5
667C
330
667B
100
AcDbEntity
  8
S1
100
AcDbLine
 10
-2.065081593705938
 20
0.2354819457675603
 30
0.0
 11
-2.330248604118038
 21
0.5006489561796617
 31
0.0
  0
LINE
  5
667D
330
667B
100
AcDbEntity
  8
S1
100
AcDbLine
 10
-2.180302930942156
 20
0.2623149353554623
 30
0.0
 11
-2.356702930942153
 21
0.4387149353554598
 31
0.0
  0
LINE
  5
667E
330
667B
100
AcDbEntity
  8
S1
100
AcDbLine
 10
-2.268691278590475
 20
0.2623149353554623
 30
0.0
 11
-2.400248604118038
 21
0.3938722608830254
 31
0.0
  0
LINE
  5
667F
330
667B
100
AcDbEntity
  8
S1
100
AcDbLine
 10
-2.151302462826736
 20
-0.1202389233532344
 30
0.0
 11
-2.336656321535434
 21
0.0651149353554637
 31
0.0
  0
LINE
  5
6680
330
667B
100
AcDbEntity
  8
S1
100
AcDbLine
 10
-2.195496636650892
 20
-0.164433097177394
 30
0.0
 11
-2.400248604118042
 21
0.0403188702897524
 31
0.0
  0
LINE
  5
6681
330
667B
100
AcDbEntity
  8
S1
100
AcDbLine
 10
-2.27253301683207
 20
-0.1757850646445362
 30
0.0
 11
-2.33024860411804
 21
-0.1180694773585671
 31
0.0
  0
LINE
  5
6682
330
667B
100
AcDbEntity
  8
D1
100
AcDbLine
 10
-2.248195536836252
 20
0.7734621345884794
 30
0.0
 11
-2.911942022475811
 21
1.853941656525748
 31
0.0
  0
LINE
  5
6683
330
667B
100
AcDbEntity
  8
S1
  6
CONTINUOUS
100
AcDbLine
 39
0.36
 10
-2.116248604118039
 20
0.0651149353554637
 30
0.0
 11
-2.400248604118042
 21
0.0651149353554637
 31
0.0
  0
LINE
  5
6684
330
667B
100
AcDbEntity
  8
S1
  6
CONTINUOUS
100
AcDbLine
 39
0.36
 10
-2.116248604118039
 20
0.2623149353554623
 30
0.0
 11
-2.400248604118042
 21
0.2623149353554623
 31
0.0
  0
LINE
  5
6685
330
667B
100
AcDbEntity
  8
S1
  6
CONTINUOUS
100
AcDbLine
 39
0.36
 10
-2.206848604118034
 20
0.5032149353554623
 30
0.0
 11
-2.330248604118038
 21
0.5032149353554623
 31
0.0
  0
LINE
  5
6686
330
667B
100
AcDbEntity
  8
S1
  6
CONTINUOUS
100
AcDbLine
 39
0.36
 10
-2.206848604118038
 20
-0.1757850646445362
 30
0.0
 11
-2.330248604118041
 21
-0.1757850646445362
 31
0.0
  0
LINE
  5
6687
330
667B
100
AcDbEntity
  8
D1
100
AcDbLine
 10
-2.401444584022515
 20
0.6685362359958856
 30
0.0
 11
-2.911942022475811
 21
1.853941656525748
 31
0.0
  0
LINE
  5
6688
330
667B
100
AcDbEntity
  8
S1
100
AcDbLine
 39
0.36
 10
-2.700248604118039
 20
0.2487149353554585
 30
0.0
 11
-2.700248604118042
 21
0.4387149353554634
 31
0.0
  0
LINE
  5
6689
330
667B
100
AcDbEntity
  8
S1
100
AcDbLine
 39
0.36
 10
-2.330248604118038
 20
-0.1112850646445374
 30
0.0
 11
-2.330248604118038
 21
-0.1757850646445362
 31
0.0
  0
LINE
  5
668A
330
667B
100
AcDbEntity
  8
S1
  6
CONTINUOUS
100
AcDbLine
 39
0.36
 10
-2.400248604118038
 20
0.4017149353554608
 30
0.0
 11
-2.700248604118042
 21
0.4017149353554608
 31
0.0
  0
LINE
  5
668B
330
667B
100
AcDbEntity
  8
S1
100
AcDbLine
 39
0.36
 10
-2.486648604118043
 20
0.4387149353554634
 30
0.0
 11
-2.330248604118038
 21
0.4387149353554598
 31
0.0
  0
LINE
  5
668C
330
667B
100
AcDbEntity
  8
S1
100
AcDbLine
 39
0.36
 10
-2.486648604118043
 20
0.4682149353554621
 30
0.0
 11
-2.486648604118043
 21
0.4387149353554634
 31
0.0
  0
LINE
  5
668D
330
667B
100
AcDbEntity
  8
S1
100
AcDbLine
 39
0.36
 10
-2.670748604118044
 20
0.4682149353554586
 30
0.0
 11
-2.486648604118043
 21
0.4682149353554621
 31
0.0
  0
LINE
  5
668E
330
667B
100
AcDbEntity
  8
S1
100
AcDbLine
 39
0.36
 10
-2.700248604118039
 20
0.4387149353554634
 30
0.0
 11
-2.670748604118044
 21
0.4682149353554586
 31
0.0
  0
LINE
  5
668F
330
667B
100
AcDbEntity
  8
S1
100
AcDbLine
 39
0.36
 10
-2.530248604118041
 20
0.2487149353554621
 30
0.0
 11
-2.700248604118035
 21
0.2487149353554621
 31
0.0
  0
LINE
  5
6690
330
667B
100
AcDbEntity
  8
S1
100
AcDbLine
 39
0.36
 10
-2.530248604118044
 20
0.0787149353554604
 30
0.0
 11
-2.700248604118035
 21
0.0787149353554639
 31
0.0
  0
ARC
  5
6691
330
667B
100
AcDbEntity
  8
S1
100
AcDbCircle
 39
0.36
 10
-2.530248604118041
 20
0.1637149353554612
 30
0.0
 40
0.085
100
AcDbArc
 50
270.0
 51
90.0
  0
LINE
  5
6692
330
667B
100
AcDbEntity
  8
S1
  6
CONTINUOUS
100
AcDbLine
 39
0.36
 10
-2.400248604118042
 20
-0.0742850646445383
 30
0.0
 11
-2.700248604118035
 21
-0.0742850646445383
 31
0.0
  0
LINE
  5
6693
330
667B
100
AcDbEntity
  8
S1
100
AcDbLine
 39
0.36
 10
-2.486648604118043
 20
-0.1112850646445374
 30
0.0
 11
-2.330248604118038
 21
-0.1112850646445374
 31
0.0
  0
LINE
  5
6694
330
667B
100
AcDbEntity
  8
S1
100
AcDbLine
 39
0.36
 10
-2.670748604118037
 20
-0.1407850646445361
 30
0.0
 11
-2.486648604118043
 21
-0.1407850646445361
 31
0.0
  0
LINE
  5
6695
330
667B
100
AcDbEntity
  8
S1
100
AcDbLine
 39
0.36
 10
-2.486648604118043
 20
-0.1407850646445361
 30
0.0
 11
-2.486648604118043
 21
-0.1112850646445374
 31
0.0
  0
LINE
  5
6696
330
667B
100
AcDbEntity
  8
S1
100
AcDbLine
 39
0.36
 10
-2.700748604118038
 20
-0.1107850646445385
 30
0.0
 11
-2.670748604118037
 21
-0.1407850646445361
 31
0.0
  0
LINE
  5
6697
330
667B
100
AcDbEntity
  8
S1
100
AcDbLine
 39
0.36
 10
-2.700248604118035
 20
-0.1112850646445374
 30
0.0
 11
-2.700248604118035
 21
0.0787149353554639
 31
0.0
  0
LINE
  5
6698
330
667B
100
AcDbEntity
  8
S1
  6
CONTINUOUS
100
AcDbLine
 39
0.36
 10
-2.400248604118042
 20
-0.0742850646445383
 30
0.0
 11
-2.400248604118038
 21
0.4017149353554608
 31
0.0
  0
LINE
  5
6699
330
667B
100
AcDbEntity
  8
S1
100
AcDbLine
 39
0.36
 10
-2.330248604118038
 20
0.5032149353554623
 30
0.0
 11
-2.330248604118038
 21
0.4387149353554598
 31
0.0
  0
LINE
  5
669A
330
667B
100
AcDbEntity
  8
S1
100
AcDbLine
 10
-2.337033016832068
 20
-0.1112850646445391
 30
0.0
 11
-2.400248604118042
 21
-0.0480694773585633
 31
0.0
  0
TEXT
  5
669B
330
667B
100
AcDbEntity
  8
D1
100
AcDbText
 10
-5.684535138994003
 20
-0.7397919213401665
 30
0.0
 40
0.1
  1
ACCEPTS FC CONNECTORS
 72
     2
 11
-3.617868472327335
 21
-0.6897919213401665
 31
0.0
100
AcDbText
 73
     2
  0
LINE
  5
669C
330
667B
100
AcDbEntity
  8
D1
100
AcDbLine
 10
-2.756447772887318
 20
-0.2471838555716257
 30
0.0
 11
-3.360411276133433
 21
-0.6897919213401656
 31
0.0
  0
LINE
  5
669D
330
667B
100
AcDbEntity
  8
D1
100
AcDbLine
 10
-3.360411276133433
 20
-0.6897919213401665
 30
0.0
 11
-3.527868472327336
 21
-0.6897919213401665
 31
0.0
  0
LINE
  5
669E
330
667B
100
AcDbEntity
  8
S1
  6
HIDDEN
100
AcDbLine
 39
0.36
 10
-2.486648604118043
 20
-0.1112850646445374
 30
0.0
 11
-2.700248604118035
 21
-0.1112850646445374
 31
0.0
  0
LINE
  5
669F
330
667B
100
AcDbEntity
  8
S1
100
AcDbLine
 10
-2.602198059777023
 20
-0.1112850646445374
 30
0.0
 11
-2.639198059777022
 21
-0.0742850646445383
 31
0.0
  0
LINE
  5
66A0
330
667B
100
AcDbEntity
  8
S1
100
AcDbLine
 10
-2.690586407425341
 20
-0.1112850646445374
 30
0.0
 11
-2.700248604118037
 21
-0.1016228679518427
 31
0.0
  0
SOLID
  5
66A1
330
667B
100
AcDbEntity
  8
D1
100
AcDbTrace
 10
-2.774180904708499
 20
-0.2229860036873656
 30
0.0
 11
-2.738714641066136
 21
-0.2713817074558857
 31
0.0
 12
-2.611260661581757
 22
-0.1407850646445361
 32
0.0
 13
-2.611260661581757
 23
-0.1407850646445361
 33
0.0
  0
LINE
  5
66A2
330
667B
100
AcDbEntity
  8
S1
100
AcDbLine
 10
-2.425421364480387
 20
-0.1112850646445374
 30
0.0
 11
-2.462421364480386
 21
-0.0742850646445383
 31
0.0
  0
LINE
  5
66A3
330
667B
100
AcDbEntity
  8
S1
100
AcDbLine
 10
-2.513809712128706
 20
-0.1112850646445356
 30
0.0
 11
-2.550809712128705
 21
-0.0742850646445383
 31
0.0
  0
LINE
  5
66A4
330
667B
100
AcDbEntity
  8
S1
100
AcDbLine
 10
-2.357079626238794
 20
0.2623149353554623
 30
0.0
 11
-2.400248604118038
 21
0.3054839132347062
 31
0.0
  0
SOLID
  5
66A5
330
667B
100
AcDbEntity
  8
D1
100
AcDbTrace
 10
-2.373891033915779
 20
0.6804022326466317
 30
0.0
 11
-2.428998134129253
 21
0.6566702393451394
 31
0.0
 12
-2.330248604118038
 22
0.5032149353554623
 32
0.0
 13
-2.330248604118038
 23
0.5032149353554623
 33
0.0
  0
LINE
  5
66A6
330
667B
100
AcDbEntity
  8
S1
  6
HIDDEN
100
AcDbLine
 39
0.36
 10
-2.486648604118043
 20
0.4387149353554634
 30
0.0
 11
-2.700248604118039
 21
0.4387149353554634
 31
0.0
  0
LINE
  5
66A7
330
667B
100
AcDbEntity
  8
S1
100
AcDbLine
 10
-2.584867973887112
 20
0.4017149353554608
 30
0.0
 11
-2.621867973887114
 21
0.4387149353554634
 31
0.0
  0
LINE
  5
66A8
330
667B
100
AcDbEntity
  8
S1
100
AcDbLine
 10
-2.673256321535431
 20
0.4017149353554608
 30
0.0
 11
-2.700248604118042
 21
0.4287072179380722
 31
0.0
  0
LINE
  5
66A9
330
667B
100
AcDbEntity
  8
S1
100
AcDbLine
 10
-2.408091278590474
 20
0.4017149353554608
 30
0.0
 11
-2.445091278590476
 21
0.4387149353554616
 31
0.0
  0
LINE
  5
66AA
330
667B
100
AcDbEntity
  8
S1
100
AcDbLine
 10
-2.496479626238793
 20
0.4017149353554608
 30
0.0
 11
-2.533479626238795
 21
0.4387149353554634
 31
0.0
  0
TEXT
  5
66AB
330
667B
100
AcDbEntity
  8
D1
100
AcDbText
 10
-3.971320031903519
 20
1.425102751482637
 30
0.0
 40
0.1
  1
ASSEMBLY
 72
     2
 11
-3.204653365236852
 21
1.475102751482637
 31
0.0
100
AcDbText
 73
     2
  0
TEXT
  5
66AC
330
667B
100
AcDbEntity
  8
D1
100
AcDbText
 10
-3.966687875908673
 20
1.618927307551205
 30
0.0
 40
0.1
  1
COLLIMATION
 72
     2
 11
-2.966687875908673
 21
1.668927307551205
 31
0.0
100
AcDbText
 73
     2
  0
TEXT
  5
66AD
330
667B
100
AcDbEntity
  8
D1
100
AcDbText
 10
-3.869229341580049
 20
1.803941656525748
 30
0.0
 40
0.1
  1
F260FC
 72
     2
 11
-3.319229341580049
 21
1.853941656525748
 31
0.0
100
AcDbText
 73
     2
  0
LINE
  5
66AE
330
667B
100
AcDbEntity
  8
D1
100
AcDbLine
 10
-2.911942022475811
 20
1.853941656525748
 30
0.0
 11
-3.229229341580049
 21
1.853941656525748
 31
0.0
  0
LINE
  5
66AF
330
667B
100
AcDbEntity
  8
D1
100
AcDbLine
 10
-2.911942022475811
 20
1.853941656525748
 30
0.0
 11
-3.017704462177222
 21
1.853941656525748
 31
0.0
  0
LINE
  5
66B0
330
667B
100
AcDbEntity
  8
S2
100
AcDbLine
 39
0.36
 10
-0.9858726691702432
 20
-0.1762850646445457
 30
0.0
 11
-0.9858726691702397
 21
0.5037149353554576
 31
0.0
1001
ACAD
1000
ASC_BOUNDS
1002
{
1070
    19
1005
66CD
1005
66CD
1002
}
  0
LINE
  5
66B1
330
667B
100
AcDbEntity
  8
S2
100
AcDbLine
 39
0.36
 10
-0.925872669170241
 20
-0.114285064644541
 30
0.0
 11
-0.925872669170241
 21
0.44171493535546
 31
0.0
1001
ACAD
1000
ASC_BOUNDS
1002
{
1070
    19
1005
66CD
1005
66CD
1002
}
  0
LINE
  5
66B2
330
667B
100
AcDbEntity
  8
S2
100
AcDbLine
 39
0.36
 10
-0.7158726691702438
 20
-0.2691850646445424
 30
0.0
 11
-0.7158726691702367
 21
0.5966149353554613
 31
0.0
1001
ACAD
1000
ASC_BOUNDS
1002
{
1070
    19
1005
66CD
1005
66CD
1002
}
  0
LINE
  5
66B3
330
667B
100
AcDbEntity
  8
S1
  6
CONTINUOUS
100
AcDbLine
 39
0.36
 10
-2.086848604118037
 20
0.1137149353554605
 30
0.0
 11
-2.086848604118037
 21
0.2137149353554619
 31
0.0
  0
LINE
  5
66B4
330
667B
100
AcDbEntity
  8
S2
100
AcDbLine
 39
0.36
 10
-0.9858726691702397
 20
0.3937149353554581
 30
0.0
 11
-0.9458726691702405
 21
0.3937149353554616
 31
0.0
1001
ACAD
1000
ASC_BOUNDS
1002
{
1070
    19
1005
66CD
1002
}
  0
LINE
  5
66B5
330
667B
100
AcDbEntity
  8
S2
100
AcDbLine
 39
0.36
 10
-0.9458726691702405
 20
-0.114285064644541
 30
0.0
 11
-0.9458726691702405
 21
0.44171493535546
 31
0.0
1001
ACAD
1000
ASC_BOUNDS
1002
{
1070
    19
1005
66CD
1005
66CD
1002
}
  0
LINE
  5
66B6
330
667B
100
AcDbEntity
  8
S2
100
AcDbLine
 39
0.36
 10
-0.9858726691702432
 20
-0.0662850646445428
 30
0.0
 11
-0.9458726691702405
 21
-0.0662850646445428
 31
0.0
1001
ACAD
1000
ASC_BOUNDS
1002
{
1070
    19
1005
66CD
1002
}
  0
LINE
  5
66B7
330
667B
100
AcDbEntity
  8
S1
  6
CONTINUOUS
100
AcDbLine
 39
0.36
 10
-2.086848604118037
 20
0.2137149353554619
 30
0.0
 11
-1.970248604118038
 21
0.3303149353554566
 31
0.0
  0
LINE
  5
66B8
330
667B
100
AcDbEntity
  8
S1
  6
CONTINUOUS
100
AcDbLine
 39
0.36
 10
-1.970248604118038
 20
0.5032149353554623
 30
0.0
 11
-2.086848604118037
 21
0.5032149353554623
 31
0.0
  0
LINE
  5
66B9
330
667B
100
AcDbEntity
  8
S1
  6
CONTINUOUS
100
AcDbLine
 39
0.36
 10
-2.116248604118039
 20
0.0651149353554601
 30
0.0
 11
-2.116248604118039
 21
0.2623149353554623
 31
0.0
  0
LINE
  5
66BA
330
667B
100
AcDbEntity
  8
S1
  6
CONTINUOUS
100
AcDbLine
 39
0.36
 10
-2.086848604118037
 20
0.2137149353554584
 30
0.0
 11
-2.116248604118039
 21
0.2137149353554584
 31
0.0
  0
LINE
  5
66BB
330
667B
100
AcDbEntity
  8
S1
  6
CONTINUOUS
100
AcDbLine
 39
0.36
 10
-2.08684860411804
 20
0.1137149353554605
 30
0.0
 11
-2.116248604118039
 21
0.1137149353554605
 31
0.0
  0
LINE
  5
66BC
330
667B
100
AcDbEntity
  8
S1
  6
CONTINUOUS
100
AcDbLine
 39
0.36
 10
-1.970248604118038
 20
-0.1757850646445362
 30
0.0
 11
-2.086848604118037
 21
-0.1757850646445362
 31
0.0
  0
LINE
  5
66BD
330
667B
100
AcDbEntity
  8
S1
100
AcDbLine
 39
0.36
 10
-1.970248604118038
 20
0.5032149353554623
 30
0.0
 11
-1.970248604118038
 21
-0.1757850646445362
 31
0.0
  0
LINE
  5
66BE
330
667B
100
AcDbEntity
  8
S1
  6
CONTINUOUS
100
AcDbLine
 39
0.36
 10
-2.086848604118037
 20
0.1137149353554605
 30
0.0
 11
-1.970248604118038
 21
-0.0028850646445342
 31
0.0
  0
LINE
  5
66BF
330
667B
100
AcDbEntity
  8
S2
100
AcDbLine
 39
0.36
 10
-2.261872669170235
 20
0.5032149353554623
 30
0.0
 11
-2.261872669170235
 21
0.5766149353554617
 31
0.0
1001
ACAD
1000
ASC_BOUNDS
1002
{
1070
    19
1005
66CD
1002
}
  0
LINE
  5
66C0
330
667B
100
AcDbEntity
  8
S2
100
AcDbLine
 39
0.36
 10
-2.261872669170243
 20
-0.2491850646445428
 30
0.0
 11
-2.261872669170243
 21
-0.1757850646445362
 31
0.0
1001
ACAD
1000
ASC_BOUNDS
1002
{
1070
    19
1005
66CD
1002
}
  0
LINE
  5
66C1
330
667B
100
AcDbEntity
  8
S2
100
AcDbLine
 39
0.36
 10
-2.10587266917024
 20
-0.1762850646445386
 30
0.0
 11
-2.10587266917024
 21
-0.2691850646445388
 31
0.0
1001
ACAD
1000
ASC_BOUNDS
1002
{
1070
    19
1005
66CD
1002
}
  0
LINE
  5
66C2
330
667B
100
AcDbEntity
  8
S2
100
AcDbLine
 39
0.36
 10
-2.177872669170239
 20
-0.1762850646445386
 30
0.0
 11
-2.177872669170239
 21
-0.2691850646445388
 31
0.0
1001
ACAD
1000
ASC_BOUNDS
1002
{
1070
    19
1005
66CD
1002
}
  0
LINE
  5
66C3
330
667B
100
AcDbEntity
  8
S1
100
AcDbLine
 39
0.36
 10
-2.086848604118037
 20
-0.1757850646445362
 30
0.0
 11
-2.146848604118039
 21
-0.1157850646445375
 31
0.0
  0
LINE
  5
66C4
330
667B
100
AcDbEntity
  8
S2
100
AcDbLine
 39
0.36
 10
-2.261872669170239
 20
-0.1762850646445422
 30
0.0
 11
-0.9858726691702432
 21
-0.1762850646445422
 31
0.0
1001
ACAD
1000
ASC_BOUNDS
1002
{
1070
    19
1005
66CD
1005
66CD
1002
}
  0
LINE
  5
66C5
330
667B
100
AcDbEntity
  8
S1
100
AcDbLine
 39
0.36
 10
-2.146848604118039
 20
-0.1157850646445375
 30
0.0
 11
-2.206848604118034
 21
-0.1757850646445362
 31
0.0
  0
LINE
  5
66C6
330
667B
100
AcDbEntity
  8
S1
100
AcDbLine
 39
0.36
 10
-2.086848604118037
 20
0.5032149353554623
 30
0.0
 11
-2.146848604118039
 21
0.4432149353554636
 31
0.0
  0
LINE
  5
66C7
330
667B
100
AcDbEntity
  8
S1
100
AcDbLine
 39
0.36
 10
-2.146848604118039
 20
0.4432149353554636
 30
0.0
 11
-2.206848604118034
 21
0.5032149353554623
 31
0.0
  0
LINE
  5
66C8
330
667B
100
AcDbEntity
  8
S2
100
AcDbLine
 39
0.36
 10
-2.105872669170237
 20
0.5966149353554613
 30
0.0
 11
-2.105872669170237
 21
0.5037149353554611
 31
0.0
1001
ACAD
1000
ASC_BOUNDS
1002
{
1070
    19
1005
66CD
1002
}
  0
LINE
  5
66C9
330
667B
100
AcDbEntity
  8
S2
100
AcDbLine
 39
0.36
 10
-2.261872669170235
 20
0.5037149353554611
 30
0.0
 11
-0.9858726691702397
 21
0.5037149353554576
 31
0.0
1001
ACAD
1000
ASC_BOUNDS
1002
{
1070
    19
1005
66CD
1005
66CD
1002
}
  0
LINE
  5
66CA
330
667B
100
AcDbEntity
  8
S2
100
AcDbLine
 39
0.36
 10
-2.177872669170236
 20
0.5966149353554613
 30
0.0
 11
-2.177872669170236
 21
0.5037149353554611
 31
0.0
1001
ACAD
1000
ASC_BOUNDS
1002
{
1070
    19
1005
66CD
1002
}
  0
TEXT
  5
66CB
330
667B
100
AcDbEntity
  8
DIM
100
AcDbText
 10
0.6210005081775237
 20
1.05077480868589
 30
0.0
 40
0.1
  1
15.29mm FOCAL LENGTH
100
AcDbText
  0
TEXT
  5
66CC
330
667B
100
AcDbEntity
  8
DIM
100
AcDbText
 10
0.6062407465601503
 20
1.216858410399174
 30
0.0
 40
0.1
  1
350260 ASPHERIC LENS
100
AcDbText
  0
INSERT
  5
66CD
330
667B
100
AcDbEntity
  8
S2
  6
CONTINUOUS
100
AcDbBlockReference
  2
*X25
 10
0.0
 20
0.0
 30
0.0
1001
ACAD
1000
HATCH
1002
{
1070
    19
1000
ANSI31
1040
0.5
1040
0.0
1000
ASC_BOUNDS
1070
     4
1070
     1
1070
     5
1005
66C2
1005
66D3
1005
66D4
1005
66C0
1005
66C4
1070
     1
1070
    12
1005
66B2
1005
66D7
1005
66D8
1005
66D3
1005
66C1
1005
66C4
1005
66B0
1005
66B6
1005
66B5
1005
66D9
1005
66B1
1005
66D5
1070
     1
1070
    13
1005
66B2
1005
66EB
1005
66B1
1005
66EF
1005
66B5
1005
66D1
1005
66B4
1005
66B0
1005
66C9
1005
66C8
1005
66E0
1005
66EE
1005
66ED
1070
     1
1070
     5
1005
66CA
1005
66C9
1005
66BF
1005
66E6
1005
66E0
1000
ASC_SEEDPOINT
1011
-2.24254162933092
1021
0.5574100447561819
1031
0.0
1000
R14_HATCH_DATA
1000
66CD
1011
1.0
1021
0.0
1031
0.0
1011
0.0
1021
1.0
1031
0.0
1011
0.0
1021
0.0
1031
1.0
1040
0.0
1010
0.0
1020
0.0
1030
1.0
1000
ANSI31
1070
     0
1070
     1
1071
        4
1071
        7
1070
     0
1070
     1
1071
        5
1040
-2.261872669170235
1040
0.5037149353554611
1040
-2.177872669170236
1040
0.503714935355461
1040
-2.177872669170236
1040
0.5966149353554613
1040
-2.241872669170239
1040
0.5966149353554613
1040
-2.261872669170235
1040
0.5766149353554614
1071
        5
1005
66E0
1005
66E6
1005
66BF
1005
66C9
1005
66CA
1071
        7
1070
     0
1070
     1
1071
       13
1040
-2.105872669170237
1040
0.5966149353554614
1040
-2.105872669170236
1040
0.5037149353554607
1040
-0.9858726691702395
1040
0.5037149353554577
1040
-0.9858726691702402
1040
0.3937149353554582
1040
-0.9458726691702407
1040
0.3937149353554617
1040
-0.9458726691702405
1040
0.4196199353554598
1040
-0.9458726691702405
1040
0.44171493535546
1040
-0.925872669170241
1040
0.44171493535546
1040
-0.925872669170241
1040
0.4207149353554628
1040
-0.7158726691702381
1040
0.4207149353554627
1040
-0.7158726691702368
1040
0.5727149353554566
1040
-0.9458726691702404
1040
0.5727149353554637
1040
-0.9458726691702407
1040
0.5966149353554612
1071
       13
1005
66ED
1005
66EE
1005
66E0
1005
66C8
1005
66C9
1005
66B0
1005
66B4
1005
66D1
1005
66B5
1005
66EF
1005
66B1
1005
66EB
1005
66B2
1071
        7
1070
     0
1070
     1
1071
       12
1040
-0.9458726691702407
1040
-0.2691850646445393
1040
-0.9458726691702404
1040
-0.2452850646445413
1040
-0.7158726691702436
1040
-0.2452850646445412
1040
-0.7158726691702423
1040
-0.0932850646445402
1040
-0.925872669170241
1040
-0.0932850646445402
1040
-0.925872669170241
1040
-0.114285064644541
1040
-0.9458726691702407
1040
-0.114285064644541
1040
-0.9458726691702405
1040
-0.0662850646445428
1040
-0.9858726691702425
1040
-0.0662850646445428
1040
-0.9858726691702431
1040
-0.1762850646445422
1040
-2.10587266917024
1040
-0.1762850646445422
1040
-2.10587266917024
1040
-0.269185064644542
1071
       12
1005
66D5
1005
66B1
1005
66D9
1005
66B5
1005
66B6
1005
66B0
1005
66C4
1005
66C1
1005
66D3
1005
66D8
1005
66D7
1005
66B2
1071
        7
1070
     0
1070
     1
1071
        5
1040
-2.177872669170239
1040
-0.1762850646445422
1040
-2.261872669170243
1040
-0.1762850646445422
1040
-2.261872669170243
1040
-0.2491850646445424
1040
-2.241872669170239
1040
-0.2691850646445424
1040
-2.177872669170239
1040
-0.2691850646445423
1071
        5
1005
66C4
1005
66C0
1005
66D4
1005
66D3
1005
66C2
1070
     0
1070
     1
1040
0.0
1040
0.5
1070
     0
1070
     1
1040
0.7853981633974483
1040
-17.309043507741
1040
-8.055238748296204
1040
-0.0441941738241592
1040
0.0441941738241592
1070
     0
1040
0.0030795621159523
1071
        4
1040
-2.24254162933092
1040
0.5574100447561819
1040
0.0
1040
-1.724837704273999
1040
0.5635691308829678
1040
0.0
1040
-1.872753135625933
1040
-0.2371170004310557
1040
0.0
1040
-2.211725914465935
1040
-0.2186396381595017
1040
0.0
1002
}
  0
LINE
  5
66CE
330
667B
100
AcDbEntity
  8
S1
100
AcDbLine
 10
-1.970248604118037
 20
-0.1245160867652961
 30
0.0
 11
-2.159879626238797
 21
0.0651149353554637
 31
0.0
  0
LINE
  5
66CF
330
667B
100
AcDbEntity
  8
S1
100
AcDbLine
 10
-2.007367973887115
 20
-0.1757850646445354
 30
0.0
 11
-2.248267973887115
 21
0.0651149353554637
 31
0.0
  0
ARC
  5
66D0
330
667B
100
AcDbEntity
  8
350280
100
AcDbCircle
 10
-1.606269087118958
 20
0.1637149353554612
 30
0.0
 40
0.8643330179487218
100
AcDbArc
 50
344.6813190551352
 51
15.31868094486478
  0
LINE
  5
66D1
330
667B
100
AcDbEntity
  8
350280
100
AcDbLine
 10
-0.9458726691702405
 20
-0.0921900646445373
 30
0.0
 11
-0.9458726691702405
 21
0.4196199353554598
 31
0.0
1001
ACAD
1000
ASC_BOUNDS
1002
{
1070
    19
1005
66CD
1002
}
  0
INSERT
  5
66D2
330
667B
100
AcDbEntity
  8
0
  6
CONTINUOUS
100
AcDbBlockReference
  2
*X26
 10
0.0
 20
0.0
 30
0.0
1001
ACAD
1000
HATCH
1002
{
1070
    19
1000
ANSI37
1040
0.25
1040
0.0
1000
R14_HATCH_DATA
1000
66D2
1011
1.0
1021
0.0
1031
0.0
1011
0.0
1021
1.0
1031
0.0
1011
0.0
1021
0.0
1031
1.0
1040
0.0
1010
0.0
1020
0.0
1030
1.0
1000
ANSI37
1070
     0
1070
     0
1071
        4
1071
        7
1070
     0
1070
     1
1071
        4
1040
-2.105872669170237
1040
0.5966149353554613
1040
-2.177872669170236
1040
0.5966149353554613
1040
-2.177872669170236
1040
0.5037149353554611
1040
-2.105872669170237
1040
0.5037149353554611
1071
        0
1071
        7
1070
     0
1070
     1
1071
        3
1040
-2.207348604118033
1040
0.5037149353554611
1040
-2.146848604118039
1040
0.4432149353554636
1040
-2.086348604118038
1040
0.5037149353554611
1071
        0
1071
        7
1070
     0
1070
     1
1071
        3
1040
-2.086348604118031
1040
-0.1762850646445422
1040
-2.146848604118039
1040
-0.1157850646445375
1040
-2.20734860411804
1040
-0.1762850646445422
1071
        0
1071
        7
1070
     0
1070
     1
1071
        4
1040
-2.10587266917024
1040
-0.1762850646445422
1040
-2.177872669170239
1040
-0.1762850646445422
1040
-2.177872669170239
1040
-0.2691850646445424
1040
-2.10587266917024
1040
-0.2691850646445415
1071
        0
1070
     0
1070
     1
1040
0.0
1040
0.25
1070
     0
1070
     2
1040
0.7853981633974483
1040
-12.56448015555997
1040
-5.367101157952792
1040
-0.0220970869120796
1040
0.0220970869120796
1070
     0
1040
2.356194490192344
1040
-12.56448015555997
1040
-5.367101157952792
1040
-0.0220970869120796
1040
-0.0220970869120796
1070
     0
1040
0.0016923042674098
1071
        4
1040
-2.130303633940611
1040
0.5390160682039671
1040
0.0
1040
-2.154011350504928
1040
0.4916315389165256
1040
0.0
1040
-2.157398167156982
1040
-0.1615979406680204
1040
0.0
1040
-2.130303633940611
1040
-0.2055978607206406
1040
0.0
1002
}
  0
LINE
  5
66D3
330
667B
100
AcDbEntity
  8
S2
100
AcDbLine
 10
-0.7158726691702402
 20
-0.2691850646445388
 30
0.0
 11
-2.241872669170239
 21
-0.2691850646445424
 31
0.0
1001
ACAD
1000
ASC_BOUNDS
1002
{
1070
    19
1005
66CD
1005
66CD
1002
}
  0
LINE
  5
66D4
330
667B
100
AcDbEntity
  8
S2
100
AcDbLine
 10
-2.261872669170243
 20
-0.2491850646445428
 30
0.0
 11
-2.241872669170239
 21
-0.2691850646445424
 31
0.0
1001
ACAD
1000
ASC_BOUNDS
1002
{
1070
    19
1005
66CD
1002
}
  0
LINE
  5
66D5
330
667B
100
AcDbEntity
  8
S2
100
AcDbLine
 10
-0.7158726691702402
 20
-0.0932850646445402
 30
0.0
 11
-0.925872669170241
 21
-0.0932850646445402
 31
0.0
1001
ACAD
1000
ASC_BOUNDS
1002
{
1070
    19
1005
66CD
1002
}
  0
LINE
  5
66D6
330
667B
100
AcDbEntity
  8
350280
100
AcDbLine
 10
-0.9458726691702405
 20
-0.0921900646445373
 30
0.0
 11
-0.7726446691702389
 21
-0.0921900646445373
 31
0.0
  0
LINE
  5
66D7
330
667B
100
AcDbEntity
  8
S2
  6
HIDDEN
100
AcDbLine
 39
0.36
 10
-0.7158726691702438
 20
-0.2452850646445412
 30
0.0
 11
-0.9458726691702405
 21
-0.2452850646445412
 31
0.0
1001
ACAD
1000
ASC_BOUNDS
1002
{
1070
    19
1005
66CD
1002
}
  0
LINE
  5
66D8
330
667B
100
AcDbEntity
  8
S2
  6
HIDDEN
100
AcDbLine
 39
0.36
 10
-0.9458726691702405
 20
-0.2691850646445388
 30
0.0
 11
-0.9458726691702405
 21
-0.2452850646445412
 31
0.0
1001
ACAD
1000
ASC_BOUNDS
1002
{
1070
    19
1005
66CD
1002
}
  0
LINE
  5
66D9
330
667B
100
AcDbEntity
  8
S2
100
AcDbLine
 10
-0.925872669170241
 20
-0.114285064644541
 30
0.0
 11
-0.9458726691702405
 21
-0.114285064644541
 31
0.0
1001
ACAD
1000
ASC_BOUNDS
1002
{
1070
    19
1005
66CD
1002
}
  0
LINE
  5
66DA
330
667B
100
AcDbEntity
  8
350280
100
AcDbLine
 10
-0.7726446691702389
 20
-0.0921900646445373
 30
0.0
 11
-0.7726446691702389
 21
-0.0646310646445372
 31
0.0
  0
LEADER
  5
66DB
330
667B
100
AcDbEntity
  8
D1
  6
CONTINUOUS
100
AcDbLeader
  3
STANDARD
 40
0.2666666666666666
 41
1.866666666666666
 76
     3
 10
-0.7158726691702402
 20
0.2184027583538644
 30
0.0
 10
0.1402608645698624
 20
1.27075904812122
 30
0.0
 10
0.5163475370327167
 20
1.270759048121221
 30
0.0
213
0.0
223
-0.05
233
0.0
1001
ACAD
1000
DSTYLE
1002
{
1070
     5
1000

1070
    77
1070
     0
1070
   147
1040
0.09
1070
   289
1070
     0
1002
}
1000
LEANOF
1010
0.0
1020
-0.05
1030
0.0
  0
LINE
  5
66DC
330
667B
100
AcDbEntity
  8
350280
100
AcDbLine
 10
-0.7575824630592063
 20
0.3274298707107981
 30
0.0
 11
0.0223241885050829
 21
0.3274298707107981
 31
0.0
  0
LINE
  5
66DD
330
667B
100
AcDbEntity
  8
350280
100
AcDbLine
 10
-0.7575824630592063
 20
0.0000000000001208
 30
0.0
 11
0.0000000000000657
 21
0.0000000000001208
 31
0.0
  0
LINE
  5
66DE
330
667B
100
AcDbEntity
  8
350280
100
AcDbLine
 10
-0.9458726691702405
 20
0.0165782459390958
 30
0.0
 11
-2.088312669170248
 21
0.1637149353554612
 31
0.0
  0
LINE
  5
66DF
330
667B
100
AcDbEntity
  8
350280
100
AcDbLine
 10
-0.9458726691702405
 20
0.3108516247718249
 30
0.0
 11
-2.088312669170248
 21
0.1637149353554612
 31
0.0
  0
LINE
  5
66E0
330
667B
100
AcDbEntity
  8
S2
100
AcDbLine
 10
-0.7158726691702367
 20
0.5966149353554613
 30
0.0
 11
-2.241872669170239
 21
0.5966149353554613
 31
0.0
1001
ACAD
1000
ASC_BOUNDS
1002
{
1070
    19
1005
66CD
1005
66CD
1002
}
  0
LINE
  5
66E1
330
667B
100
AcDbEntity
  8
S1
100
AcDbLine
 10
-1.976693246057617
 20
0.3238702934158759
 30
0.0
 11
-2.121443246057621
 21
0.4686202934158814
 31
0.0
  0
LINE
  5
66E2
330
667B
100
AcDbEntity
  8
S1
100
AcDbLine
 10
-2.020887419881779
 20
0.2796761195917181
 30
0.0
 11
-2.244426235645521
 21
0.5032149353554623
 31
0.0
  0
LINE
  5
66E3
330
667B
100
AcDbEntity
  8
S1
100
AcDbLine
 10
-1.970248604118038
 20
-0.0361277391169761
 30
0.0
 11
-2.116248604118037
 21
0.1098722608830229
 31
0.0
  0
SOLID
  5
66E4
330
667B
100
AcDbEntity
  8
D1
100
AcDbTrace
 10
-2.222633503630751
 20
0.7891650788474625
 30
0.0
 11
-2.273757570041757
 21
0.7577591903294945
 31
0.0
 12
-2.15397787128235
 22
0.620089935355459
 32
0.0
 13
-2.15397787128235
 23
0.620089935355459
 33
0.0
  0
LINE
  5
66E5
330
667B
100
AcDbEntity
  8
S1
100
AcDbLine
 10
-1.970248604118038
 20
0.4058139991246179
 30
0.0
 11
-2.067649540348883
 21
0.5032149353554623
 31
0.0
  0
LINE
  5
66E6
330
667B
100
AcDbEntity
  8
S2
100
AcDbLine
 10
-2.261872669170235
 20
0.5766149353554617
 30
0.0
 11
-2.241872669170239
 21
0.5966149353554613
 31
0.0
1001
ACAD
1000
ASC_BOUNDS
1002
{
1070
    19
1005
66CD
1002
}
  0
LINE
  5
66E7
330
667B
100
AcDbEntity
  8
S1
100
AcDbLine
 10
-1.970248604118037
 20
0.4942023467729353
 30
0.0
 11
-1.979261192700565
 21
0.5032149353554623
 31
0.0
  0
LINE
  5
66E8
330
667B
100
AcDbEntity
  8
350280
100
AcDbLine
 10
-0.7726446691702389
 20
0.3920609353554631
 30
0.0
 11
-0.7726446691702389
 21
0.4196199353554598
 31
0.0
  0
LINE
  5
66E9
330
667B
100
AcDbEntity
  8
350280
100
AcDbLine
 10
-0.7575824630592063
 20
0.0000000000001208
 30
0.0
 11
-0.9458726691702405
 21
0.0165782459390958
 31
0.0
  0
LINE
  5
66EA
330
667B
100
AcDbEntity
  8
350280
100
AcDbLine
 10
-0.9458726691702405
 20
0.3108516247718249
 30
0.0
 11
-0.7575824630592063
 21
0.3274298707107981
 31
0.0
  0
LINE
  5
66EB
330
667B
100
AcDbEntity
  8
S2
100
AcDbLine
 10
-0.7158726691702402
 20
0.4207149353554627
 30
0.0
 11
-0.9258726691702445
 21
0.4207149353554627
 31
0.0
1001
ACAD
1000
ASC_BOUNDS
1002
{
1070
    19
1005
66CD
1002
}
  0
LINE
  5
66EC
330
667B
100
AcDbEntity
  8
350280
100
AcDbLine
 10
-0.9458726691702405
 20
0.4196199353554598
 30
0.0
 11
-0.7726446691702389
 21
0.4196199353554598
 31
0.0
  0
LINE
  5
66ED
330
667B
100
AcDbEntity
  8
S2
  6
HIDDEN
100
AcDbLine
 39
0.36
 10
-0.7158726691702367
 20
0.5727149353554566
 30
0.0
 11
-0.9458726691702405
 21
0.5727149353554637
 31
0.0
1001
ACAD
1000
ASC_BOUNDS
1002
{
1070
    19
1005
66CD
1002
}
  0
LINE
  5
66EE
330
667B
100
AcDbEntity
  8
S2
  6
HIDDEN
100
AcDbLine
 39
0.36
 10
-0.9458726691702405
 20
0.5727149353554637
 30
0.0
 11
-0.9458726691702405
 21
0.5966149353554649
 31
0.0
1001
ACAD
1000
ASC_BOUNDS
1002
{
1070
    19
1005
66CD
1002
}
  0
LINE
  5
66EF
330
667B
100
AcDbEntity
  8
S2
100
AcDbLine
 10
-0.9258726691702445
 20
0.44171493535546
 30
0.0
 11
-0.9458726691702405
 21
0.44171493535546
 31
0.0
1001
ACAD
1000
ASC_BOUNDS
1002
{
1070
    19
1005
66CD
1002
}
  0
ARC
  5
66F0
330
667B
100
AcDbEntity
  8
350280
100
AcDbCircle
 10
-0.0930042571807608
 20
0.1222817697669285
 30
0.0
 40
0.1536314520892772
100
AcDbArc
 50
307.2556519043245
 51
32.83150397321506
  0
ARC
  5
66F1
330
667B
100
AcDbEntity
  8
350280
100
AcDbCircle
 10
-0.0908107858220202
 20
0.2529472816584342
 30
0.0
 40
0.1354517570500199
100
AcDbArc
 50
311.8587138137319
 51
33.35897172682891
  0
ARC
  5
66F2
330
667B
100
AcDbEntity
  8
350280
100
AcDbCircle
 10
0.0411460286845706
 20
0.0761473272463107
 30
0.0
 40
0.086552938270565
100
AcDbArc
 50
118.7042549142344
 51
241.6155344623518
  0
TEXT
  5
66F3
330
667B
100
AcDbEntity
  8
DIM
100
AcDbText
 10
0.6121514844041905
 20
0.8841081420192224
 30
0.0
 40
0.1
  1
0.16 NA
100
AcDbText
  0
ENDBLK
  5
66F5
330
667B
100
AcDbEntity
  8
0
100
AcDbBlockEnd
  0
BLOCK
  5
6721
330
66FF
100
AcDbEntity
  8
0
100
AcDbBlockBegin
  2
A$C405C6523
 70
     0
 10
0.0
 20
0.0
 30
0.0
  3
A$C405C6523
  1

  0
LINE
  5
6700
330
66FF
100
AcDbEntity
  8
SMA
  6
CONTINUOUS
100
AcDbLine
 10
0.0349999999999984
 20
0.219999999999998
 30
0.0
 11
0.0350000000000002
 21
-0.2200000000000006
 31
0.0
  0
LINE
  5
6701
330
66FF
100
AcDbEntity
  8
SMA
  6
CONTINUOUS
100
AcDbLine
 10
0.0
 20
0.2199999999999989
 30
0.0
 11
0.0
 21
-0.2199999999999997
 31
0.0
  0
LINE
  5
6702
330
66FF
100
AcDbEntity
  8
SMA
  6
CONTINUOUS
100
AcDbLine
 10
0.0350000000000002
 20
-0.2200000000000006
 30
0.0
 11
0.0
 21
-0.2199999999999997
 31
0.0
  0
LINE
  5
6703
330
66FF
100
AcDbEntity
  8
SMA
  6
CONTINUOUS
100
AcDbLine
 10
0.0350000000000002
 20
-0.1749999999999998
 30
0.0
 11
0.0969999999999996
 21
-0.1749999999999998
 31
0.0
  0
LINE
  5
6704
330
66FF
100
AcDbEntity
  8
SMA
  6
CONTINUOUS
100
AcDbLine
 10
0.0969999999999996
 20
0.1749999999999998
 30
0.0
 11
0.0350000000000002
 21
0.1749999999999998
 31
0.0
  0
LINE
  5
6705
330
66FF
100
AcDbEntity
  8
SMA
  6
CONTINUOUS
100
AcDbLine
 10
-0.1530000000000022
 20
-0.1230000000000011
 30
0.0
 11
-0.1530000000000005
 21
0.1230000000000002
 31
0.0
  0
LINE
  5
6706
330
66FF
100
AcDbEntity
  8
SMA
  6
CONTINUOUS
100
AcDbLine
 10
-0.1530000000000022
 20
-0.1230000000000011
 30
0.0
 11
0.0000000000000018
 21
-0.1229999999999984
 31
0.0
  0
LINE
  5
6707
330
66FF
100
AcDbEntity
  8
SMA
  6
HIDDEN
100
AcDbLine
 10
-0.1530000000000005
 20
-0.1050000000000004
 30
0.0
 11
0.0000000000000018
 21
-0.1050000000000004
 31
0.0
  0
LINE
  5
6708
330
66FF
100
AcDbEntity
  8
SMA
  6
CONTINUOUS
100
AcDbLine
 10
-0.2230000000000007
 20
0.0749999999999993
 30
0.0
 11
-0.2230000000000007
 21
-0.0750000000000002
 31
0.0
  0
LINE
  5
6709
330
66FF
100
AcDbEntity
  8
SMA
  6
CONTINUOUS
100
AcDbLine
 10
-0.2230000000000007
 20
0.0749999999999993
 30
0.0
 11
-0.218
 21
0.0800000000000001
 31
0.0
  0
LINE
  5
670A
330
66FF
100
AcDbEntity
  8
SMA
  6
CONTINUOUS
100
AcDbLine
 10
-0.1980000000000004
 20
0.0800000000000001
 30
0.0
 11
-0.1980000000000004
 21
0.0800000000000001
 31
0.0
  0
LINE
  5
670B
330
66FF
100
AcDbEntity
  8
SMA
  6
CONTINUOUS
100
AcDbLine
 10
-0.2230000000000007
 20
0.0
 30
0.0
 11
-0.2230000000000007
 21
0.0
 31
0.0
  0
LINE
  5
670C
330
66FF
100
AcDbEntity
  8
SMA
  6
CONTINUOUS
100
AcDbLine
 10
-0.2230000000000007
 20
0.0750000000000002
 30
0.0
 11
-0.2230000000000007
 21
0.0750000000000002
 31
0.0
  0
LINE
  5
670D
330
66FF
100
AcDbEntity
  8
SMA
  6
CONTINUOUS
100
AcDbLine
 10
-0.3230000000000004
 20
-0.0250000000000004
 30
0.0
 11
-0.2230000000000007
 21
-0.0250000000000004
 31
0.0
  0
LINE
  5
670E
330
66FF
100
AcDbEntity
  8
SMA
  6
CONTINUOUS
100
AcDbLine
 10
-0.3230000000000004
 20
0.0
 30
0.0
 11
-0.3230000000000004
 21
-0.0250000000000004
 31
0.0
  0
LINE
  5
670F
330
66FF
100
AcDbEntity
  8
SMA
  6
CONTINUOUS
100
AcDbLine
 10
-0.2730000000000015
 20
0.0250000000000004
 30
0.0
 11
-0.2230000000000007
 21
0.0250000000000004
 31
0.0
  0
LINE
  5
6710
330
66FF
100
AcDbEntity
  8
SMA
  6
CONTINUOUS
100
AcDbLine
 10
-0.2730000000000015
 20
0.0250000000000004
 30
0.0
 11
-0.298
 21
0.0
 31
0.0
  0
LINE
  5
6711
330
66FF
100
AcDbEntity
  8
SMA
  6
CONTINUOUS
100
AcDbLine
 10
-0.298
 20
0.0
 30
0.0
 11
-0.3230000000000004
 21
0.0
 31
0.0
  0
LINE
  5
6712
330
66FF
100
AcDbEntity
  8
SMA
  6
CONTINUOUS
100
AcDbLine
 10
-0.218
 20
0.0800000000000001
 30
0.0
 11
-0.1530000000000005
 21
0.0800000000000001
 31
0.0
  0
LINE
  5
6713
330
66FF
100
AcDbEntity
  8
SMA
  6
CONTINUOUS
100
AcDbLine
 10
-0.1530000000000005
 20
-0.0800000000000001
 30
0.0
 11
-0.1530000000000005
 21
-0.0800000000000001
 31
0.0
  0
LINE
  5
6714
330
66FF
100
AcDbEntity
  8
SMA
  6
CONTINUOUS
100
AcDbLine
 10
-0.2230000000000007
 20
-0.0750000000000002
 30
0.0
 11
-0.218
 21
-0.0800000000000001
 31
0.0
  0
LINE
  5
6715
330
66FF
100
AcDbEntity
  8
SMA
  6
CONTINUOUS
100
AcDbLine
 10
-0.218
 20
-0.0800000000000001
 30
0.0
 11
-0.1530000000000005
 21
-0.0800000000000001
 31
0.0
  0
LINE
  5
6716
330
66FF
100
AcDbEntity
  8
SMA
  6
HIDDEN
100
AcDbLine
 10
-0.1530000000000005
 20
0.1050000000000004
 30
0.0
 11
0.0000000000000018
 21
0.1049999999999995
 31
0.0
  0
LINE
  5
6717
330
66FF
100
AcDbEntity
  8
SMA
  6
CONTINUOUS
100
AcDbLine
 10
-0.1530000000000005
 20
0.1230000000000002
 30
0.0
 11
0.0000000000000018
 21
0.1230000000000002
 31
0.0
  0
LINE
  5
6718
330
66FF
100
AcDbEntity
  8
SMA
  6
CONTINUOUS
100
AcDbLine
 10
0.0349999999999984
 20
0.219999999999998
 30
0.0
 11
0.0
 21
0.2199999999999989
 31
0.0
  0
LINE
  5
6719
330
66FF
100
AcDbEntity
  8
SMA
  6
CONTINUOUS
100
AcDbLine
 10
0.0969999999999996
 20
-0.1749999999999998
 30
0.0
 11
0.0969999999999996
 21
0.1749999999999998
 31
0.0
  0
LINE
  5
671A
330
66FF
100
AcDbEntity
  8
SMA
  6
CONTINUOUS
100
AcDbLine
 10
0.3469999999999995
 20
-0.1230000000000002
 30
0.0
 11
0.3469999999999995
 21
0.1230000000000002
 31
0.0
  0
LINE
  5
671B
330
66FF
100
AcDbEntity
  8
SMA
  6
HIDDEN
100
AcDbLine
 10
0.3469999999999995
 20
-0.1050000000000004
 30
0.0
 11
0.0969999999999996
 21
-0.1050000000000004
 31
0.0
  0
LINE
  5
671C
330
66FF
100
AcDbEntity
  8
SMA
  6
CONTINUOUS
100
AcDbLine
 10
0.3469999999999995
 20
-0.1230000000000002
 30
0.0
 11
0.0969999999999996
 21
-0.1230000000000002
 31
0.0
  0
LINE
  5
671D
330
66FF
100
AcDbEntity
  8
SMA
  6
CONTINUOUS
100
AcDbLine
 10
0.0969999999999996
 20
0.0
 30
0.0
 11
0.0969999999999996
 21
0.0
 31
0.0
  0
LINE
  5
671E
330
66FF
100
AcDbEntity
  8
SMA
  6
CONTINUOUS
100
AcDbLine
 10
0.3469999999999995
 20
0.1230000000000002
 30
0.0
 11
0.0969999999999996
 21
0.1230000000000002
 31
0.0
  0
LINE
  5
671F
330
66FF
100
AcDbEntity
  8
SMA
  6
HIDDEN
100
AcDbLine
 10
0.3469999999999995
 20
0.1050000000000004
 30
0.0
 11
0.0969999999999996
 21
0.1050000000000004
 31
0.0
  0
LINE
  5
6720
330
66FF
100
AcDbEntity
  8
SMA
  6
CONTINUOUS
100
AcDbLine
 10
0.0969999999999996
 20
0.1050000000000004
 30
0.0
 11
0.0969999999999996
 21
0.1050000000000004
 31
0.0
  0
ENDBLK
  5
6722
330
66FF
100
AcDbEntity
  8
0
100
AcDbBlockEnd
  0
BLOCK
  5
6737
330
6723
100
AcDbEntity
  8
0
100
AcDbBlockBegin
  2
A$C4575524A
 70
     0
 10
0.0
 20
0.0
 30
0.0
  3
A$C4575524A
  1

  0
LINE
  5
6724
330
6723
100
AcDbEntity
  8
S4
100
AcDbLine
 10
0.5429999999999975
 20
-0.2675000000000001
 30
0.0
 11
0.5429999999999975
 21
0.2675000000000001
 31
0.0
  0
LINE
  5
6725
330
6723
100
AcDbEntity
  8
S4
100
AcDbLine
 10
0.0
 20
-0.2675000000000001
 30
0.0
 11
0.0
 21
0.2675000000000001
 31
0.0
  0
LINE
  5
6726
330
6723
100
AcDbEntity
  8
S4
  6
HIDDEN
100
AcDbLine
 10
0.5429999999999957
 20
0.2539999999999996
 30
0.0
 11
0.0
 21
0.2539999999999996
 31
0.0
  0
LINE
  5
6727
330
6723
100
AcDbEntity
  8
S4
  6
HIDDEN
100
AcDbLine
 10
0.5429999999999975
 20
0.218
 30
0.0
 11
0.177999999999999
 21
0.2179999999999991
 31
0.0
  0
LINE
  5
6728
330
6723
100
AcDbEntity
  8
S4
100
AcDbLine
 10
0.5429999999999975
 20
0.2080000000000002
 30
0.0
 11
0.177999999999999
 21
0.2080000000000002
 31
0.0
  0
LINE
  5
6729
330
6723
100
AcDbEntity
  8
S4
100
AcDbLine
 10
0.0
 20
-0.2675000000000001
 30
0.0
 11
0.5429999999999975
 21
-0.2675000000000001
 31
0.0
  0
LINE
  5
672A
330
6723
100
AcDbEntity
  8
S4
  6
HIDDEN
100
AcDbLine
 10
0.0
 20
-0.2539999999999996
 30
0.0
 11
0.5429999999999975
 21
-0.2539999999999996
 31
0.0
  0
LINE
  5
672B
330
6723
100
AcDbEntity
  8
S4
100
AcDbLine
 10
0.177999999999999
 20
-0.218
 30
0.0
 11
0.5429999999999975
 21
-0.218
 31
0.0
  0
LINE
  5
672C
330
6723
100
AcDbEntity
  8
S4
  6
HIDDEN
100
AcDbLine
 10
0.177999999999999
 20
-0.2080000000000002
 30
0.0
 11
0.5429999999999975
 21
-0.2080000000000002
 31
0.0
  0
LINE
  5
672D
330
6723
100
AcDbEntity
  8
S4
100
AcDbLine
 10
0.1649999999999956
 20
-0.1849999999999996
 30
0.0
 11
0.1649999999999956
 21
0.1850000000000005
 31
0.0
  0
LINE
  5
672E
330
6723
100
AcDbEntity
  8
S4
100
AcDbLine
 10
0.177999999999999
 20
0.1850000000000005
 30
0.0
 11
0.177999999999999
 21
-0.218
 31
0.0
  0
LINE
  5
672F
330
6723
100
AcDbEntity
  8
S4
100
AcDbLine
 10
0.0
 20
-0.1699999999999999
 30
0.0
 11
0.1649999999999956
 21
-0.1699999999999999
 31
0.0
  0
LINE
  5
6730
330
6723
100
AcDbEntity
  8
S4
100
AcDbLine
 10
0.1649999999999956
 20
-0.1849999999999996
 30
0.0
 11
0.177999999999999
 21
-0.1849999999999996
 31
0.0
  0
LINE
  5
6731
330
6723
100
AcDbEntity
  8
S4
100
AcDbLine
 10
0.1649999999999974
 20
0.1699999999999999
 30
0.0
 11
0.0
 21
0.1699999999999999
 31
0.0
  0
LINE
  5
6732
330
6723
100
AcDbEntity
  8
S4
100
AcDbLine
 10
0.1649999999999956
 20
0.1850000000000005
 30
0.0
 11
0.1649999999999956
 21
0.0
 31
0.0
  0
LINE
  5
6733
330
6723
100
AcDbEntity
  8
S4
100
AcDbLine
 10
0.1649999999999956
 20
0.0
 30
0.0
 11
0.1649999999999956
 21
0.1850000000000005
 31
0.0
  0
LINE
  5
6734
330
6723
100
AcDbEntity
  8
S4
100
AcDbLine
 10
0.177999999999999
 20
0.1850000000000005
 30
0.0
 11
0.177999999999999
 21
0.2179999999999991
 31
0.0
  0
LINE
  5
6735
330
6723
100
AcDbEntity
  8
S4
100
AcDbLine
 10
0.177999999999999
 20
0.1850000000000005
 30
0.0
 11
0.1649999999999974
 21
0.1850000000000005
 31
0.0
  0
LINE
  5
6736
330
6723
100
AcDbEntity
  8
S4
100
AcDbLine
 10
0.5429999999999975
 20
0.2675000000000001
 30
0.0
 11
0.0
 21
0.2675000000000001
 31
0.0
  0
ENDBLK
  5
6738
330
6723
100
AcDbEntity
  8
0
100
AcDbBlockEnd
  0
BLOCK
  5
6755
330
6739
100
AcDbEntity
  8
0
100
AcDbBlockBegin
  2
A$C6F3A2D97
 70
     0
 10
0.0
 20
0.0
 30
0.0
  3
A$C6F3A2D97
  1

  0
LINE
  5
673A
330
6739
100
AcDbEntity
  8
S3
100
AcDbLine
 10
0.205000000000001
 20
0.1972500000000004
 30
0.0
 11
0.3050000000000015
 21
0.1972500000000004
 31
0.0
  0
LINE
  5
673B
330
6739
100
AcDbEntity
  8
S3
  6
HIDDEN
100
AcDbLine
 10
0.1819999999999995
 20
0.125
 30
0.0
 11
0.3050000000000006
 21
0.125
 31
0.0
  0
LINE
  5
673C
330
6739
100
AcDbEntity
  8
S3
100
AcDbLine
 10
0.2050000000000018
 20
0.1347499999999995
 30
0.0
 11
0.3050000000000006
 21
0.1347499999999986
 31
0.0
  0
LINE
  5
673D
330
6739
100
AcDbEntity
  8
S3
100
AcDbLine
 10
0.0000000000000009
 20
0.0
 30
0.0
 11
0.3050000000000006
 21
0.0
 31
0.0
  0
LINE
  5
673E
330
6739
100
AcDbEntity
  8
S3
100
AcDbLine
 10
0.0
 20
0.2159999999999993
 30
0.0
 11
0.3050000000000006
 21
0.2159999999999993
 31
0.0
  0
LINE
  5
673F
330
6739
100
AcDbEntity
  8
S3
  6
HIDDEN
100
AcDbLine
 10
0.0
 20
0.2060000000000004
 30
0.0
 11
0.3050000000000006
 21
0.2059999999999995
 31
0.0
  0
LINE
  5
6740
330
6739
100
AcDbEntity
  8
S3
100
AcDbLine
 10
0.0000000000000009
 20
-0.2160000000000002
 30
0.0
 11
0.3050000000000006
 21
-0.2160000000000002
 31
0.0
  0
LINE
  5
6741
330
6739
100
AcDbEntity
  8
S3
  6
HIDDEN
100
AcDbLine
 10
0.0000000000000009
 20
-0.206
 30
0.0
 11
0.3050000000000006
 21
-0.206
 31
0.0
  0
LINE
  5
6742
330
6739
100
AcDbEntity
  8
S3
  6
HIDDEN
100
AcDbLine
 10
0.1819999999999995
 20
0.1070000000000002
 30
0.0
 11
0.3050000000000006
 21
0.1070000000000002
 31
0.0
  0
LINE
  5
6743
330
6739
100
AcDbEntity
  8
S3
100
AcDbLine
 10
0.3050000000000006
 20
-0.1250000000000004
 30
0.0
 11
0.1819999999999995
 21
-0.1250000000000004
 31
0.0
  0
LINE
  5
6744
330
6739
100
AcDbEntity
  8
S3
100
AcDbLine
 10
0.3050000000000006
 20
-0.1070000000000002
 30
0.0
 11
0.1819999999999995
 21
-0.1070000000000002
 31
0.0
  0
LINE
  5
6745
330
6739
100
AcDbEntity
  8
S3
100
AcDbLine
 10
0.2050000000000018
 20
-0.1972500000000012
 30
0.0
 11
0.3050000000000006
 21
-0.1972500000000021
 31
0.0
  0
LINE
  5
6746
330
6739
100
AcDbEntity
  8
S3
100
AcDbLine
 10
0.205000000000001
 20
-0.1347500000000004
 30
0.0
 11
0.3050000000000015
 21
-0.1347500000000004
 31
0.0
  0
LINE
  5
6747
330
6739
100
AcDbEntity
  8
S3
100
AcDbLine
 10
0.0000000000000009
 20
-0.2160000000000002
 30
0.0
 11
0.0
 21
0.2159999999999993
 31
0.0
  0
LINE
  5
6748
330
6739
100
AcDbEntity
  8
S3
100
AcDbLine
 10
0.0120000000000014
 20
-0.1850000000000001
 30
0.0
 11
0.0120000000000014
 21
0.1849999999999996
 31
0.0
  0
LINE
  5
6749
330
6739
100
AcDbEntity
  8
S3
100
AcDbLine
 10
0.1819999999999995
 20
0.1549999999999994
 30
0.0
 11
0.1819999999999995
 21
-0.1549999999999998
 31
0.0
  0
LINE
  5
674A
330
6739
100
AcDbEntity
  8
S3
100
AcDbLine
 10
0.0120000000000014
 20
-0.1549999999999998
 30
0.0
 11
0.1819999999999995
 21
-0.1549999999999998
 31
0.0
  0
LINE
  5
674B
330
6739
100
AcDbEntity
  8
S3
100
AcDbLine
 10
0.0000000000000009
 20
-0.1850000000000001
 30
0.0
 11
0.0120000000000014
 21
-0.1850000000000001
 31
0.0
  0
LINE
  5
674C
330
6739
100
AcDbEntity
  8
S3
100
AcDbLine
 10
0.2050000000000018
 20
-0.1972500000000012
 30
0.0
 11
0.205000000000001
 21
-0.1347500000000004
 31
0.0
  0
LINE
  5
674D
330
6739
100
AcDbEntity
  8
S3
100
AcDbLine
 10
0.1969424580438597
 20
-0.1660000000000004
 30
0.0
 11
0.205000000000001
 21
-0.1347500000000004
 31
0.0
  0
LINE
  5
674E
330
6739
100
AcDbEntity
  8
S3
100
AcDbLine
 10
0.2050000000000018
 20
-0.1972500000000012
 30
0.0
 11
0.1969424580438597
 21
-0.1660000000000004
 31
0.0
  0
LINE
  5
674F
330
6739
100
AcDbEntity
  8
S3
100
AcDbLine
 10
0.1819999999999995
 20
0.1549999999999994
 30
0.0
 11
0.0120000000000022
 21
0.1549999999999994
 31
0.0
  0
LINE
  5
6750
330
6739
100
AcDbEntity
  8
S3
100
AcDbLine
 10
0.0120000000000014
 20
0.1849999999999996
 30
0.0
 11
0.0000000000000009
 21
0.1849999999999996
 31
0.0
  0
LINE
  5
6751
330
6739
100
AcDbEntity
  8
S3
100
AcDbLine
 10
0.2050000000000018
 20
0.1347499999999995
 30
0.0
 11
0.1969424580438597
 21
0.1660000000000004
 31
0.0
  0
LINE
  5
6752
330
6739
100
AcDbEntity
  8
S3
100
AcDbLine
 10
0.1969424580438597
 20
0.1660000000000004
 30
0.0
 11
0.205000000000001
 21
0.1972500000000004
 31
0.0
  0
LINE
  5
6753
330
6739
100
AcDbEntity
  8
S3
100
AcDbLine
 10
0.2050000000000018
 20
0.1347499999999995
 30
0.0
 11
0.205000000000001
 21
0.1972500000000004
 31
0.0
  0
LINE
  5
6754
330
6739
100
AcDbEntity
  8
S3
100
AcDbLine
 10
0.3050000000000006
 20
-0.2160000000000002
 30
0.0
 11
0.3050000000000006
 21
0.2159999999999993
 31
0.0
  0
ENDBLK
  5
6756
330
6739
100
AcDbEntity
  8
0
100
AcDbBlockEnd
  0
BLOCK
  5
675E
330
6757
100
AcDbEntity
  8
0
100
AcDbBlockBegin
  2
A$C77CD3A52
 70
     0
 10
0.0
 20
0.0
 30
0.0
  3
A$C77CD3A52
  1

  0
LINE
  5
6758
330
6757
100
AcDbEntity
  8
S1
  6
HIDDEN
100
AcDbLine
 10
0.0
 20
-0.0350000000000002
 30
0.0
 11
0.0619999999999998
 21
-0.0350000000000002
 31
0.0
  0
LINE
  5
6759
330
6757
100
AcDbEntity
  8
S1
  6
HIDDEN
100
AcDbLine
 10
0.0
 20
0.0350000000000002
 30
0.0
 11
0.0619999999999998
 21
0.0350000000000002
 31
0.0
  0
LINE
  5
675A
330
6757
100
AcDbEntity
  8
S1
100
AcDbLine
 10
0.0619999999999998
 20
0.1400000000000006
 30
0.0
 11
-0.0000000000000004
 21
0.1400000000000006
 31
0.0
  0
LINE
  5
675B
330
6757
100
AcDbEntity
  8
S1
100
AcDbLine
 10
0.0000000000000004
 20
-0.1400000000000001
 30
0.0
 11
0.0619999999999998
 21
-0.1400000000000001
 31
0.0
  0
LINE
  5
675C
330
6757
100
AcDbEntity
  8
S1
100
AcDbLine
 10
-0.0000000000000004
 20
0.1400000000000006
 30
0.0
 11
0.0000000000000004
 21
-0.1400000000000001
 31
0.0
  0
LINE
  5
675D
330
6757
100
AcDbEntity
  8
S1
100
AcDbLine
 10
0.0619999999999998
 20
0.1400000000000006
 30
0.0
 11
0.0619999999999998
 21
-0.1400000000000001
 31
0.0
  0
ENDBLK
  5
675F
330
6757
100
AcDbEntity
  8
0
100
AcDbBlockEnd
  0
BLOCK
  5
6771
330
6760
100
AcDbEntity
  8
0
100
AcDbBlockBegin
  2
A$C532869D3
 70
     0
 10
0.0
 20
0.0
 30
0.0
  3
A$C532869D3
  1

  0
LINE
  5
6761
330
6760
100
AcDbEntity
  8
DIODE
100
AcDbLine
 10
-0.1399999999999997
 20
0.1624999999999996
 30
0.0
 11
-0.1399999999999997
 21
-0.1624999999999996
 31
0.0
  0
LINE
  5
6762
330
6760
100
AcDbEntity
  8
DIODE
100
AcDbLine
 10
-0.04
 20
0.1824999999999992
 30
0.0
 11
-0.04
 21
-0.1824999999999992
 31
0.0
  0
LINE
  5
6763
330
6760
100
AcDbEntity
  8
DIODE
  6
CONTINUOUS
100
AcDbLine
 10
0.0
 20
0.1824999999999992
 30
0.0
 11
0.0
 21
-0.1824999999999992
 31
0.0
  0
LINE
  5
6764
330
6760
100
AcDbEntity
  8
DIODE
100
AcDbLine
 10
0.0
 20
-0.1824999999999992
 30
0.0
 11
-0.04
 21
-0.1824999999999992
 31
0.0
  0
LINE
  5
6765
330
6760
100
AcDbEntity
  8
DIODE
  6
CONTINUOUS
100
AcDbLine
 10
-0.1399999999999997
 20
-0.1624999999999996
 30
0.0
 11
-0.04
 21
-0.1624999999999996
 31
0.0
  0
LINE
  5
6766
330
6760
100
AcDbEntity
  8
DIODE
100
AcDbLine
 10
0.0
 20
0.1824999999999992
 30
0.0
 11
-0.04
 21
0.1824999999999992
 31
0.0
  0
LINE
  5
6767
330
6760
100
AcDbEntity
  8
DIODE
100
AcDbLine
 10
-0.04
 20
0.1624999999999996
 30
0.0
 11
-0.1399999999999997
 21
0.1624999999999996
 31
0.0
  0
LINE
  5
6768
330
6760
100
AcDbEntity
  8
DIODE
  6
CONTINUOUS
100
AcDbLine
 10
0.0999999999999997
 20
-0.0090000000000003
 30
0.0
 11
0.0
 21
-0.0090000000000003
 31
0.0
  0
LINE
  5
6769
330
6760
100
AcDbEntity
  8
DIODE
  6
CONTINUOUS
100
AcDbLine
 10
0.0999999999999997
 20
0.0090000000000003
 30
0.0
 11
0.0
 21
0.0090000000000003
 31
0.0
  0
LINE
  5
676A
330
6760
100
AcDbEntity
  8
DIODE
  6
CONTINUOUS
100
AcDbLine
 10
0.0999999999999997
 20
-0.109
 30
0.0
 11
0.0
 21
-0.109
 31
0.0
  0
LINE
  5
676B
330
6760
100
AcDbEntity
  8
DIODE
  6
CONTINUOUS
100
AcDbLine
 10
0.0999999999999997
 20
-0.0909999999999993
 30
0.0
 11
0.0
 21
-0.0909999999999993
 31
0.0
  0
LINE
  5
676C
330
6760
100
AcDbEntity
  8
DIODE
  6
CONTINUOUS
100
AcDbLine
 10
0.0999999999999997
 20
-0.0909999999999993
 30
0.0
 11
0.0999999999999997
 21
-0.109
 31
0.0
  0
LINE
  5
676D
330
6760
100
AcDbEntity
  8
DIODE
  6
CONTINUOUS
100
AcDbLine
 10
0.0999999999999997
 20
-0.0090000000000003
 30
0.0
 11
0.0999999999999997
 21
0.0090000000000003
 31
0.0
  0
LINE
  5
676E
330
6760
100
AcDbEntity
  8
DIODE
  6
CONTINUOUS
100
AcDbLine
 10
0.0999999999999997
 20
0.0909999999999993
 30
0.0
 11
0.0
 21
0.0909999999999993
 31
0.0
  0
LINE
  5
676F
330
6760
100
AcDbEntity
  8
DIODE
  6
CONTINUOUS
100
AcDbLine
 10
0.0999999999999997
 20
0.109
 30
0.0
 11
0.0
 21
0.109
 31
0.0
  0
LINE
  5
6770
330
6760
100
AcDbEntity
  8
DIODE
  6
CONTINUOUS
100
AcDbLine
 10
0.0999999999999997
 20
0.109
 30
0.0
 11
0.0999999999999997
 21
0.0909999999999993
 31
0.0
  0
ENDBLK
  5
6772
330
6760
100
AcDbEntity
  8
0
100
AcDbBlockEnd
  0
BLOCK
  5
677C
330
6776
100
AcDbEntity
  8
0
100
AcDbBlockBegin
  2
A$C7AF130EF
 70
     0
 10
0.0
 20
0.0
 30
0.0
  3
A$C7AF130EF
  1

  0
INSERT
  5
6777
330
6776
100
AcDbEntity
  8
SMA
  6
CONTINUOUS
100
AcDbBlockReference
  2
A$C405C6523
 10
0.5431898264535189
 20
0.0
 30
0.0
  0
INSERT
  5
6778
330
6776
100
AcDbEntity
  8
S4
100
AcDbBlockReference
  2
A$C6F3A2D97
 10
0.1924369396919108
 20
0.0
 30
0.0
  0
INSERT
  5
6779
330
6776
100
AcDbEntity
  8
S4
100
AcDbBlockReference
  2
A$C4575524A
 10
0.0
 20
0.0
 30
0.0
  0
INSERT
  5
677A
330
6776
100
AcDbEntity
  8
DIODE
100
AcDbBlockReference
  2
A$C532869D3
 10
0.204436939691913
 20
0.0
 30
0.0
  0
INSERT
  5
677B
330
6776
100
AcDbEntity
  8
S4
100
AcDbBlockReference
  2
A$C77CD3A52
 10
0.257998376614033
 20
0.0
 30
0.0
  0
ENDBLK
  5
677D
330
6776
100
AcDbEntity
  8
0
100
AcDbBlockEnd
  0
BLOCK
  5
6785
330
677F
100
AcDbEntity
  8
0
100
AcDbBlockBegin
  2
A$C020B7361
 70
     0
 10
0.0
 20
0.0
 30
0.0
  3
A$C020B7361
  1

  0
INSERT
  5
6780
330
677F
100
AcDbEntity
  8
SMA
  6
CONTINUOUS
100
AcDbBlockReference
  2
A$C405C6523
 10
0.5431898264535189
 20
0.0
 30
0.0
  0
INSERT
  5
6781
330
677F
100
AcDbEntity
  8
S4
100
AcDbBlockReference
  2
A$C6F3A2D97
 10
0.1924369396919108
 20
0.0
 30
0.0
  0
INSERT
  5
6782
330
677F
100
AcDbEntity
  8
S4
100
AcDbBlockReference
  2
A$C4575524A
 10
0.0
 20
0.0
 30
0.0
  0
INSERT
  5
6783
330
677F
100
AcDbEntity
  8
DIODE
100
AcDbBlockReference
  2
A$C532869D3
 10
0.204436939691913
 20
0.0
 30
0.0
  0
INSERT
  5
6784
330
677F
100
AcDbEntity
  8
S4
100
AcDbBlockReference
  2
A$C77CD3A52
 10
0.257998376614033
 20
0.0
 30
0.0
  0
ENDBLK
  5
6786
330
677F
100
AcDbEntity
  8
0
100
AcDbBlockEnd
  0
BLOCK
  5
67E4
330
67C9
100
AcDbEntity
  8
0
100
AcDbBlockBegin
  2
A$C0FB24E91
 70
     0
 10
0.0
 20
0.0
 30
0.0
  3
A$C0FB24E91
  1

  0
LINE
  5
67CA
330
67C9
100
AcDbEntity
  8
SMA
  6
CONTINUOUS
100
AcDbLine
 10
0.5
 20
-0.3499999999999996
 30
0.0
 11
0.6239999999999988
 21
-0.3499999999999996
 31
0.0
  0
LINE
  5
67CB
330
67C9
100
AcDbEntity
  8
SMA
100
AcDbLine
 10
0.6240000000000006
 20
-0.1699999999999981
 30
0.0
 11
0.5
 21
-0.1699999999999981
 31
0.0
  0
LINE
  5
67CC
330
67C9
100
AcDbEntity
  8
SMA
  6
CONTINUOUS
100
AcDbLine
 10
0.6239999999999988
 20
0.3499999999999996
 30
0.0
 11
0.5
 21
0.3499999999999996
 31
0.0
  0
LINE
  5
67CD
330
67C9
100
AcDbEntity
  8
SMA
100
AcDbLine
 10
0.5
 20
0.1700000000000017
 30
0.0
 11
0.6240000000000006
 21
0.1700000000000017
 31
0.0
  0
LINE
  5
67CE
330
67C9
100
AcDbEntity
  8
SMA
  6
CONTINUOUS
100
AcDbLine
 10
0.5
 20
0.3499999999999996
 30
0.0
 11
0.5
 21
-0.3499999999999996
 31
0.0
  0
LINE
  5
67CF
330
67C9
100
AcDbEntity
  8
SMA
  6
CONTINUOUS
100
AcDbLine
 10
0.0
 20
0.2460000000000004
 30
0.0
 11
0.0
 21
-0.2460000000000004
 31
0.0
  0
LINE
  5
67D0
330
67C9
100
AcDbEntity
  8
SMA
100
AcDbLine
 10
0.4499999999999993
 20
-0.2100000000000008
 30
0.0
 11
0.4499999999999993
 21
0.2100000000000008
 31
0.0
  0
LINE
  5
67D1
330
67C9
100
AcDbEntity
  8
SMA
100
AcDbLine
 10
0.3499999999999996
 20
-0.2100000000000008
 30
0.0
 11
0.3499999999999996
 21
0.2100000000000008
 31
0.0
  0
LINE
  5
67D2
330
67C9
100
AcDbEntity
  8
SMA
100
AcDbLine
 10
0.25
 20
0.2100000000000008
 30
0.0
 11
0.25
 21
-0.2100000000000008
 31
0.0
  0
LINE
  5
67D3
330
67C9
100
AcDbEntity
  8
SMA
100
AcDbLine
 10
0.1500000000000003
 20
-0.2100000000000008
 30
0.0
 11
0.1500000000000003
 21
0.2100000000000008
 31
0.0
  0
LINE
  5
67D4
330
67C9
100
AcDbEntity
  8
SMA
100
AcDbLine
 10
0.0500000000000007
 20
0.2100000000000008
 30
0.0
 11
0.0500000000000007
 21
-0.2100000000000008
 31
0.0
  0
LINE
  5
67D5
330
67C9
100
AcDbEntity
  8
SMA
100
AcDbLine
 10
0.5
 20
-0.1699999999999981
 30
0.0
 11
0.5
 21
0.1700000000000017
 31
0.0
  0
LINE
  5
67D6
330
67C9
100
AcDbEntity
  8
SMA
  6
CONTINUOUS
100
AcDbLine
 10
0.0
 20
-0.2460000000000004
 30
0.0
 11
0.5
 21
-0.2460000000000004
 31
0.0
  0
LINE
  5
67D7
330
67C9
100
AcDbEntity
  8
SMA
100
AcDbLine
 10
0.3999999999999986
 20
-0.1099999999999994
 30
0.0
 11
0.3999999999999986
 21
0.1099999999999994
 31
0.0
  0
LINE
  5
67D8
330
67C9
100
AcDbEntity
  8
SMA
100
AcDbLine
 10
0.2999999999999989
 20
-0.1099999999999994
 30
0.0
 11
0.2999999999999989
 21
0.1099999999999994
 31
0.0
  0
LINE
  5
67D9
330
67C9
100
AcDbEntity
  8
SMA
100
AcDbLine
 10
0.1999999999999993
 20
0.1099999999999994
 30
0.0
 11
0.1999999999999993
 21
-0.1099999999999994
 31
0.0
  0
LINE
  5
67DA
330
67C9
100
AcDbEntity
  8
SMA
100
AcDbLine
 10
0.0999999999999997
 20
-0.1099999999999994
 30
0.0
 11
0.0999999999999997
 21
0.1099999999999994
 31
0.0
  0
LINE
  5
67DB
330
67C9
100
AcDbEntity
  8
SMA
  6
CONTINUOUS
100
AcDbLine
 10
0.5
 20
-0.2100000000000008
 30
0.0
 11
0.5
 21
-0.2100000000000008
 31
0.0
  0
LINE
  5
67DC
330
67C9
100
AcDbEntity
  8
SMA
  6
CONTINUOUS
100
AcDbLine
 10
0.5
 20
0.0
 30
0.0
 11
0.5
 21
0.0
 31
0.0
  0
LINE
  5
67DD
330
67C9
100
AcDbEntity
  8
SMA
  6
CONTINUOUS
100
AcDbLine
 10
0.0
 20
0.2460000000000004
 30
0.0
 11
0.5
 21
0.2460000000000004
 31
0.0
  0
LINE
  5
67DE
330
67C9
100
AcDbEntity
  8
SMA
  6
CONTINUOUS
100
AcDbLine
 10
0.6240000000000024
 20
-0.439999999999996
 30
0.0
 11
0.6239999999999988
 21
0.4400000000000013
 31
0.0
  0
LINE
  5
67DF
330
67C9
100
AcDbEntity
  8
SMA
  6
CONTINUOUS
100
AcDbLine
 10
0.6939999999999991
 20
-0.4399999999999978
 30
0.0
 11
0.6939999999999991
 21
0.4399999999999995
 31
0.0
  0
LINE
  5
67E0
330
67C9
100
AcDbEntity
  8
S4
100
AcDbLine
 10
0.6943796529070419
 20
0.5350000000000002
 30
0.0
 11
0.6943796529070419
 21
-0.5350000000000002
 31
0.0
  0
LINE
  5
67E1
330
67C9
100
AcDbEntity
  8
SMA
  6
CONTINUOUS
100
AcDbLine
 10
0.6240000000000024
 20
-0.439999999999996
 30
0.0
 11
0.6939999999999991
 21
-0.4399999999999978
 31
0.0
  0
LINE
  5
67E2
330
67C9
100
AcDbEntity
  8
SMA
100
AcDbLine
 10
0.6240000000000006
 20
0.0000000000000018
 30
0.0
 11
0.6240000000000006
 21
-0.1699999999999981
 31
0.0
  0
LINE
  5
67E3
330
67C9
100
AcDbEntity
  8
SMA
  6
CONTINUOUS
100
AcDbLine
 10
0.6239999999999988
 20
0.4400000000000013
 30
0.0
 11
0.6939999999999991
 21
0.4399999999999995
 31
0.0
  0
ENDBLK
  5
67E5
330
67C9
100
AcDbEntity
  8
0
100
AcDbBlockEnd
  0
BLOCK
  5
68D0
330
68C1
100
AcDbEntity
  8
0
100
AcDbBlockBegin
  2
A$C31D660D7
 70
     0
 10
0.0
 20
0.0
 30
0.0
  3
A$C31D660D7
  1

  0
LINE
  5
68C2
330
68C1
100
AcDbEntity
  8
D1
  6
CENTER2
 62
     6
100
AcDbLine
 10
-2.008674984348139
 20
-3.816514125277281
 30
0.0
 11
-2.008674984348139
 21
-1.17651412527728
 31
0.0
  0
CIRCLE
  5
68C3
330
68C1
100
AcDbEntity
  8
S1
100
AcDbCircle
 10
-2.008674984348139
 20
-2.49651412527728
 30
0.0
 40
0.6800000000000001
  0
CIRCLE
  5
68C4
330
68C1
100
AcDbEntity
  8
S1
100
AcDbCircle
 10
-2.008674984348139
 20
-2.49651412527728
 30
0.0
 40
0.7400000000000001
  0
CIRCLE
  5
68C5
330
68C1
100
AcDbEntity
  8
S1
100
AcDbCircle
 10
-2.008674984348139
 20
-2.49651412527728
 30
0.0
 40
0.832
  0
CIRCLE
  5
68C6
330
68C1
100
AcDbEntity
  8
S1
  6
HIDDEN
100
AcDbCircle
 10
-2.008674984348139
 20
-2.49651412527728
 30
0.0
 40
0.872
  0
CIRCLE
  5
68C7
330
68C1
100
AcDbEntity
  8
S1
  6
HIDDEN
100
AcDbCircle
 10
-2.008674984348139
 20
-2.49651412527728
 30
0.0
 40
1.016
  0
CIRCLE
  5
68C8
330
68C1
100
AcDbEntity
  8
S1
100
AcDbCircle
 10
-2.008674984348139
 20
-2.49651412527728
 30
0.0
 40
1.07
  0
LEADER
  5
68C9
330
68C1
100
AcDbEntity
  8
D1
100
AcDbLeader
  3
STANDARD
 76
     3
 10
-1.458602854712589
 20
-3.173126756106923
 30
0.0
 10
-0.75136216014287
 20
-3.883183342524938
 30
0.0
 10
-0.5363621601428701
 20
-3.883183342524938
 30
0.0
1001
ACAD
1000
DSTYLE
1002
{
1070
     5
1000

1070
    77
1070
     0
1070
   147
1040
0.05
1002
}
1000
LEANOF
1010
0.0
1020
0.0
1030
0.0
  0
MTEXT
  5
68CA
330
68C1
100
AcDbEntity
  8
D1
100
AcDbMText
 10
-0.3901932447130178
 20
-3.893183342524938
 30
0.0
 40
0.08
 41
0.0
 71
     4
 72
     1
  1
%%CM11-0.5 TAPPED\PTO DEPTH SHOWN
1001
ACAD
1000
MTEXTBEGIN
1070
    73
1070
     1
1070
    44
1040
1.0
1070
    74
1070
     0
1000
MTEXTEND
  0
LEADER
  5
68CB
330
68C1
100
AcDbEntity
  8
D1
100
AcDbLeader
  3
STANDARD
 76
     3
 10
-1.323944019141158
 20
-1.674295477175258
 30
0.0
 10
-0.75136216014287
 20
-0.8781833425249384
 30
0.0
 10
-0.5463621601428699
 20
-0.8781833425249384
 30
0.0
1001
ACAD
1000
DSTYLE
1002
{
1070
     5
1000

1070
    77
1070
     0
1070
   147
1040
0.05
1002
}
1000
LEANOF
1010
0.0
1020
0.0
1030
0.0
  0
LINE
  5
68CC
330
68C1
100
AcDbEntity
  8
D1
  6
CENTER2
 62
     6
100
AcDbLine
 10
-3.328674984348139
 20
-2.49651412527728
 30
0.0
 11
-0.6886749843481397
 21
-2.49651412527728
 31
0.0
  0
LINE
  5
68CD
330
68C1
100
AcDbEntity
  8
D1
100
AcDbLine
 10
-2.07867498434814
 20
-2.49651412527728
 30
0.0
 11
-1.938674984348139
 21
-2.49651412527728
 31
0.0
  0
LINE
  5
68CE
330
68C1
100
AcDbEntity
  8
D1
100
AcDbLine
 10
-2.008674984348139
 20
-2.566514125277281
 30
0.0
 11
-2.008674984348139
 21
-2.42651412527728
 31
0.0
  0
MTEXT
  5
68CF
330
68C1
100
AcDbEntity
  8
D1
100
AcDbMText
 10
-0.4735323320052416
 20
-0.8831833425249385
 30
0.0
 40
0.08
 41
0.0
 71
     4
 72
     1
  1
%%C0.535-40 CLASS 3B\PTHREAD CHANFER 0.010\POVER MAJOR DIAMETER
1001
ACAD
1000
MTEXTBEGIN
1070
    73
1070
     1
1070
    44
1040
1.0
1070
    74
1070
     0
1000
MTEXTEND
  0
ENDBLK
  5
68D1
330
68C1
100
AcDbEntity
  8
0
100
AcDbBlockEnd
  0
BLOCK
  5
69C1
330
69BD
100
AcDbEntity
  8
0
100
AcDbBlockBegin
  2
A$C10D34D05
 70
     0
 10
0.0
 20
0.0
 30
0.0
  3
A$C10D34D05
  1

  0
LINE
  5
69BE
330
69BD
100
AcDbEntity
  8
D1
100
AcDbLine
 39
0.27
 10
-1.519570752683532
 20
0.0
 30
0.0
 11
1.519570752683531
 21
0.0
 31
0.0
  0
LINE
  5
69BF
330
69BD
100
AcDbEntity
  8
D1
100
AcDbLine
 39
0.27
 10
1.28236946445976
 20
0.0444752415419574
 30
0.0
 11
-1.326844706001717
 21
0.0444752415419574
 31
0.0
  0
TEXT
  5
69C0
330
69BD
100
AcDbEntity
  8
D1
100
AcDbText
 10
-1.27650858179715
 20
0.0889504830839148
 30
0.0
 40
0.12
  1
ENLARGED SECTION VIEW
100
AcDbText
  0
ENDBLK
  5
69C2
330
69BD
100
AcDbEntity
  8
0
100
AcDbBlockEnd
  0
BLOCK
  5
6A57
330
6A55
100
AcDbEntity
  8
0
100
AcDbBlockBegin
  2
A$C536F5B75
 70
     0
 10
0.0
 20
0.0
 30
0.0
  3
A$C536F5B75
  1

  0
SOLID
  5
6A56
330
6A55
100
AcDbEntity
  8
D1
100
AcDbTrace
 10
-0.0299999999999994
 20
0.1799999999999997
 30
0.0
 11
0.0299999999999994
 21
0.1799999999999997
 31
0.0
 12
0.0
 22
0.0
 32
0.0
 13
0.0
 23
0.0
 33
0.0
  0
ENDBLK
  5
6A58
330
6A55
100
AcDbEntity
  8
0
100
AcDbBlockEnd
  0
BLOCK
  5
6AA0
330
6A98
100
AcDbEntity
  8
0
100
AcDbBlockBegin
  2
A$C760F02AF
 70
     0
 10
0.0
 20
0.0
 30
0.0
  3
A$C760F02AF
  1

  0
LINE
  5
6A99
330
6A98
100
AcDbEntity
  8
S1
100
AcDbLine
 10
0.2675000000000001
 20
0.0
 30
0.0
 11
0.0
 21
0.0
 31
0.0
  0
LINE
  5
6A9A
330
6A98
100
AcDbEntity
  8
S1
100
AcDbLine
 10
1.07
 20
0.0
 30
0.0
 11
0.8025000000000002
 21
-0.0000000000000009
 31
0.0
  0
LINE
  5
6A9B
330
6A98
100
AcDbEntity
  8
S1
100
AcDbLine
 10
0.8025000000000002
 20
0.2999999999999998
 30
0.0
 11
0.2675000000000001
 21
0.0
 31
0.0
  0
LINE
  5
6A9C
330
6A98
100
AcDbEntity
  8
S1
100
AcDbLine
 10
0.8025000000000002
 20
0.0
 30
0.0
 11
0.8025000000000002
 21
0.2999999999999998
 31
0.0
  0
LINE
  5
6A9D
330
6A98
100
AcDbEntity
  8
S1
100
AcDbLine
 10
0.2675000000000001
 20
-0.2360656883884893
 30
0.0
 11
0.2675000000000001
 21
0.2360656883884893
 31
0.0
  0
LINE
  5
6A9E
330
6A98
100
AcDbEntity
  8
S1
100
AcDbLine
 10
0.8025000000000002
 20
-0.2999999999999998
 30
0.0
 11
0.2675000000000001
 21
0.0
 31
0.0
  0
LINE
  5
6A9F
330
6A98
100
AcDbEntity
  8
S1
100
AcDbLine
 10
0.8025000000000002
 20
0.0
 30
0.0
 11
0.8025000000000002
 21
-0.2999999999999998
 31
0.0
  0
ENDBLK
  5
6AA1
330
6A98
100
AcDbEntity
  8
0
100
AcDbBlockEnd
  0
BLOCK
  5
6C99
330
6C6F
100
AcDbEntity
  8
0
100
AcDbBlockBegin
  2
*X25
 70
     1
 10
0.0
 20
0.0
 30
0.0
  3
*X25
  1

  0
LINE
  5
6C70
330
6C6F
100
AcDbEntity
  8
0
 62
     0
100
AcDbLine
 10
-0.7486434069058117
 20
-0.2452850646445412
 30
0.0
 11
-0.7158726691702438
 21
-0.2125143269089733
 31
0.0
  0
LINE
  5
6C71
330
6C6F
100
AcDbEntity
  8
0
 62
     0
100
AcDbLine
 10
-0.8370317545541308
 20
-0.2452850646445412
 30
0.0
 11
-0.7158726691702438
 21
-0.1241259792606542
 31
0.0
  0
LINE
  5
6C72
330
6C6F
100
AcDbEntity
  8
0
 62
     0
100
AcDbLine
 10
-0.9254201022024499
 20
-0.2452850646445412
 30
0.0
 11
-0.773420102202449
 21
-0.0932850646445402
 31
0.0
  0
LINE
  5
6C73
330
6C6F
100
AcDbEntity
  8
0
 62
     0
100
AcDbLine
 10
-0.9493201022024457
 20
-0.2691850646445371
 30
0.0
 11
-0.9458726691702423
 21
-0.2657376316123337
 31
0.0
  0
LINE
  5
6C74
330
6C6F
100
AcDbEntity
  8
0
 62
     0
100
AcDbLine
 10
-1.037708449850766
 20
-0.2691850646445388
 30
0.0
 11
-0.861808449850768
 21
-0.0932850646445402
 31
0.0
  0
LINE
  5
6C75
330
6C6F
100
AcDbEntity
  8
0
 62
     0
100
AcDbLine
 10
-0.985872669170245
 20
-0.128960936315698
 30
0.0
 11
-0.9458726691702423
 21
-0.0889609363156954
 31
0.0
  0
LINE
  5
6C76
330
6C6F
100
AcDbEntity
  8
0
 62
     0
100
AcDbLine
 10
-1.126096797499085
 20
-0.2691850646445388
 30
0.0
 11
-1.033196797499087
 21
-0.1762850646445404
 31
0.0
  0
LINE
  5
6C77
330
6C6F
100
AcDbEntity
  8
0
 62
     0
100
AcDbLine
 10
-1.214485145147405
 20
-0.2691850646445406
 30
0.0
 11
-1.121585145147404
 21
-0.1762850646445404
 31
0.0
  0
LINE
  5
6C78
330
6C6F
100
AcDbEntity
  8
0
 62
     0
100
AcDbLine
 10
-1.302873492795724
 20
-0.2691850646445406
 30
0.0
 11
-1.209973492795725
 21
-0.1762850646445422
 31
0.0
  0
LINE
  5
6C79
330
6C6F
100
AcDbEntity
  8
0
 62
     0
100
AcDbLine
 10
-1.391261840444041
 20
-0.2691850646445424
 30
0.0
 11
-1.298361840444043
 21
-0.176285064644544
 31
0.0
  0
LINE
  5
6C7A
330
6C6F
100
AcDbEntity
  8
0
 62
     0
100
AcDbLine
 10
-0.7897501880923557
 20
0.4207149353554627
 30
0.0
 11
-0.7158726691702402
 21
0.4945924542775782
 31
0.0
  0
LINE
  5
6C7B
330
6C6F
100
AcDbEntity
  8
0
 62
     0
100
AcDbLine
 10
-1.479650188092358
 20
-0.2691850646445406
 30
0.0
 11
-1.386750188092362
 21
-0.176285064644544
 31
0.0
  0
LINE
  5
6C7C
330
6C6F
100
AcDbEntity
  8
0
 62
     0
100
AcDbLine
 10
-0.878138535740673
 20
0.4207149353554645
 30
0.0
 11
-0.7261385357406791
 21
0.5727149353554584
 31
0.0
  0
LINE
  5
6C7D
330
6C6F
100
AcDbEntity
  8
0
 62
     0
100
AcDbLine
 10
-1.568038535740678
 20
-0.2691850646445406
 30
0.0
 11
-1.475138535740679
 21
-0.1762850646445422
 31
0.0
  0
LINE
  5
6C7E
330
6C6F
100
AcDbEntity
  8
0
 62
     0
100
AcDbLine
 10
-0.9858726691702397
 20
0.4013691495742151
 30
0.0
 11
-0.9458726691702405
 21
0.4413691495742125
 31
0.0
  0
LINE
  5
6C7F
330
6C6F
100
AcDbEntity
  8
0
 62
     0
100
AcDbLine
 10
-0.9455268833889949
 20
0.44171493535546
 30
0.0
 11
-0.8145268833889947
 21
0.5727149353554602
 31
0.0
  0
LINE
  5
6C80
330
6C6F
100
AcDbEntity
  8
0
 62
     0
100
AcDbLine
 10
-1.656426883388995
 20
-0.2691850646445406
 30
0.0
 11
-1.563526883388997
 21
-0.1762850646445422
 31
0.0
  0
LINE
  5
6C81
330
6C6F
100
AcDbEntity
  8
0
 62
     0
100
AcDbLine
 10
-0.9858726691702397
 20
0.4897574972225325
 30
0.0
 11
-0.9029152310373138
 21
0.5727149353554602
 31
0.0
  0
LINE
  5
6C82
330
6C6F
100
AcDbEntity
  8
0
 62
     0
100
AcDbLine
 10
-1.744815231037314
 20
-0.2691850646445406
 30
0.0
 11
-1.651915231037316
 21
-0.1762850646445422
 31
0.0
  0
LINE
  5
6C83
330
6C6F
100
AcDbEntity
  8
0
 62
     0
100
AcDbLine
 10
-1.060303578685633
 20
0.5037149353554593
 30
0.0
 11
-0.96740357868563
 21
0.5966149353554631
 31
0.0
  0
LINE
  5
6C84
330
6C6F
100
AcDbEntity
  8
0
 62
     0
100
AcDbLine
 10
-1.833203578685633
 20
-0.2691850646445406
 30
0.0
 11
-1.740303578685635
 21
-0.1762850646445422
 31
0.0
  0
LINE
  5
6C85
330
6C6F
100
AcDbEntity
  8
0
 62
     0
100
AcDbLine
 10
-1.148691926333951
 20
0.5037149353554593
 30
0.0
 11
-1.055791926333949
 21
0.5966149353554631
 31
0.0
  0
LINE
  5
6C86
330
6C6F
100
AcDbEntity
  8
0
 62
     0
100
AcDbLine
 10
-1.921591926333951
 20
-0.2691850646445388
 30
0.0
 11
-1.828691926333954
 21
-0.1762850646445422
 31
0.0
  0
LINE
  5
6C87
330
6C6F
100
AcDbEntity
  8
0
 62
     0
100
AcDbLine
 10
-1.23708027398227
 20
0.5037149353554593
 30
0.0
 11
-1.144180273982268
 21
0.5966149353554613
 31
0.0
  0
LINE
  5
6C88
330
6C6F
100
AcDbEntity
  8
0
 62
     0
100
AcDbLine
 10
-2.00998027398227
 20
-0.2691850646445406
 30
0.0
 11
-1.917080273982271
 21
-0.1762850646445422
 31
0.0
  0
LINE
  5
6C89
330
6C6F
100
AcDbEntity
  8
0
 62
     0
100
AcDbLine
 10
-1.325468621630589
 20
0.5037149353554593
 30
0.0
 11
-1.232568621630585
 21
0.5966149353554613
 31
0.0
  0
LINE
  5
6C8A
330
6C6F
100
AcDbEntity
  8
0
 62
     0
100
AcDbLine
 10
-2.098368621630589
 20
-0.2691850646445406
 30
0.0
 11
-2.005468621630591
 21
-0.1762850646445422
 31
0.0
  0
LINE
  5
6C8B
330
6C6F
100
AcDbEntity
  8
0
 62
     0
100
AcDbLine
 10
-2.105872669170242
 20
-0.1883007645358763
 30
0.0
 11
-2.093856969278908
 21
-0.1762850646445422
 31
0.0
  0
LINE
  5
6C8C
330
6C6F
100
AcDbEntity
  8
0
 62
     0
100
AcDbLine
 10
-1.413856969278906
 20
0.5037149353554593
 30
0.0
 11
-1.320956969278903
 21
0.5966149353554631
 31
0.0
  0
LINE
  5
6C8D
330
6C6F
100
AcDbEntity
  8
0
 62
     0
100
AcDbLine
 10
-2.186756969278908
 20
-0.2691850646445424
 30
0.0
 11
-2.177872669170238
 21
-0.2603007645358719
 31
0.0
  0
LINE
  5
6C8E
330
6C6F
100
AcDbEntity
  8
0
 62
     0
100
AcDbLine
 10
-1.502245316927226
 20
0.5037149353554593
 30
0.0
 11
-1.409345316927222
 21
0.5966149353554631
 31
0.0
  0
LINE
  5
6C8F
330
6C6F
100
AcDbEntity
  8
0
 62
     0
100
AcDbLine
 10
-2.258508993048735
 20
-0.2525487407660503
 30
0.0
 11
-2.182245316927227
 21
-0.1762850646445422
 31
0.0
  0
LINE
  5
6C90
330
6C6F
100
AcDbEntity
  8
0
 62
     0
100
AcDbLine
 10
-1.590633664575545
 20
0.5037149353554576
 30
0.0
 11
-1.497733664575541
 21
0.5966149353554613
 31
0.0
  0
LINE
  5
6C91
330
6C6F
100
AcDbEntity
  8
0
 62
     0
100
AcDbLine
 10
-1.67902201222386
 20
0.5037149353554593
 30
0.0
 11
-1.586122012223858
 21
0.5966149353554613
 31
0.0
  0
LINE
  5
6C92
330
6C6F
100
AcDbEntity
  8
0
 62
     0
100
AcDbLine
 10
-1.767410359872179
 20
0.5037149353554593
 30
0.0
 11
-1.674510359872176
 21
0.5966149353554613
 31
0.0
  0
LINE
  5
6C93
330
6C6F
100
AcDbEntity
  8
0
 62
     0
100
AcDbLine
 10
-1.855798707520499
 20
0.5037149353554593
 30
0.0
 11
-1.762898707520495
 21
0.5966149353554631
 31
0.0
  0
LINE
  5
6C94
330
6C6F
100
AcDbEntity
  8
0
 62
     0
100
AcDbLine
 10
-1.944187055168814
 20
0.5037149353554629
 30
0.0
 11
-1.851287055168814
 21
0.5966149353554631
 31
0.0
  0
LINE
  5
6C95
330
6C6F
100
AcDbEntity
  8
0
 62
     0
100
AcDbLine
 10
-2.032575402817137
 20
0.5037149353554593
 30
0.0
 11
-1.939675402817133
 21
0.5966149353554631
 31
0.0
  0
LINE
  5
6C96
330
6C6F
100
AcDbEntity
  8
0
 62
     0
100
AcDbLine
 10
-2.105872669170238
 20
0.5188060166506752
 30
0.0
 11
-2.028063750465452
 21
0.5966149353554613
 31
0.0
  0
LINE
  5
6C97
330
6C6F
100
AcDbEntity
  8
0
 62
     0
100
AcDbLine
 10
-2.209352098113772
 20
0.5037149353554593
 30
0.0
 11
-2.177872669170238
 21
0.5351943642989934
 31
0.0
  0
LINE
  5
6C98
330
6C6F
100
AcDbEntity
  8
0
 62
     0
100
AcDbLine
 10
-2.261872669170237
 20
0.5395827119473129
 30
0.0
 11
-2.204840445762087
 21
0.5966149353554631
 31
0.0
  0
ENDBLK
  5
6C9A
330
6C6F
100
AcDbEntity
  8
0
100
AcDbBlockEnd
  0
BLOCK
  5
6CB6
330
6C9B
100
AcDbEntity
  8
0
100
AcDbBlockBegin
  2
*X26
 70
     1
 10
0.0
 20
0.0
 30
0.0
  3
*X26
  1

  0
LINE
  5
6C9C
330
6C9B
100
AcDbEntity
  8
0
 62
     0
100
AcDbLine
 10
-2.105872669170237
 20
0.5703298444205398
 30
0.0
 11
-2.132157760105158
 21
0.5966149353554609
 31
0.0
  0
LINE
  5
6C9D
330
6C9B
100
AcDbEntity
  8
0
 62
     0
100
AcDbLine
 10
-2.105872669170237
 20
0.5261356705963803
 30
0.0
 11
-2.176351933929317
 21
0.59661493535546
 31
0.0
  0
LINE
  5
6C9E
330
6C9B
100
AcDbEntity
  8
0
 62
     0
100
AcDbLine
 10
-2.127646107753476
 20
0.5037149353554616
 30
0.0
 11
-2.177872669170237
 21
0.5539414967722221
 31
0.0
  0
LINE
  5
6C9F
330
6C9B
100
AcDbEntity
  8
0
 62
     0
100
AcDbLine
 10
-2.106997355935759
 20
0.4830661835377441
 30
0.0
 11
-2.127646107753476
 21
0.5037149353554616
 31
0.0
  0
LINE
  5
6CA0
330
6C9B
100
AcDbEntity
  8
0
 62
     0
100
AcDbLine
 10
-2.171840281577636
 20
0.5037149353554616
 30
0.0
 11
-2.177872669170237
 21
0.5097473229480625
 31
0.0
  0
LINE
  5
6CA1
330
6C9B
100
AcDbEntity
  8
0
 62
     0
100
AcDbLine
 10
-2.129094442847839
 20
0.4609690966256644
 30
0.0
 11
-2.171840281577636
 21
0.5037149353554616
 31
0.0
  0
LINE
  5
6CA2
330
6C9B
100
AcDbEntity
  8
0
 62
     0
100
AcDbLine
 10
-2.110558715115862
 20
-0.1762850646445413
 30
0.0
 11
-2.158953659616953
 21
-0.1278901201434506
 31
0.0
  0
LINE
  5
6CA3
330
6C9B
100
AcDbEntity
  8
0
 62
     0
100
AcDbLine
 10
-2.105872669170241
 20
-0.1809711105901632
 30
0.0
 11
-2.110558715115861
 21
-0.1762850646445426
 31
0.0
  0
LINE
  5
6CA4
330
6C9B
100
AcDbEntity
  8
0
 62
     0
100
AcDbLine
 10
-2.15475288894002
 20
-0.1762850646445422
 30
0.0
 11
-2.18105074652903
 21
-0.1499872070555326
 31
0.0
  0
LINE
  5
6CA5
330
6C9B
100
AcDbEntity
  8
0
 62
     0
100
AcDbLine
 10
-2.10587266917024
 20
-0.2251652844143224
 30
0.0
 11
-2.15475288894002
 21
-0.1762850646445422
 31
0.0
  0
LINE
  5
6CA6
330
6C9B
100
AcDbEntity
  8
0
 62
     0
100
AcDbLine
 10
-2.19894706276418
 20
-0.1762850646445426
 30
0.0
 11
-2.203147833441109
 21
-0.1720842939676128
 31
0.0
  0
LINE
  5
6CA7
330
6C9B
100
AcDbEntity
  8
0
 62
     0
100
AcDbLine
 10
-2.106047062764181
 20
-0.2691850646445411
 30
0.0
 11
-2.17787266917024
 21
-0.1973594582384823
 31
0.0
  0
LINE
  5
6CA8
330
6C9B
100
AcDbEntity
  8
0
 62
     0
100
AcDbLine
 10
-2.15024123658834
 20
-0.2691850646445406
 30
0.0
 11
-2.177872669170239
 21
-0.2415536320626415
 31
0.0
  0
LINE
  5
6CA9
330
6C9B
100
AcDbEntity
  8
0
 62
     0
100
AcDbLine
 10
-2.119069029528459
 20
-0.2691850646445424
 30
0.0
 11
-2.105872669170241
 21
-0.2559887042863247
 31
0.0
  0
LINE
  5
6CAA
330
6C9B
100
AcDbEntity
  8
0
 62
     0
100
AcDbLine
 10
-2.16326320335262
 20
-0.2691850646445433
 30
0.0
 11
-2.105872669170241
 21
-0.2117945304621651
 31
0.0
  0
LINE
  5
6CAB
330
6C9B
100
AcDbEntity
  8
0
 62
     0
100
AcDbLine
 10
-2.114557377176777
 20
-0.1762850646445422
 30
0.0
 11
-2.100452990647404
 21
-0.1621806781151704
 31
0.0
  0
LINE
  5
6CAC
330
6C9B
100
AcDbEntity
  8
0
 62
     0
100
AcDbLine
 10
-2.177872669170239
 20
-0.2396003566380047
 30
0.0
 11
-2.114557377176777
 21
-0.1762850646445422
 31
0.0
  0
LINE
  5
6CAD
330
6C9B
100
AcDbEntity
  8
0
 62
     0
100
AcDbLine
 10
-2.158751551000936
 20
-0.1762850646445422
 30
0.0
 11
-2.122550077559484
 21
-0.1400835912030907
 31
0.0
  0
LINE
  5
6CAE
330
6C9B
100
AcDbEntity
  8
0
 62
     0
100
AcDbLine
 10
-2.17787266917024
 20
-0.195406182813846
 30
0.0
 11
-2.158751551000936
 21
-0.1762850646445422
 31
0.0
  0
LINE
  5
6CAF
330
6C9B
100
AcDbEntity
  8
0
 62
     0
100
AcDbLine
 10
-2.202945724825095
 20
-0.1762850646445422
 30
0.0
 11
-2.144647164471566
 21
-0.1179865042910118
 31
0.0
  0
LINE
  5
6CB0
330
6C9B
100
AcDbEntity
  8
0
 62
     0
100
AcDbLine
 10
-2.152409294328599
 20
0.4487756255660243
 30
0.0
 11
-2.097469984539161
 21
0.503714935355462
 31
0.0
  0
LINE
  5
6CB1
330
6C9B
100
AcDbEntity
  8
0
 62
     0
100
AcDbLine
 10
-2.141664158363321
 20
0.503714935355462
 30
0.0
 11
-2.105872669170238
 21
0.5395064245485442
 31
0.0
  0
LINE
  5
6CB2
330
6C9B
100
AcDbEntity
  8
0
 62
     0
100
AcDbLine
 10
-2.174506381240679
 20
0.4708727124781041
 30
0.0
 11
-2.141664158363321
 21
0.503714935355462
 31
0.0
  0
LINE
  5
6CB3
330
6C9B
100
AcDbEntity
  8
0
 62
     0
100
AcDbLine
 10
-2.177872669170238
 20
0.5117005983727037
 30
0.0
 11
-2.105872669170238
 21
0.5837005983727029
 31
0.0
  0
LINE
  5
6CB4
330
6C9B
100
AcDbEntity
  8
0
 62
     0
100
AcDbLine
 10
-2.196603468152758
 20
0.492969799390183
 30
0.0
 11
-2.18585833218748
 21
0.5037149353554611
 31
0.0
  0
LINE
  5
6CB5
330
6C9B
100
AcDbEntity
  8
0
 62
     0
100
AcDbLine
 10
-2.177872669170236
 20
0.555894772196865
 30
0.0
 11
-2.137152506011641
 21
0.5966149353554613
 31
0.0
  0
ENDBLK
  5
6CB7
330
6C9B
100
AcDbEntity
  8
0
100
AcDbBlockEnd
  0
BLOCK
  5
6CC8
330
6CB8
100
AcDbEntity
  8
0
100
AcDbBlockBegin
  2
*X27
 70
     1
 10
0.0
 20
0.0
 30
0.0
  3
*X27
  1

  0
LINE
  5
6CB9
330
6CB8
100
AcDbEntity
  8
0
 62
     0
100
AcDbLine
 10
5.510019588596057
 20
5.183623744474098
 30
0.0
 11
5.526484436544649
 21
5.20008859242269
 31
0.0
  0
LINE
  5
6CBA
330
6CB8
100
AcDbEntity
  8
0
 62
     0
100
AcDbLine
 10
5.421631240947739
 20
5.183623744474098
 30
0.0
 11
5.526484436544651
 21
5.288476940071009
 31
0.0
  0
LINE
  5
6CBB
330
6CB8
100
AcDbEntity
  8
0
 62
     0
100
AcDbLine
 10
5.33324289329942
 20
5.183623744474098
 30
0.0
 11
5.526484436544651
 21
5.376865287719328
 31
0.0
  0
LINE
  5
6CBC
330
6CB8
100
AcDbEntity
  8
0
 62
     0
100
AcDbLine
 10
5.244854545651103
 20
5.183623744474098
 30
0.0
 11
5.439854545651103
 21
5.378623744474098
 31
0.0
  0
LINE
  5
6CBD
330
6CB8
100
AcDbEntity
  8
0
 62
     0
100
AcDbLine
 10
5.191466198002782
 20
5.218623744474096
 30
0.0
 11
5.351466198002784
 21
5.378623744474098
 31
0.0
  0
LINE
  5
6CBE
330
6CB8
100
AcDbEntity
  8
0
 62
     0
100
AcDbLine
 10
5.103077850354464
 20
5.218623744474097
 30
0.0
 11
5.263077850354466
 21
5.3786237444741
 31
0.0
  0
LINE
  5
6CBF
330
6CB8
100
AcDbEntity
  8
0
 62
     0
100
AcDbLine
 10
5.014689502706145
 20
5.218623744474096
 30
0.0
 11
5.174689502706148
 21
5.378623744474099
 31
0.0
  0
LINE
  5
6CC0
330
6CB8
100
AcDbEntity
  8
0
 62
     0
100
AcDbLine
 10
4.926301155057826
 20
5.218623744474096
 30
0.0
 11
5.08630115505783
 21
5.3786237444741
 31
0.0
  0
LINE
  5
6CC1
330
6CB8
100
AcDbEntity
  8
0
 62
     0
100
AcDbLine
 10
4.837912807409509
 20
5.218623744474096
 30
0.0
 11
4.997912807409511
 21
5.378623744474098
 31
0.0
  0
LINE
  5
6CC2
330
6CB8
100
AcDbEntity
  8
0
 62
     0
100
AcDbLine
 10
4.74952445976119
 20
5.218623744474096
 30
0.0
 11
4.909524459761192
 21
5.378623744474099
 31
0.0
  0
LINE
  5
6CC3
330
6CB8
100
AcDbEntity
  8
0
 62
     0
100
AcDbLine
 10
4.661136112112872
 20
5.218623744474097
 30
0.0
 11
4.821136112112874
 21
5.3786237444741
 31
0.0
  0
LINE
  5
6CC4
330
6CB8
100
AcDbEntity
  8
0
 62
     0
100
AcDbLine
 10
4.572747764464553
 20
5.218623744474096
 30
0.0
 11
4.732747764464555
 21
5.378623744474098
 31
0.0
  0
LINE
  5
6CC5
330
6CB8
100
AcDbEntity
  8
0
 62
     0
100
AcDbLine
 10
4.484359416816234
 20
5.218623744474096
 30
0.0
 11
4.644359416816237
 21
5.378623744474099
 31
0.0
  0
LINE
  5
6CC6
330
6CB8
100
AcDbEntity
  8
0
 62
     0
100
AcDbLine
 10
4.440484436544656
 20
5.263137111850835
 30
0.0
 11
4.555971069167918
 21
5.378623744474099
 31
0.0
  0
LINE
  5
6CC7
330
6CB8
100
AcDbEntity
  8
0
 62
     0
100
AcDbLine
 10
4.440484436544656
 20
5.351525459499154
 30
0.0
 11
4.4675827215196
 21
5.378623744474099
 31
0.0
  0
ENDBLK
  5
6CC9
330
6CB8
100
AcDbEntity
  8
0
100
AcDbBlockEnd
  0
BLOCK
  5
6CDA
330
6CCA
100
AcDbEntity
  8
0
100
AcDbBlockBegin
  2
*X28
 70
     1
 10
0.0
 20
0.0
 30
0.0
  3
*X28
  1

  0
LINE
  5
6CCB
330
6CCA
100
AcDbEntity
  8
0
 62
     0
100
AcDbLine
 10
5.518903065079242
 20
4.308623744474099
 30
0.0
 11
5.526484436544651
 21
4.316205115939507
 31
0.0
  0
LINE
  5
6CCC
330
6CCA
100
AcDbEntity
  8
0
 62
     0
100
AcDbLine
 10
5.430514717430924
 20
4.308623744474098
 30
0.0
 11
5.526484436544651
 21
4.404593463587826
 31
0.0
  0
LINE
  5
6CCD
330
6CCA
100
AcDbEntity
  8
0
 62
     0
100
AcDbLine
 10
5.342126369782605
 20
4.308623744474099
 30
0.0
 11
5.526484436544651
 21
4.492981811236144
 31
0.0
  0
LINE
  5
6CCE
330
6CCA
100
AcDbEntity
  8
0
 62
     0
100
AcDbLine
 10
5.253738022134286
 20
4.308623744474099
 30
0.0
 11
5.448738022134286
 21
4.503623744474099
 31
0.0
  0
LINE
  5
6CCF
330
6CCA
100
AcDbEntity
  8
0
 62
     0
100
AcDbLine
 10
5.165349674485969
 20
4.308623744474099
 30
0.0
 11
5.360349674485968
 21
4.503623744474098
 31
0.0
  0
LINE
  5
6CD0
330
6CCA
100
AcDbEntity
  8
0
 62
     0
100
AcDbLine
 10
5.07696132683765
 20
4.308623744474099
 30
0.0
 11
5.27196132683765
 21
4.503623744474099
 31
0.0
  0
LINE
  5
6CD1
330
6CCA
100
AcDbEntity
  8
0
 62
     0
100
AcDbLine
 10
4.988572979189331
 20
4.308623744474098
 30
0.0
 11
5.148572979189333
 21
4.4686237444741
 31
0.0
  0
LINE
  5
6CD2
330
6CCA
100
AcDbEntity
  8
0
 62
     0
100
AcDbLine
 10
4.900184631541013
 20
4.308623744474099
 30
0.0
 11
5.060184631541015
 21
4.468623744474101
 31
0.0
  0
LINE
  5
6CD3
330
6CCA
100
AcDbEntity
  8
0
 62
     0
100
AcDbLine
 10
4.811796283892695
 20
4.308623744474099
 30
0.0
 11
4.971796283892695
 21
4.468623744474101
 31
0.0
  0
LINE
  5
6CD4
330
6CCA
100
AcDbEntity
  8
0
 62
     0
100
AcDbLine
 10
4.723407936244377
 20
4.308623744474099
 30
0.0
 11
4.883407936244378
 21
4.4686237444741
 31
0.0
  0
LINE
  5
6CD5
330
6CCA
100
AcDbEntity
  8
0
 62
     0
100
AcDbLine
 10
4.635019588596057
 20
4.308623744474099
 30
0.0
 11
4.795019588596059
 21
4.468623744474101
 31
0.0
  0
LINE
  5
6CD6
330
6CCA
100
AcDbEntity
  8
0
 62
     0
100
AcDbLine
 10
4.546631240947739
 20
4.308623744474098
 30
0.0
 11
4.706631240947741
 21
4.4686237444741
 31
0.0
  0
LINE
  5
6CD7
330
6CCA
100
AcDbEntity
  8
0
 62
     0
100
AcDbLine
 10
4.458242893299421
 20
4.308623744474099
 30
0.0
 11
4.618242893299422
 21
4.4686237444741
 31
0.0
  0
LINE
  5
6CD8
330
6CCA
100
AcDbEntity
  8
0
 62
     0
100
AcDbLine
 10
4.440484436544656
 20
4.379253635367651
 30
0.0
 11
4.529854545651104
 21
4.4686237444741
 31
0.0
  0
LINE
  5
6CD9
330
6CCA
100
AcDbEntity
  8
0
 62
     0
100
AcDbLine
 10
4.440484436544656
 20
4.46764198301597
 30
0.0
 11
4.441466198002785
 21
4.4686237444741
 31
0.0
  0
ENDBLK
  5
6CDB
330
6CCA
100
AcDbEntity
  8
0
100
AcDbBlockEnd
  0
BLOCK
  5
6D1B
330
6CDC
100
AcDbEntity
  8
0
100
AcDbBlockBegin
  2
*U29
 70
     1
 10
0.0
 20
0.0
 30
0.0
  3
*U29
  1

  0
SOLID
  5
6CDD
330
6CDC
100
AcDbEntity
  8
S2
  6
CONTINUOUS
100
AcDbTrace
 10
14.6692418041528
 20
4.693623744474097
 30
0.0
 11
14.66944661100494
 21
4.689454805226059
 31
0.0
 12
14.66944661100494
 22
4.697792683722134
 32
0.0
 13
14.66944661100494
 23
4.697792683722134
 33
0.0
210
0.0
220
0.0
230
1.0
  0
SOLID
  5
6CDE
330
6CDC
100
AcDbEntity
  8
S2
  6
CONTINUOUS
100
AcDbTrace
 10
14.6700590591594
 20
4.685326015141954
 30
0.0
 11
14.66944661100494
 21
4.697792683722134
 31
0.0
 12
14.66944661100494
 22
4.689454805226059
 32
0.0
 13
14.66944661100494
 23
4.689454805226059
 33
0.0
210
0.0
220
0.0
230
1.0
  0
SOLID
  5
6CDF
330
6CDC
100
AcDbEntity
  8
S2
  6
CONTINUOUS
100
AcDbTrace
 10
14.66944661100494
 20
4.697792683722134
 30
0.0
 11
14.6700590591594
 21
4.685326015141954
 31
0.0
 12
14.6700590591594
 22
4.70192147380624
 32
0.0
 13
14.6700590591594
 23
4.70192147380624
 33
0.0
210
0.0
220
0.0
230
1.0
  0
SOLID
  5
6CE0
330
6CDC
100
AcDbEntity
  8
S2
  6
CONTINUOUS
100
AcDbTrace
 10
14.67107325040567
 20
4.681277136727318
 30
0.0
 11
14.6700590591594
 21
4.70192147380624
 31
0.0
 12
14.6700590591594
 22
4.685326015141954
 32
0.0
 13
14.6700590591594
 23
4.685326015141954
 33
0.0
  0
SOLID
  5
6CE1
330
6CDC
100
AcDbEntity
  8
S2
  6
CONTINUOUS
100
AcDbTrace
 10
14.6700590591594
 20
4.70192147380624
 30
0.0
 11
14.67107325040567
 21
4.681277136727318
 31
0.0
 12
14.67107325040567
 22
4.705970352220876
 32
0.0
 13
14.67107325040567
 23
4.705970352220876
 33
0.0
  0
SOLID
  5
6CE2
330
6CDC
100
AcDbEntity
  8
S2
  6
CONTINUOUS
100
AcDbTrace
 10
14.67247941752763
 20
4.677347162894625
 30
0.0
 11
14.67107325040567
 21
4.705970352220876
 31
0.0
 12
14.67107325040567
 22
4.681277136727318
 32
0.0
 13
14.67107325040567
 23
4.681277136727318
 33
0.0
210
0.0
220
0.0
230
1.0
  0
SOLID
  5
6CE3
330
6CDC
100
AcDbEntity
  8
S2
  6
CONTINUOUS
100
AcDbTrace
 10
14.67107325040567
 20
4.705970352220876
 30
0.0
 11
14.67247941752763
 21
4.677347162894625
 31
0.0
 12
14.67247941752763
 22
4.709900326053569
 32
0.0
 13
14.67247941752763
 23
4.709900326053569
 33
0.0
210
0.0
220
0.0
230
1.0
  0
SOLID
  5
6CE4
330
6CDC
100
AcDbEntity
  8
S2
  6
CONTINUOUS
100
AcDbTrace
 10
14.67426401836719
 20
4.673573941440227
 30
0.0
 11
14.67247941752763
 21
4.709900326053569
 31
0.0
 12
14.67247941752763
 22
4.677347162894625
 32
0.0
 13
14.67247941752763
 23
4.677347162894625
 33
0.0
210
0.0
220
0.0
230
1.0
  0
SOLID
  5
6CE5
330
6CDC
100
AcDbEntity
  8
S2
  6
CONTINUOUS
100
AcDbTrace
 10
14.67247941752763
 20
4.709900326053569
 30
0.0
 11
14.67426401836719
 21
4.673573941440227
 31
0.0
 12
14.67426401836719
 22
4.713673547507966
 32
0.0
 13
14.67426401836719
 23
4.713673547507966
 33
0.0
210
0.0
220
0.0
230
1.0
  0
SOLID
  5
6CE6
330
6CDC
100
AcDbEntity
  8
S2
  6
CONTINUOUS
100
AcDbTrace
 10
14.67640986624273
 20
4.669993810549383
 30
0.0
 11
14.67426401836719
 21
4.713673547507966
 31
0.0
 12
14.67426401836719
 22
4.673573941440227
 32
0.0
 13
14.67426401836719
 23
4.673573941440227
 33
0.0
  0
SOLID
  5
6CE7
330
6CDC
100
AcDbEntity
  8
S2
  6
CONTINUOUS
100
AcDbTrace
 10
14.67426401836719
 20
4.713673547507966
 30
0.0
 11
14.67640986624273
 21
4.669993810549383
 31
0.0
 12
14.67640986624273
 22
4.717253678398811
 32
0.0
 13
14.67640986624273
 23
4.717253678398811
 33
0.0
  0
SOLID
  5
6CE8
330
6CDC
100
AcDbEntity
  8
S2
  6
CONTINUOUS
100
AcDbTrace
 10
14.67889629546615
 20
4.666641248839669
 30
0.0
 11
14.67640986624273
 21
4.717253678398811
 31
0.0
 12
14.67640986624273
 22
4.669993810549383
 32
0.0
 13
14.67640986624273
 23
4.669993810549383
 33
0.0
210
0.0
220
0.0
230
1.0
  0
SOLID
  5
6CE9
330
6CDC
100
AcDbEntity
  8
S2
  6
CONTINUOUS
100
AcDbTrace
 10
14.67640986624273
 20
4.717253678398811
 30
0.0
 11
14.67889629546615
 21
4.666641248839669
 31
0.0
 12
14.67889629546615
 22
4.720606240108525
 32
0.0
 13
14.67889629546615
 23
4.720606240108525
 33
0.0
210
0.0
220
0.0
230
1.0
  0
SOLID
  5
6CEA
330
6CDC
100
AcDbEntity
  8
S2
  6
CONTINUOUS
100
AcDbTrace
 10
14.68169936036481
 20
4.663548543313048
 30
0.0
 11
14.67889629546615
 21
4.720606240108525
 31
0.0
 12
14.67889629546615
 22
4.666641248839669
 32
0.0
 13
14.67889629546615
 23
4.666641248839669
 33
0.0
  0
SOLID
  5
6CEB
330
6CDC
100
AcDbEntity
  8
S2
  6
CONTINUOUS
100
AcDbTrace
 10
14.67889629546615
 20
4.720606240108525
 30
0.0
 11
14.68169936036481
 21
4.663548543313048
 31
0.0
 12
14.68169936036481
 22
4.723698945635145
 32
0.0
 13
14.68169936036481
 23
4.723698945635145
 33
0.0
  0
SOLID
  5
6CEC
330
6CDC
100
AcDbEntity
  8
S2
  6
CONTINUOUS
100
AcDbTrace
 10
14.68479206589143
 20
4.660745478414384
 30
0.0
 11
14.68169936036481
 21
4.723698945635145
 31
0.0
 12
14.68169936036481
 22
4.663548543313048
 32
0.0
 13
14.68169936036481
 23
4.663548543313048
 33
0.0
210
0.0
220
0.0
230
1.0
  0
SOLID
  5
6CED
330
6CDC
100
AcDbEntity
  8
S2
  6
CONTINUOUS
100
AcDbTrace
 10
14.68169936036481
 20
4.723698945635145
 30
0.0
 11
14.68479206589143
 21
4.660745478414384
 31
0.0
 12
14.68479206589143
 22
4.726502010533809
 32
0.0
 13
14.68479206589143
 23
4.726502010533809
 33
0.0
210
0.0
220
0.0
230
1.0
  0
SOLID
  5
6CEE
330
6CDC
100
AcDbEntity
  8
S2
  6
CONTINUOUS
100
AcDbTrace
 10
14.68814462760114
 20
4.658259049190965
 30
0.0
 11
14.68479206589143
 21
4.726502010533809
 31
0.0
 12
14.68479206589143
 22
4.660745478414384
 32
0.0
 13
14.68479206589143
 23
4.660745478414384
 33
0.0
210
0.0
220
0.0
230
1.0
  0
SOLID
  5
6CEF
330
6CDC
100
AcDbEntity
  8
S2
  6
CONTINUOUS
100
AcDbTrace
 10
14.68479206589143
 20
4.726502010533809
 30
0.0
 11
14.68814462760114
 21
4.658259049190965
 31
0.0
 12
14.68814462760114
 22
4.728988439757229
 32
0.0
 13
14.68814462760114
 23
4.728988439757229
 33
0.0
210
0.0
220
0.0
230
1.0
  0
SOLID
  5
6CF0
330
6CDC
100
AcDbEntity
  8
S2
  6
CONTINUOUS
100
AcDbTrace
 10
14.69172475849199
 20
4.656113201315431
 30
0.0
 11
14.68814462760114
 21
4.728988439757229
 31
0.0
 12
14.68814462760114
 22
4.658259049190965
 32
0.0
 13
14.68814462760114
 23
4.658259049190965
 33
0.0
210
0.0
220
0.0
230
1.0
  0
SOLID
  5
6CF1
330
6CDC
100
AcDbEntity
  8
S2
  6
CONTINUOUS
100
AcDbTrace
 10
14.68814462760114
 20
4.728988439757229
 30
0.0
 11
14.69172475849199
 21
4.656113201315431
 31
0.0
 12
14.69172475849199
 22
4.731134287632762
 32
0.0
 13
14.69172475849199
 23
4.731134287632762
 33
0.0
  0
SOLID
  5
6CF2
330
6CDC
100
AcDbEntity
  8
S2
  6
CONTINUOUS
100
AcDbTrace
 10
14.69549797994639
 20
4.654328600475863
 30
0.0
 11
14.69172475849199
 21
4.731134287632762
 31
0.0
 12
14.69172475849199
 22
4.656113201315431
 32
0.0
 13
14.69172475849199
 23
4.656113201315431
 33
0.0
210
0.0
220
0.0
230
1.0
  0
SOLID
  5
6CF3
330
6CDC
100
AcDbEntity
  8
S2
  6
CONTINUOUS
100
AcDbTrace
 10
14.69172475849199
 20
4.731134287632762
 30
0.0
 11
14.69549797994639
 21
4.654328600475863
 31
0.0
 12
14.69549797994639
 22
4.73291888847233
 32
0.0
 13
14.69549797994639
 23
4.73291888847233
 33
0.0
  0
SOLID
  5
6CF4
330
6CDC
100
AcDbEntity
  8
S2
  6
CONTINUOUS
100
AcDbTrace
 10
14.69942795377908
 20
4.652922433353909
 30
0.0
 11
14.69549797994639
 21
4.73291888847233
 31
0.0
 12
14.69549797994639
 22
4.654328600475863
 32
0.0
 13
14.69549797994639
 23
4.654328600475863
 33
0.0
210
0.0
220
0.0
230
1.0
  0
SOLID
  5
6CF5
330
6CDC
100
AcDbEntity
  8
S2
  6
CONTINUOUS
100
AcDbTrace
 10
14.69549797994639
 20
4.73291888847233
 30
0.0
 11
14.69942795377908
 21
4.652922433353909
 31
0.0
 12
14.69942795377908
 22
4.734325055594284
 32
0.0
 13
14.69942795377908
 23
4.734325055594284
 33
0.0
210
0.0
220
0.0
230
1.0
  0
SOLID
  5
6CF6
330
6CDC
100
AcDbEntity
  8
S2
  6
CONTINUOUS
100
AcDbTrace
 10
14.70347683219372
 20
4.651908242107642
 30
0.0
 11
14.69942795377908
 21
4.734325055594284
 31
0.0
 12
14.69942795377908
 22
4.652922433353909
 32
0.0
 13
14.69942795377908
 23
4.652922433353909
 33
0.0
210
0.0
220
0.0
230
1.0
  0
SOLID
  5
6CF7
330
6CDC
100
AcDbEntity
  8
S2
  6
CONTINUOUS
100
AcDbTrace
 10
14.69942795377908
 20
4.734325055594284
 30
0.0
 11
14.70347683219372
 21
4.651908242107642
 31
0.0
 12
14.70347683219372
 22
4.735339246840551
 32
0.0
 13
14.70347683219372
 23
4.735339246840551
 33
0.0
210
0.0
220
0.0
230
1.0
  0
SOLID
  5
6CF8
330
6CDC
100
AcDbEntity
  8
S2
  6
CONTINUOUS
100
AcDbTrace
 10
14.70760562227782
 20
4.651295793953178
 30
0.0
 11
14.70347683219372
 21
4.735339246840551
 31
0.0
 12
14.70347683219372
 22
4.651908242107642
 32
0.0
 13
14.70347683219372
 23
4.651908242107642
 33
0.0
  0
SOLID
  5
6CF9
330
6CDC
100
AcDbEntity
  8
S2
  6
CONTINUOUS
100
AcDbTrace
 10
14.70347683219372
 20
4.735339246840551
 30
0.0
 11
14.70760562227782
 21
4.651295793953178
 31
0.0
 12
14.70760562227782
 22
4.735951694995015
 32
0.0
 13
14.70760562227782
 23
4.735951694995015
 33
0.0
  0
SOLID
  5
6CFA
330
6CDC
100
AcDbEntity
  8
S2
  6
CONTINUOUS
100
AcDbTrace
 10
14.71177456152586
 20
4.651090987101042
 30
0.0
 11
14.70760562227782
 21
4.735951694995015
 31
0.0
 12
14.70760562227782
 22
4.651295793953178
 32
0.0
 13
14.70760562227782
 23
4.651295793953178
 33
0.0
210
0.0
220
0.0
230
1.0
  0
SOLID
  5
6CFB
330
6CDC
100
AcDbEntity
  8
S2
  6
CONTINUOUS
100
AcDbTrace
 10
14.70760562227782
 20
4.735951694995015
 30
0.0
 11
14.71177456152586
 21
4.651090987101042
 31
0.0
 12
14.71177456152586
 22
4.736156501847151
 32
0.0
 13
14.71177456152586
 23
4.736156501847151
 33
0.0
210
0.0
220
0.0
230
1.0
  0
SOLID
  5
6CFC
330
6CDC
100
AcDbEntity
  8
S2
  6
CONTINUOUS
100
AcDbTrace
 10
14.71594350077389
 20
4.651295793953178
 30
0.0
 11
14.71177456152586
 21
4.736156501847151
 31
0.0
 12
14.71177456152586
 22
4.651090987101042
 32
0.0
 13
14.71177456152586
 23
4.651090987101042
 33
0.0
210
0.0
220
0.0
230
1.0
  0
SOLID
  5
6CFD
330
6CDC
100
AcDbEntity
  8
S2
  6
CONTINUOUS
100
AcDbTrace
 10
14.71177456152586
 20
4.736156501847151
 30
0.0
 11
14.71594350077389
 21
4.651295793953178
 31
0.0
 12
14.71594350077389
 22
4.735951694995015
 32
0.0
 13
14.71594350077389
 23
4.735951694995015
 33
0.0
210
0.0
220
0.0
230
1.0
  0
SOLID
  5
6CFE
330
6CDC
100
AcDbEntity
  8
S2
  6
CONTINUOUS
100
AcDbTrace
 10
14.720072290858
 20
4.651908242107642
 30
0.0
 11
14.71594350077389
 21
4.735951694995015
 31
0.0
 12
14.71594350077389
 22
4.651295793953178
 32
0.0
 13
14.71594350077389
 23
4.651295793953178
 33
0.0
  0
SOLID
  5
6CFF
330
6CDC
100
AcDbEntity
  8
S2
  6
CONTINUOUS
100
AcDbTrace
 10
14.71594350077389
 20
4.735951694995015
 30
0.0
 11
14.720072290858
 21
4.651908242107642
 31
0.0
 12
14.720072290858
 22
4.735339246840551
 32
0.0
 13
14.720072290858
 23
4.735339246840551
 33
0.0
  0
SOLID
  5
6D00
330
6CDC
100
AcDbEntity
  8
S2
  6
CONTINUOUS
100
AcDbTrace
 10
14.72412116927264
 20
4.652922433353909
 30
0.0
 11
14.720072290858
 21
4.735339246840551
 31
0.0
 12
14.720072290858
 22
4.651908242107642
 32
0.0
 13
14.720072290858
 23
4.651908242107642
 33
0.0
210
0.0
220
0.0
230
1.0
  0
SOLID
  5
6D01
330
6CDC
100
AcDbEntity
  8
S2
  6
CONTINUOUS
100
AcDbTrace
 10
14.720072290858
 20
4.735339246840551
 30
0.0
 11
14.72412116927264
 21
4.652922433353909
 31
0.0
 12
14.72412116927264
 22
4.734325055594284
 32
0.0
 13
14.72412116927264
 23
4.734325055594284
 33
0.0
210
0.0
220
0.0
230
1.0
  0
SOLID
  5
6D02
330
6CDC
100
AcDbEntity
  8
S2
  6
CONTINUOUS
100
AcDbTrace
 10
14.72805114310533
 20
4.654328600475863
 30
0.0
 11
14.72412116927264
 21
4.734325055594284
 31
0.0
 12
14.72412116927264
 22
4.652922433353909
 32
0.0
 13
14.72412116927264
 23
4.652922433353909
 33
0.0
210
0.0
220
0.0
230
1.0
  0
SOLID
  5
6D03
330
6CDC
100
AcDbEntity
  8
S2
  6
CONTINUOUS
100
AcDbTrace
 10
14.72412116927264
 20
4.734325055594284
 30
0.0
 11
14.72805114310533
 21
4.654328600475863
 31
0.0
 12
14.72805114310533
 22
4.73291888847233
 32
0.0
 13
14.72805114310533
 23
4.73291888847233
 33
0.0
210
0.0
220
0.0
230
1.0
  0
SOLID
  5
6D04
330
6CDC
100
AcDbEntity
  8
S2
  6
CONTINUOUS
100
AcDbTrace
 10
14.73182436455973
 20
4.656113201315431
 30
0.0
 11
14.72805114310533
 21
4.73291888847233
 31
0.0
 12
14.72805114310533
 22
4.654328600475863
 32
0.0
 13
14.72805114310533
 23
4.654328600475863
 33
0.0
  0
SOLID
  5
6D05
330
6CDC
100
AcDbEntity
  8
S2
  6
CONTINUOUS
100
AcDbTrace
 10
14.72805114310533
 20
4.73291888847233
 30
0.0
 11
14.73182436455973
 21
4.656113201315431
 31
0.0
 12
14.73182436455973
 22
4.731134287632762
 32
0.0
 13
14.73182436455973
 23
4.731134287632762
 33
0.0
210
0.0
220
0.0
230
1.0
  0
SOLID
  5
6D06
330
6CDC
100
AcDbEntity
  8
S2
  6
CONTINUOUS
100
AcDbTrace
 10
14.73540449545057
 20
4.658259049190965
 30
0.0
 11
14.73182436455973
 21
4.731134287632762
 31
0.0
 12
14.73182436455973
 22
4.656113201315431
 32
0.0
 13
14.73182436455973
 23
4.656113201315431
 33
0.0
  0
SOLID
  5
6D07
330
6CDC
100
AcDbEntity
  8
S2
  6
CONTINUOUS
100
AcDbTrace
 10
14.73182436455973
 20
4.731134287632762
 30
0.0
 11
14.73540449545057
 21
4.658259049190965
 31
0.0
 12
14.73540449545057
 22
4.728988439757229
 32
0.0
 13
14.73540449545057
 23
4.728988439757229
 33
0.0
210
0.0
220
0.0
230
1.0
  0
SOLID
  5
6D08
330
6CDC
100
AcDbEntity
  8
S2
  6
CONTINUOUS
100
AcDbTrace
 10
14.73875705716029
 20
4.660745478414384
 30
0.0
 11
14.73540449545057
 21
4.728988439757229
 31
0.0
 12
14.73540449545057
 22
4.658259049190965
 32
0.0
 13
14.73540449545057
 23
4.658259049190965
 33
0.0
210
0.0
220
0.0
230
1.0
  0
SOLID
  5
6D09
330
6CDC
100
AcDbEntity
  8
S2
  6
CONTINUOUS
100
AcDbTrace
 10
14.73540449545057
 20
4.728988439757229
 30
0.0
 11
14.73875705716029
 21
4.660745478414384
 31
0.0
 12
14.73875705716029
 22
4.726502010533809
 32
0.0
 13
14.73875705716029
 23
4.726502010533809
 33
0.0
210
0.0
220
0.0
230
1.0
  0
SOLID
  5
6D0A
330
6CDC
100
AcDbEntity
  8
S2
  6
CONTINUOUS
100
AcDbTrace
 10
14.74184976268691
 20
4.663548543313048
 30
0.0
 11
14.73875705716029
 21
4.726502010533809
 31
0.0
 12
14.73875705716029
 22
4.660745478414384
 32
0.0
 13
14.73875705716029
 23
4.660745478414384
 33
0.0
210
0.0
220
0.0
230
1.0
  0
SOLID
  5
6D0B
330
6CDC
100
AcDbEntity
  8
S2
  6
CONTINUOUS
100
AcDbTrace
 10
14.73875705716029
 20
4.726502010533809
 30
0.0
 11
14.74184976268691
 21
4.663548543313048
 31
0.0
 12
14.74184976268691
 22
4.723698945635145
 32
0.0
 13
14.74184976268691
 23
4.723698945635145
 33
0.0
210
0.0
220
0.0
230
1.0
  0
SOLID
  5
6D0C
330
6CDC
100
AcDbEntity
  8
S2
  6
CONTINUOUS
100
AcDbTrace
 10
14.74465282758557
 20
4.666641248839669
 30
0.0
 11
14.74184976268691
 21
4.723698945635145
 31
0.0
 12
14.74184976268691
 22
4.663548543313048
 32
0.0
 13
14.74184976268691
 23
4.663548543313048
 33
0.0
  0
SOLID
  5
6D0D
330
6CDC
100
AcDbEntity
  8
S2
  6
CONTINUOUS
100
AcDbTrace
 10
14.74184976268691
 20
4.723698945635145
 30
0.0
 11
14.74465282758557
 21
4.666641248839669
 31
0.0
 12
14.74465282758557
 22
4.720606240108525
 32
0.0
 13
14.74465282758557
 23
4.720606240108525
 33
0.0
  0
SOLID
  5
6D0E
330
6CDC
100
AcDbEntity
  8
S2
  6
CONTINUOUS
100
AcDbTrace
 10
14.74713925680899
 20
4.669993810549383
 30
0.0
 11
14.74465282758557
 21
4.720606240108525
 31
0.0
 12
14.74465282758557
 22
4.666641248839669
 32
0.0
 13
14.74465282758557
 23
4.666641248839669
 33
0.0
210
0.0
220
0.0
230
1.0
  0
SOLID
  5
6D0F
330
6CDC
100
AcDbEntity
  8
S2
  6
CONTINUOUS
100
AcDbTrace
 10
14.74465282758557
 20
4.720606240108525
 30
0.0
 11
14.74713925680899
 21
4.669993810549383
 31
0.0
 12
14.74713925680899
 22
4.717253678398811
 32
0.0
 13
14.74713925680899
 23
4.717253678398811
 33
0.0
210
0.0
220
0.0
230
1.0
  0
SOLID
  5
6D10
330
6CDC
100
AcDbEntity
  8
S2
  6
CONTINUOUS
100
AcDbTrace
 10
14.74928510468452
 20
4.673573941440227
 30
0.0
 11
14.74713925680899
 21
4.717253678398811
 31
0.0
 12
14.74713925680899
 22
4.669993810549383
 32
0.0
 13
14.74713925680899
 23
4.669993810549383
 33
0.0
  0
SOLID
  5
6D11
330
6CDC
100
AcDbEntity
  8
S2
  6
CONTINUOUS
100
AcDbTrace
 10
14.74713925680899
 20
4.717253678398811
 30
0.0
 11
14.74928510468452
 21
4.673573941440227
 31
0.0
 12
14.74928510468452
 22
4.713673547507966
 32
0.0
 13
14.74928510468452
 23
4.713673547507966
 33
0.0
  0
SOLID
  5
6D12
330
6CDC
100
AcDbEntity
  8
S2
  6
CONTINUOUS
100
AcDbTrace
 10
14.75106970552409
 20
4.677347162894625
 30
0.0
 11
14.74928510468452
 21
4.713673547507966
 31
0.0
 12
14.74928510468452
 22
4.673573941440227
 32
0.0
 13
14.74928510468452
 23
4.673573941440227
 33
0.0
210
0.0
220
0.0
230
1.0
  0
SOLID
  5
6D13
330
6CDC
100
AcDbEntity
  8
S2
  6
CONTINUOUS
100
AcDbTrace
 10
14.74928510468452
 20
4.713673547507966
 30
0.0
 11
14.75106970552409
 21
4.677347162894625
 31
0.0
 12
14.75106970552409
 22
4.709900326053569
 32
0.0
 13
14.75106970552409
 23
4.709900326053569
 33
0.0
210
0.0
220
0.0
230
1.0
  0
SOLID
  5
6D14
330
6CDC
100
AcDbEntity
  8
S2
  6
CONTINUOUS
100
AcDbTrace
 10
14.75247587264605
 20
4.681277136727318
 30
0.0
 11
14.75106970552409
 21
4.709900326053569
 31
0.0
 12
14.75106970552409
 22
4.677347162894625
 32
0.0
 13
14.75106970552409
 23
4.677347162894625
 33
0.0
210
0.0
220
0.0
230
1.0
  0
SOLID
  5
6D15
330
6CDC
100
AcDbEntity
  8
S2
  6
CONTINUOUS
100
AcDbTrace
 10
14.75106970552409
 20
4.709900326053569
 30
0.0
 11
14.75247587264605
 21
4.681277136727318
 31
0.0
 12
14.75247587264605
 22
4.705970352220876
 32
0.0
 13
14.75247587264605
 23
4.705970352220876
 33
0.0
210
0.0
220
0.0
230
1.0
  0
SOLID
  5
6D16
330
6CDC
100
AcDbEntity
  8
S2
  6
CONTINUOUS
100
AcDbTrace
 10
14.75349006389231
 20
4.685326015141954
 30
0.0
 11
14.75247587264605
 21
4.705970352220876
 31
0.0
 12
14.75247587264605
 22
4.681277136727318
 32
0.0
 13
14.75247587264605
 23
4.681277136727318
 33
0.0
  0
SOLID
  5
6D17
330
6CDC
100
AcDbEntity
  8
S2
  6
CONTINUOUS
100
AcDbTrace
 10
14.75247587264605
 20
4.705970352220876
 30
0.0
 11
14.75349006389231
 21
4.685326015141954
 31
0.0
 12
14.75349006389231
 22
4.70192147380624
 32
0.0
 13
14.75349006389231
 23
4.70192147380624
 33
0.0
  0
SOLID
  5
6D18
330
6CDC
100
AcDbEntity
  8
S2
  6
CONTINUOUS
100
AcDbTrace
 10
14.75410251204678
 20
4.689454805226059
 30
0.0
 11
14.75349006389231
 21
4.70192147380624
 31
0.0
 12
14.75349006389231
 22
4.685326015141954
 32
0.0
 13
14.75349006389231
 23
4.685326015141954
 33
0.0
210
0.0
220
0.0
230
1.0
  0
SOLID
  5
6D19
330
6CDC
100
AcDbEntity
  8
S2
  6
CONTINUOUS
100
AcDbTrace
 10
14.75349006389231
 20
4.70192147380624
 30
0.0
 11
14.75410251204678
 21
4.689454805226059
 31
0.0
 12
14.75410251204678
 22
4.697792683722134
 32
0.0
 13
14.75410251204678
 23
4.697792683722134
 33
0.0
210
0.0
220
0.0
230
1.0
  0
SOLID
  5
6D1A
330
6CDC
100
AcDbEntity
  8
S2
  6
CONTINUOUS
100
AcDbTrace
 10
14.75430731889891
 20
4.693623744474097
 30
0.0
 11
14.75410251204678
 21
4.697792683722134
 31
0.0
 12
14.75410251204678
 22
4.689454805226059
 32
0.0
 13
14.75410251204678
 23
4.689454805226059
 33
0.0
210
0.0
220
0.0
230
1.0
  0
ENDBLK
  5
6D1C
330
6CDC
100
AcDbEntity
  8
0
100
AcDbBlockEnd
  0
BLOCK
  5
6D56
330
6D1D
100
AcDbEntity
  8
0
100
AcDbBlockBegin
  2
*U30
 70
     1
 10
0.0
 20
0.0
 30
0.0
  3
*U30
  1

  0
SOLID
  5
6D1E
330
6D1D
100
AcDbEntity
  8
S1
  6
CONTINUOUS
100
AcDbTrace
 10
14.72427456152586
 20
4.943311048917076
 30
0.0
 11
14.73674329197016
 21
4.942373744474099
 31
0.0
 12
14.73676674291432
 22
4.942998548947659
 32
0.0
 13
14.73676674291432
 23
4.942998548947659
 33
0.0
210
0.0
220
0.0
230
1.0
  0
SOLID
  5
6D1F
330
6D1D
100
AcDbEntity
  8
S1
  6
CONTINUOUS
100
AcDbTrace
 10
14.73677456152586
 20
4.943623744474098
 30
0.0
 11
14.72427456152586
 21
4.943311048917076
 31
0.0
 12
14.73676674291432
 22
4.942998548947659
 32
0.0
 13
14.73676674291432
 23
4.942998548947659
 33
0.0
210
0.0
220
0.0
230
1.0
  0
SOLID
  5
6D20
330
6D1D
100
AcDbEntity
  8
S1
  6
CONTINUOUS
100
AcDbTrace
 10
14.71177456152586
 20
4.943623744474098
 30
0.0
 11
14.72427456152586
 21
4.943311048917076
 31
0.0
 12
14.73677456152586
 22
4.943623744474098
 32
0.0
 13
14.73677456152586
 23
4.943623744474098
 33
0.0
210
0.0
220
0.0
230
1.0
  0
SOLID
  5
6D21
330
6D1D
100
AcDbEntity
  8
S1
  6
CONTINUOUS
100
AcDbTrace
 10
14.7365606830602
 20
4.946886899279599
 30
0.0
 11
14.71177456152586
 21
4.943623744474098
 31
0.0
 12
14.73677456152586
 22
4.943623744474098
 32
0.0
 13
14.73677456152586
 23
4.943623744474098
 33
0.0
210
0.0
220
0.0
230
1.0
  0
SOLID
  5
6D22
330
6D1D
100
AcDbEntity
  8
S1
  6
CONTINUOUS
100
AcDbTrace
 10
14.73592270718308
 20
4.950094220601661
 30
0.0
 11
14.71177456152586
 21
4.943623744474098
 31
0.0
 12
14.7365606830602
 22
4.946886899279599
 32
0.0
 13
14.7365606830602
 23
4.946886899279599
 33
0.0
210
0.0
220
0.0
230
1.0
  0
SOLID
  5
6D23
330
6D1D
100
AcDbEntity
  8
S1
  6
CONTINUOUS
100
AcDbTrace
 10
14.73487154983864
 20
4.953190830283225
 30
0.0
 11
14.71177456152586
 21
4.943623744474098
 31
0.0
 12
14.73592270718308
 22
4.950094220601661
 32
0.0
 13
14.73592270718308
 23
4.950094220601661
 33
0.0
210
0.0
220
0.0
230
1.0
  0
SOLID
  5
6D24
330
6D1D
100
AcDbEntity
  8
S1
  6
CONTINUOUS
100
AcDbTrace
 10
14.73342519662047
 20
4.956123744474098
 30
0.0
 11
14.71177456152586
 21
4.943623744474098
 31
0.0
 12
14.73487154983864
 22
4.953190830283225
 32
0.0
 13
14.73487154983864
 23
4.953190830283225
 33
0.0
210
0.0
220
0.0
230
1.0
  0
SOLID
  5
6D25
330
6D1D
100
AcDbEntity
  8
S1
  6
CONTINUOUS
100
AcDbTrace
 10
14.73160839503314
 20
4.958842780199316
 30
0.0
 11
14.71177456152586
 21
4.943623744474098
 31
0.0
 12
14.73342519662047
 22
4.956123744474098
 32
0.0
 13
14.73342519662047
 23
4.956123744474098
 33
0.0
210
0.0
220
0.0
230
1.0
  0
SOLID
  5
6D26
330
6D1D
100
AcDbEntity
  8
S1
  6
CONTINUOUS
100
AcDbTrace
 10
14.72945223105552
 20
4.961301414003762
 30
0.0
 11
14.71177456152586
 21
4.943623744474098
 31
0.0
 12
14.73160839503314
 22
4.958842780199316
 32
0.0
 13
14.73160839503314
 23
4.958842780199316
 33
0.0
210
0.0
220
0.0
230
1.0
  0
SOLID
  5
6D27
330
6D1D
100
AcDbEntity
  8
S1
  6
CONTINUOUS
100
AcDbTrace
 10
14.72699359725107
 20
4.96345757798138
 30
0.0
 11
14.71177456152586
 21
4.943623744474098
 31
0.0
 12
14.72945223105552
 22
4.961301414003762
 32
0.0
 13
14.72945223105552
 23
4.961301414003762
 33
0.0
210
0.0
220
0.0
230
1.0
  0
SOLID
  5
6D28
330
6D1D
100
AcDbEntity
  8
S1
  6
CONTINUOUS
100
AcDbTrace
 10
14.72427456152586
 20
4.965274379568709
 30
0.0
 11
14.71177456152586
 21
4.943623744474098
 31
0.0
 12
14.72699359725107
 22
4.96345757798138
 32
0.0
 13
14.72699359725107
 23
4.96345757798138
 33
0.0
210
0.0
220
0.0
230
1.0
  0
SOLID
  5
6D29
330
6D1D
100
AcDbEntity
  8
S1
  6
CONTINUOUS
100
AcDbTrace
 10
14.72134164733498
 20
4.966720732786881
 30
0.0
 11
14.71177456152586
 21
4.943623744474098
 31
0.0
 12
14.72427456152586
 22
4.965274379568709
 32
0.0
 13
14.72427456152586
 23
4.965274379568709
 33
0.0
210
0.0
220
0.0
230
1.0
  0
SOLID
  5
6D2A
330
6D1D
100
AcDbEntity
  8
S1
  6
CONTINUOUS
100
AcDbTrace
 10
14.71824503765342
 20
4.967771890131325
 30
0.0
 11
14.71177456152586
 21
4.943623744474098
 31
0.0
 12
14.72134164733498
 22
4.966720732786881
 32
0.0
 13
14.72134164733498
 23
4.966720732786881
 33
0.0
210
0.0
220
0.0
230
1.0
  0
SOLID
  5
6D2B
330
6D1D
100
AcDbEntity
  8
S1
  6
CONTINUOUS
100
AcDbTrace
 10
14.71503771633136
 20
4.968409866008444
 30
0.0
 11
14.71177456152586
 21
4.943623744474098
 31
0.0
 12
14.71824503765342
 22
4.967771890131325
 32
0.0
 13
14.71824503765342
 23
4.967771890131325
 33
0.0
210
0.0
220
0.0
230
1.0
  0
SOLID
  5
6D2C
330
6D1D
100
AcDbEntity
  8
S1
  6
CONTINUOUS
100
AcDbTrace
 10
14.71177456152586
 20
4.968623744474098
 30
0.0
 11
14.71177456152586
 21
4.943623744474098
 31
0.0
 12
14.71503771633136
 22
4.968409866008444
 32
0.0
 13
14.71503771633136
 23
4.968409866008444
 33
0.0
210
0.0
220
0.0
230
1.0
  0
SOLID
  5
6D2D
330
6D1D
100
AcDbEntity
  8
S1
  6
CONTINUOUS
100
AcDbTrace
 10
14.69927456152586
 20
4.943311048917077
 30
0.0
 11
14.68678238013739
 21
4.942998548947659
 31
0.0
 12
14.68680583108156
 22
4.942373744474099
 32
0.0
 13
14.68680583108156
 23
4.942373744474099
 33
0.0
  0
SOLID
  5
6D2E
330
6D1D
100
AcDbEntity
  8
S1
  6
CONTINUOUS
100
AcDbTrace
 10
14.68677456152586
 20
4.943623744474098
 30
0.0
 11
14.68678238013739
 21
4.942998548947659
 31
0.0
 12
14.69927456152586
 22
4.943311048917077
 32
0.0
 13
14.69927456152586
 23
4.943311048917077
 33
0.0
  0
SOLID
  5
6D2F
330
6D1D
100
AcDbEntity
  8
S1
  6
CONTINUOUS
100
AcDbTrace
 10
14.71177456152586
 20
4.943623744474099
 30
0.0
 11
14.68677456152586
 21
4.943623744474098
 31
0.0
 12
14.69927456152586
 22
4.943311048917077
 32
0.0
 13
14.69927456152586
 23
4.943311048917077
 33
0.0
  0
SOLID
  5
6D30
330
6D1D
100
AcDbEntity
  8
S1
  6
CONTINUOUS
100
AcDbTrace
 10
14.68698843999151
 20
4.946886899279599
 30
0.0
 11
14.68677456152586
 21
4.943623744474098
 31
0.0
 12
14.71177456152586
 22
4.943623744474099
 32
0.0
 13
14.71177456152586
 23
4.943623744474099
 33
0.0
210
0.0
220
0.0
230
1.0
  0
SOLID
  5
6D31
330
6D1D
100
AcDbEntity
  8
S1
  6
CONTINUOUS
100
AcDbTrace
 10
14.68762641586863
 20
4.950094220601661
 30
0.0
 11
14.68698843999151
 21
4.946886899279599
 31
0.0
 12
14.71177456152586
 22
4.943623744474099
 32
0.0
 13
14.71177456152586
 23
4.943623744474099
 33
0.0
  0
SOLID
  5
6D32
330
6D1D
100
AcDbEntity
  8
S1
  6
CONTINUOUS
100
AcDbTrace
 10
14.68867757321308
 20
4.953190830283225
 30
0.0
 11
14.68762641586863
 21
4.950094220601661
 31
0.0
 12
14.71177456152586
 22
4.943623744474099
 32
0.0
 13
14.71177456152586
 23
4.943623744474099
 33
0.0
  0
SOLID
  5
6D33
330
6D1D
100
AcDbEntity
  8
S1
  6
CONTINUOUS
100
AcDbTrace
 10
14.69012392643125
 20
4.956123744474098
 30
0.0
 11
14.68867757321308
 21
4.953190830283225
 31
0.0
 12
14.71177456152586
 22
4.943623744474099
 32
0.0
 13
14.71177456152586
 23
4.943623744474099
 33
0.0
210
0.0
220
0.0
230
1.0
  0
SOLID
  5
6D34
330
6D1D
100
AcDbEntity
  8
S1
  6
CONTINUOUS
100
AcDbTrace
 10
14.69194072801857
 20
4.958842780199316
 30
0.0
 11
14.69012392643125
 21
4.956123744474098
 31
0.0
 12
14.71177456152586
 22
4.943623744474099
 32
0.0
 13
14.71177456152586
 23
4.943623744474099
 33
0.0
  0
SOLID
  5
6D35
330
6D1D
100
AcDbEntity
  8
S1
  6
CONTINUOUS
100
AcDbTrace
 10
14.69409689199619
 20
4.961301414003761
 30
0.0
 11
14.69194072801857
 21
4.958842780199316
 31
0.0
 12
14.71177456152586
 22
4.943623744474099
 32
0.0
 13
14.71177456152586
 23
4.943623744474099
 33
0.0
  0
SOLID
  5
6D36
330
6D1D
100
AcDbEntity
  8
S1
  6
CONTINUOUS
100
AcDbTrace
 10
14.69655552580064
 20
4.963457577981379
 30
0.0
 11
14.69409689199619
 21
4.961301414003761
 31
0.0
 12
14.71177456152586
 22
4.943623744474099
 32
0.0
 13
14.71177456152586
 23
4.943623744474099
 33
0.0
  0
SOLID
  5
6D37
330
6D1D
100
AcDbEntity
  8
S1
  6
CONTINUOUS
100
AcDbTrace
 10
14.69927456152586
 20
4.965274379568708
 30
0.0
 11
14.69655552580064
 21
4.963457577981379
 31
0.0
 12
14.71177456152586
 22
4.943623744474099
 32
0.0
 13
14.71177456152586
 23
4.943623744474099
 33
0.0
210
0.0
220
0.0
230
1.0
  0
SOLID
  5
6D38
330
6D1D
100
AcDbEntity
  8
S1
  6
CONTINUOUS
100
AcDbTrace
 10
14.70220747571673
 20
4.96672073278688
 30
0.0
 11
14.69927456152586
 21
4.965274379568708
 31
0.0
 12
14.71177456152586
 22
4.943623744474099
 32
0.0
 13
14.71177456152586
 23
4.943623744474099
 33
0.0
210
0.0
220
0.0
230
1.0
  0
SOLID
  5
6D39
330
6D1D
100
AcDbEntity
  8
S1
  6
CONTINUOUS
100
AcDbTrace
 10
14.70530408539829
 20
4.967771890131325
 30
0.0
 11
14.70220747571673
 21
4.96672073278688
 31
0.0
 12
14.71177456152586
 22
4.943623744474099
 32
0.0
 13
14.71177456152586
 23
4.943623744474099
 33
0.0
210
0.0
220
0.0
230
1.0
  0
SOLID
  5
6D3A
330
6D1D
100
AcDbEntity
  8
S1
  6
CONTINUOUS
100
AcDbTrace
 10
14.70851140672036
 20
4.968409866008443
 30
0.0
 11
14.70530408539829
 21
4.967771890131325
 31
0.0
 12
14.71177456152586
 22
4.943623744474099
 32
0.0
 13
14.71177456152586
 23
4.943623744474099
 33
0.0
210
0.0
220
0.0
230
1.0
  0
SOLID
  5
6D3B
330
6D1D
100
AcDbEntity
  8
S1
  6
CONTINUOUS
100
AcDbTrace
 10
14.71177456152586
 20
4.968623744474098
 30
0.0
 11
14.70851140672036
 21
4.968409866008443
 31
0.0
 12
14.71177456152586
 22
4.943623744474099
 32
0.0
 13
14.71177456152586
 23
4.943623744474099
 33
0.0
210
0.0
220
0.0
230
1.0
  0
SOLID
  5
6D3C
330
6D1D
100
AcDbEntity
  8
S1
  6
CONTINUOUS
100
AcDbTrace
 10
14.73674329197016
 20
4.942373744474098
 30
0.0
 11
14.72677180892346
 21
4.943173504182448
 31
0.0
 12
14.73636046589168
 22
4.939092375308548
 32
0.0
 13
14.73636046589168
 23
4.939092375308548
 33
0.0
210
0.0
220
0.0
230
1.0
  0
SOLID
  5
6D3D
330
6D1D
100
AcDbEntity
  8
S1
  6
CONTINUOUS
100
AcDbTrace
 10
14.71677631346247
 20
4.943573704421213
 30
0.0
 11
14.73636046589168
 21
4.939092375308548
 31
0.0
 12
14.72677180892346
 22
4.943173504182448
 32
0.0
 13
14.72677180892346
 23
4.943173504182448
 33
0.0
210
0.0
220
0.0
230
1.0
  0
SOLID
  5
6D3E
330
6D1D
100
AcDbEntity
  8
S1
  6
CONTINUOUS
100
AcDbTrace
 10
14.73636046589168
 20
4.939092375308548
 30
0.0
 11
14.71677631346247
 21
4.943573704421213
 31
0.0
 12
14.73554831330039
 22
4.935890134284603
 32
0.0
 13
14.73554831330039
 23
4.935890134284603
 33
0.0
210
0.0
220
0.0
230
1.0
  0
SOLID
  5
6D3F
330
6D1D
100
AcDbEntity
  8
S1
  6
CONTINUOUS
100
AcDbTrace
 10
14.70677280958924
 20
4.943573704421214
 30
0.0
 11
14.73554831330039
 21
4.935890134284603
 31
0.0
 12
14.71677631346247
 22
4.943573704421213
 32
0.0
 13
14.71677631346247
 23
4.943573704421213
 33
0.0
210
0.0
220
0.0
230
1.0
  0
SOLID
  5
6D40
330
6D1D
100
AcDbEntity
  8
S1
  6
CONTINUOUS
100
AcDbTrace
 10
14.73554831330039
 20
4.935890134284603
 30
0.0
 11
14.70677280958924
 21
4.943573704421214
 31
0.0
 12
14.73432101625094
 22
4.932822939905467
 32
0.0
 13
14.73432101625094
 23
4.932822939905467
 33
0.0
210
0.0
220
0.0
230
1.0
  0
SOLID
  5
6D41
330
6D1D
100
AcDbEntity
  8
S1
  6
CONTINUOUS
100
AcDbTrace
 10
14.69677731412826
 20
4.943173504182448
 30
0.0
 11
14.73432101625094
 21
4.932822939905467
 31
0.0
 12
14.70677280958924
 22
4.943573704421214
 32
0.0
 13
14.70677280958924
 23
4.943573704421214
 33
0.0
210
0.0
220
0.0
230
1.0
  0
SOLID
  5
6D42
330
6D1D
100
AcDbEntity
  8
S1
  6
CONTINUOUS
100
AcDbTrace
 10
14.73432101625094
 20
4.932822939905467
 30
0.0
 11
14.69677731412826
 21
4.943173504182448
 31
0.0
 12
14.73270000617636
 22
4.929944352448904
 32
0.0
 13
14.73270000617636
 23
4.929944352448904
 33
0.0
210
0.0
220
0.0
230
1.0
  0
SOLID
  5
6D43
330
6D1D
100
AcDbEntity
  8
S1
  6
CONTINUOUS
100
AcDbTrace
 10
14.68680583108156
 20
4.942373744474099
 30
0.0
 11
14.73270000617636
 21
4.929944352448904
 31
0.0
 12
14.69677731412826
 22
4.943173504182448
 32
0.0
 13
14.69677731412826
 23
4.943173504182448
 33
0.0
210
0.0
220
0.0
230
1.0
  0
SOLID
  5
6D44
330
6D1D
100
AcDbEntity
  8
S1
  6
CONTINUOUS
100
AcDbTrace
 10
14.73270000617636
 20
4.929944352448904
 30
0.0
 11
14.68680583108156
 21
4.942373744474099
 31
0.0
 12
14.73071358964581
 22
4.927304638681441
 32
0.0
 13
14.73071358964581
 23
4.927304638681441
 33
0.0
210
0.0
220
0.0
230
1.0
  0
SOLID
  5
6D45
330
6D1D
100
AcDbEntity
  8
S1
  6
CONTINUOUS
100
AcDbTrace
 10
14.68718865716003
 20
4.939092375308549
 30
0.0
 11
14.73071358964581
 21
4.927304638681441
 31
0.0
 12
14.68680583108156
 22
4.942373744474099
 32
0.0
 13
14.68680583108156
 23
4.942373744474099
 33
0.0
210
0.0
220
0.0
230
1.0
  0
SOLID
  5
6D46
330
6D1D
100
AcDbEntity
  8
S1
  6
CONTINUOUS
100
AcDbTrace
 10
14.73071358964581
 20
4.927304638681441
 30
0.0
 11
14.68718865716003
 21
4.939092375308549
 31
0.0
 12
14.72839645406673
 22
4.924949894084853
 32
0.0
 13
14.72839645406673
 23
4.924949894084853
 33
0.0
210
0.0
220
0.0
230
1.0
  0
SOLID
  5
6D47
330
6D1D
100
AcDbEntity
  8
S1
  6
CONTINUOUS
100
AcDbTrace
 10
14.68800080975132
 20
4.935890134284604
 30
0.0
 11
14.72839645406673
 21
4.924949894084853
 31
0.0
 12
14.68718865716003
 22
4.939092375308549
 32
0.0
 13
14.68718865716003
 23
4.939092375308549
 33
0.0
210
0.0
220
0.0
230
1.0
  0
SOLID
  5
6D48
330
6D1D
100
AcDbEntity
  8
S1
  6
CONTINUOUS
100
AcDbTrace
 10
14.72839645406673
 20
4.924949894084853
 30
0.0
 11
14.68800080975132
 21
4.935890134284604
 31
0.0
 12
14.72578906196283
 22
4.922921237922895
 32
0.0
 13
14.72578906196283
 23
4.922921237922895
 33
0.0
210
0.0
220
0.0
230
1.0
  0
SOLID
  5
6D49
330
6D1D
100
AcDbEntity
  8
S1
  6
CONTINUOUS
100
AcDbTrace
 10
14.68922810680077
 20
4.932822939905467
 30
0.0
 11
14.72578906196283
 21
4.922921237922895
 31
0.0
 12
14.68800080975132
 22
4.935890134284604
 32
0.0
 13
14.68800080975132
 23
4.935890134284604
 33
0.0
210
0.0
220
0.0
230
1.0
  0
SOLID
  5
6D4A
330
6D1D
100
AcDbEntity
  8
S1
  6
CONTINUOUS
100
AcDbTrace
 10
14.72578906196283
 20
4.922921237922895
 30
0.0
 11
14.68922810680077
 21
4.932822939905467
 31
0.0
 12
14.72293694440518
 22
4.921254095204251
 32
0.0
 13
14.72293694440518
 23
4.921254095204251
 33
0.0
210
0.0
220
0.0
230
1.0
  0
SOLID
  5
6D4B
330
6D1D
100
AcDbEntity
  8
S1
  6
CONTINUOUS
100
AcDbTrace
 10
14.69084911687535
 20
4.929944352448905
 30
0.0
 11
14.72293694440518
 21
4.921254095204251
 31
0.0
 12
14.68922810680077
 22
4.932822939905467
 32
0.0
 13
14.68922810680077
 23
4.932822939905467
 33
0.0
210
0.0
220
0.0
230
1.0
  0
SOLID
  5
6D4C
330
6D1D
100
AcDbEntity
  8
S1
  6
CONTINUOUS
100
AcDbTrace
 10
14.72293694440518
 20
4.921254095204251
 30
0.0
 11
14.69084911687535
 21
4.929944352448905
 31
0.0
 12
14.71988990593492
 22
4.919977578080307
 32
0.0
 13
14.71988990593492
 23
4.919977578080307
 33
0.0
210
0.0
220
0.0
230
1.0
  0
SOLID
  5
6D4D
330
6D1D
100
AcDbEntity
  8
S1
  6
CONTINUOUS
100
AcDbTrace
 10
14.6928355334059
 20
4.927304638681442
 30
0.0
 11
14.71988990593492
 21
4.919977578080307
 31
0.0
 12
14.69084911687535
 22
4.929944352448905
 32
0.0
 13
14.69084911687535
 23
4.929944352448905
 33
0.0
210
0.0
220
0.0
230
1.0
  0
SOLID
  5
6D4E
330
6D1D
100
AcDbEntity
  8
S1
  6
CONTINUOUS
100
AcDbTrace
 10
14.71988990593492
 20
4.919977578080307
 30
0.0
 11
14.6928355334059
 21
4.927304638681442
 31
0.0
 12
14.71670115486122
 22
4.919113977479928
 32
0.0
 13
14.71670115486122
 23
4.919113977479928
 33
0.0
210
0.0
220
0.0
230
1.0
  0
SOLID
  5
6D4F
330
6D1D
100
AcDbEntity
  8
S1
  6
CONTINUOUS
100
AcDbTrace
 10
14.69515266898498
 20
4.924949894084854
 30
0.0
 11
14.71670115486122
 21
4.919113977479928
 31
0.0
 12
14.6928355334059
 22
4.927304638681442
 32
0.0
 13
14.6928355334059
 23
4.927304638681442
 33
0.0
210
0.0
220
0.0
230
1.0
  0
SOLID
  5
6D50
330
6D1D
100
AcDbEntity
  8
S1
  6
CONTINUOUS
100
AcDbTrace
 10
14.71670115486122
 20
4.919113977479928
 30
0.0
 11
14.69515266898498
 21
4.924949894084854
 31
0.0
 12
14.71342637412169
 22
4.918678373858515
 32
0.0
 13
14.71342637412169
 23
4.918678373858515
 33
0.0
210
0.0
220
0.0
230
1.0
  0
SOLID
  5
6D51
330
6D1D
100
AcDbEntity
  8
S1
  6
CONTINUOUS
100
AcDbTrace
 10
14.69776006108889
 20
4.922921237922895
 30
0.0
 11
14.71342637412169
 21
4.918678373858515
 31
0.0
 12
14.69515266898498
 22
4.924949894084854
 32
0.0
 13
14.69515266898498
 23
4.924949894084854
 33
0.0
210
0.0
220
0.0
230
1.0
  0
SOLID
  5
6D52
330
6D1D
100
AcDbEntity
  8
S1
  6
CONTINUOUS
100
AcDbTrace
 10
14.71342637412169
 20
4.918678373858515
 30
0.0
 11
14.69776006108889
 21
4.922921237922895
 31
0.0
 12
14.71012274893003
 22
4.918678373858516
 32
0.0
 13
14.71012274893003
 23
4.918678373858516
 33
0.0
210
0.0
220
0.0
230
1.0
  0
SOLID
  5
6D53
330
6D1D
100
AcDbEntity
  8
S1
  6
CONTINUOUS
100
AcDbTrace
 10
14.70061217864654
 20
4.921254095204252
 30
0.0
 11
14.71012274893003
 21
4.918678373858516
 31
0.0
 12
14.69776006108889
 22
4.922921237922895
 32
0.0
 13
14.69776006108889
 23
4.922921237922895
 33
0.0
210
0.0
220
0.0
230
1.0
  0
SOLID
  5
6D54
330
6D1D
100
AcDbEntity
  8
S1
  6
CONTINUOUS
100
AcDbTrace
 10
14.71012274893003
 20
4.918678373858516
 30
0.0
 11
14.70061217864654
 21
4.921254095204252
 31
0.0
 12
14.7068479681905
 22
4.919113977479929
 32
0.0
 13
14.7068479681905
 23
4.919113977479929
 33
0.0
210
0.0
220
0.0
230
1.0
  0
SOLID
  5
6D55
330
6D1D
100
AcDbEntity
  8
S1
  6
CONTINUOUS
100
AcDbTrace
 10
14.7036592171168
 20
4.919977578080307
 30
0.0
 11
14.7068479681905
 21
4.919113977479929
 31
0.0
 12
14.70061217864654
 22
4.921254095204252
 32
0.0
 13
14.70061217864654
 23
4.921254095204252
 33
0.0
210
0.0
220
0.0
230
1.0
  0
ENDBLK
  5
6D57
330
6D1D
100
AcDbEntity
  8
0
100
AcDbBlockEnd
  0
BLOCK
  5
6D5D
330
6D58
100
AcDbEntity
  8
0
100
AcDbBlockBegin
  2
*U31
 70
     1
 10
0.0
 20
0.0
 30
0.0
  3
*U31
  1

  0
SOLID
  5
6D59
330
6D58
100
AcDbEntity
  8
S1
  6
CONTINUOUS
100
AcDbTrace
 10
12.22677456152585
 20
9.149785986990673
 30
0.0
 11
12.17677456152586
 21
9.149785986990673
 31
0.0
 12
12.22677456152585
 22
9.049785986990672
 32
0.0
 13
12.22677456152585
 23
9.049785986990672
 33
0.0
210
0.0
220
0.0
230
1.0
  0
SOLID
  5
6D5A
330
6D58
100
AcDbEntity
  8
S1
  6
CONTINUOUS
100
AcDbTrace
 10
12.17677456152586
 20
9.049785986990672
 30
0.0
 11
12.22677456152585
 21
9.049785986990672
 31
0.0
 12
12.17677456152586
 22
9.149785986990673
 32
0.0
 13
12.17677456152586
 23
9.149785986990673
 33
0.0
210
0.0
220
0.0
230
1.0
  0
SOLID
  5
6D5B
330
6D58
100
AcDbEntity
  8
S1
  6
CONTINUOUS
100
AcDbTrace
 10
12.17677456152586
 20
9.149785986990673
 30
0.0
 11
12.12677456152586
 21
9.149785986990673
 31
0.0
 12
12.17677456152586
 22
9.049785986990674
 32
0.0
 13
12.17677456152586
 23
9.049785986990674
 33
0.0
  0
SOLID
  5
6D5C
330
6D58
100
AcDbEntity
  8
S1
  6
CONTINUOUS
100
AcDbTrace
 10
12.12677456152586
 20
9.049785986990674
 30
0.0
 11
12.17677456152586
 21
9.049785986990674
 31
0.0
 12
12.12677456152586
 22
9.149785986990673
 32
0.0
 13
12.12677456152586
 23
9.149785986990673
 33
0.0
  0
ENDBLK
  5
6D5E
330
6D58
100
AcDbEntity
  8
0
100
AcDbBlockEnd
  0
ENDSEC
  0
SECTION
  2
ENTITIES
  0
TEXT
  5
119
330
18
100
AcDbEntity
  8
D1
100
AcDbText
 10
13.09499999999999
 20
1.41
 30
0.0
 40
0.1
  1
   
100
AcDbText
  0
TEXT
  5
121
330
18
100
AcDbEntity
  8
D1
100
AcDbText
 10
13.935
 20
0.5400000000000005
 30
0.0
 40
0.1099999999999999
  1
    
100
AcDbText
  0
TEXT
  5
122
330
18
100
AcDbEntity
  8
D1
100
AcDbText
 10
14.97499999999999
 20
1.375
 30
0.0
 40
0.1
  1
 
100
AcDbText
  0
INSERT
  5
B99
330
18
100
AcDbEntity
  8
S2
100
AcDbBlockReference
  2
AME_NIL
 10
18.01494614176086
 20
14.67117853937151
 30
0.0
  0
INSERT
  5
B9A
330
18
100
AcDbEntity
  8
S2
100
AcDbBlockReference
  2
AME_SOL
 10
18.01494614176086
 20
14.67117853937151
 30
0.0
1001
AME_SOL
1000
R2.1_c2
1000
AME2
1000
sq cm
1070
     3
1070
     0
1070
     3
1000
wire
1040
45.0
1000
U
1040
1.0
1000
cm
1000
gm
1000
MILD_STEEL
1070
    25
1000
CSG
1070
     1
1070
     3
1070
     3
1070
     3
1070
     0
1000
cu cm
1070
     1
1070
     0
1005
0
  0
MTEXT
  5
5512
330
18
100
AcDbEntity
  8
D1
  6
CONTINUOUS
100
AcDbMText
 10
6.007481415616639
 20
4.98365142100042
 30
0.0
 40
0.13
 41
0.0
 71
     6
 72
     1
  1

1001
ACAD
1000
MTEXTBEGIN
1070
    73
1070
     1
1070
    44
1040
1.0
1070
    74
1070
     0
1000
MTEXTEND
  0
POLYLINE
  5
5907
330
18
100
AcDbEntity
  8
BORDER
  6
CONTINUOUS
100
AcDb2dPolyline
 66
     1
 10
0.0
 20
0.0
 30
0.0
 70
     1
 40
0.03
 41
0.03
  0
VERTEX
  5
6BE2
330
5907
100
AcDbEntity
  8
BORDER
  6
CONTINUOUS
100
AcDbVertex
100
AcDb2dVertex
 10
0.2033186418844295
 20
0.4921116272831716
 30
0.0
  0
VERTEX
  5
6BE3
330
5907
100
AcDbEntity
  8
BORDER
  6
CONTINUOUS
100
AcDbVertex
100
AcDb2dVertex
 10
17.20331864188443
 20
0.4921116272831716
 30
0.0
  0
VERTEX
  5
6BE4
330
5907
100
AcDbEntity
  8
BORDER
  6
CONTINUOUS
100
AcDbVertex
100
AcDb2dVertex
 10
17.20331864188443
 20
11.49211162728317
 30
0.0
  0
VERTEX
  5
6BE5
330
5907
100
AcDbEntity
  8
BORDER
  6
CONTINUOUS
100
AcDbVertex
100
AcDb2dVertex
 10
0.2033186418844295
 20
11.49211162728317
 30
0.0
  0
SEQEND
  5
6BE6
330
5907
100
AcDbEntity
  8
BORDER
  6
CONTINUOUS
  0
POLYLINE
  5
59EC
330
18
100
AcDbEntity
  8
BORDER
100
AcDb2dPolyline
 66
     1
 10
0.0
 20
0.0
 30
0.0
 40
0.0144
 41
0.0144
  0
VERTEX
  5
6BE7
330
59EC
100
AcDbEntity
  8
BORDER
100
AcDbVertex
100
AcDb2dVertex
 10
16.13808983146224
 20
1.06111962728317
 30
0.0
  0
VERTEX
  5
6BE8
330
59EC
100
AcDbEntity
  8
BORDER
100
AcDbVertex
100
AcDb2dVertex
 10
16.13808983146224
 20
0.7816156272831709
 30
0.0
  0
SEQEND
  5
6BE9
330
59EC
100
AcDbEntity
  8
BORDER
  0
POLYLINE
  5
59ED
330
18
100
AcDbEntity
  8
BORDER
100
AcDb2dPolyline
 66
     1
 10
0.0
 20
0.0
 30
0.0
 40
0.0144
 41
0.0144
  0
VERTEX
  5
6BEA
330
59ED
100
AcDbEntity
  8
BORDER
100
AcDbVertex
100
AcDb2dVertex
 10
15.3078441832334
 20
1.06111962728317
 30
0.0
  0
VERTEX
  5
6BEB
330
59ED
100
AcDbEntity
  8
BORDER
100
AcDbVertex
100
AcDb2dVertex
 10
15.3078441832334
 20
0.4838757627084576
 30
0.0
  0
SEQEND
  5
6BEC
330
59ED
100
AcDbEntity
  8
BORDER
  0
POLYLINE
  5
59EE
330
18
100
AcDbEntity
  8
BORDER
100
AcDb2dPolyline
 66
     1
 10
0.0
 20
0.0
 30
0.0
 40
0.0144
 41
0.0144
  0
VERTEX
  5
6BED
330
59EE
100
AcDbEntity
  8
BORDER
100
AcDbVertex
100
AcDb2dVertex
 10
17.20913868652081
 20
0.7816156272831709
 30
0.0
  0
VERTEX
  5
6BEE
330
59EE
100
AcDbEntity
  8
BORDER
100
AcDbVertex
100
AcDb2dVertex
 10
13.93243864188443
 20
0.7816156272831709
 30
0.0
  0
SEQEND
  5
6BEF
330
59EE
100
AcDbEntity
  8
BORDER
  0
POLYLINE
  5
59EF
330
18
100
AcDbEntity
  8
BORDER
100
AcDb2dPolyline
 66
     1
 10
0.0
 20
0.0
 30
0.0
 40
0.0144
 41
0.0144
  0
VERTEX
  5
6BF0
330
59EF
100
AcDbEntity
  8
BORDER
100
AcDbVertex
100
AcDb2dVertex
 10
17.21349565830657
 20
1.06111962728317
 30
0.0
  0
VERTEX
  5
6BF1
330
59EF
100
AcDbEntity
  8
BORDER
100
AcDbVertex
100
AcDb2dVertex
 10
13.93243864188443
 20
1.06111962728317
 30
0.0
  0
SEQEND
  5
6BF2
330
59EF
100
AcDbEntity
  8
BORDER
  0
POLYLINE
  5
59F0
330
18
100
AcDbEntity
  8
BORDER
100
AcDb2dPolyline
 66
     1
 10
0.0
 20
0.0
 30
0.0
 40
0.0144
 41
0.0144
  0
VERTEX
  5
6BF3
330
59F0
100
AcDbEntity
  8
BORDER
100
AcDbVertex
100
AcDb2dVertex
 10
13.93243864188443
 20
1.34062362728317
 30
0.0
  0
VERTEX
  5
6BF4
330
59F0
100
AcDbEntity
  8
BORDER
100
AcDbVertex
100
AcDb2dVertex
 10
17.21349565830657
 20
1.34062362728317
 30
0.0
  0
SEQEND
  5
6BF5
330
59F0
100
AcDbEntity
  8
BORDER
  0
POLYLINE
  5
59F1
330
18
100
AcDbEntity
  8
BORDER
100
AcDb2dPolyline
 66
     1
 10
0.0
 20
0.0
 30
0.0
 40
0.0144
 41
0.0144
  0
VERTEX
  5
6BF6
330
59F1
100
AcDbEntity
  8
BORDER
100
AcDbVertex
100
AcDb2dVertex
 10
13.93243864188443
 20
1.620127627283171
 30
0.0
  0
VERTEX
  5
6BF7
330
59F1
100
AcDbEntity
  8
BORDER
100
AcDbVertex
100
AcDb2dVertex
 10
17.19331864188443
 20
1.620127627283171
 30
0.0
  0
SEQEND
  5
6BF8
330
59F1
100
AcDbEntity
  8
BORDER
  0
POLYLINE
  5
59F2
330
18
100
AcDbEntity
  8
BORDER
100
AcDb2dPolyline
 66
     1
 10
0.0
 20
0.0
 30
0.0
 40
0.0144
 41
0.0144
  0
VERTEX
  5
6BF9
330
59F2
100
AcDbEntity
  8
BORDER
100
AcDbVertex
100
AcDb2dVertex
 10
17.19331864188443
 20
1.778273835643592
 30
0.0
  0
VERTEX
  5
6BFA
330
59F2
100
AcDbEntity
  8
BORDER
100
AcDbVertex
100
AcDb2dVertex
 10
13.93243864188443
 20
1.778273835643592
 30
0.0
  0
SEQEND
  5
6BFB
330
59F2
100
AcDbEntity
  8
BORDER
  0
POLYLINE
  5
59F3
330
18
100
AcDbEntity
  8
BORDER
100
AcDb2dPolyline
 66
     1
 10
0.0
 20
0.0
 30
0.0
 40
0.0144
 41
0.0144
  0
VERTEX
  5
6BFC
330
59F3
100
AcDbEntity
  8
BORDER
100
AcDbVertex
100
AcDb2dVertex
 10
13.93243864188443
 20
1.936673835643592
 30
0.0
  0
VERTEX
  5
6BFD
330
59F3
100
AcDbEntity
  8
BORDER
100
AcDbVertex
100
AcDb2dVertex
 10
17.19331864188443
 20
1.936673835643592
 30
0.0
  0
SEQEND
  5
6BFE
330
59F3
100
AcDbEntity
  8
BORDER
  0
LINE
  5
59F4
330
18
100
AcDbEntity
  8
BORDER
100
AcDbLine
 10
13.93243864188443
 20
1.936673835643592
 30
0.0
 11
17.19331864188442
 21
1.936673835643592
 31
0.0
  0
LINE
  5
59F5
330
18
100
AcDbEntity
  8
BORDER
100
AcDbLine
 10
13.93243864188443
 20
1.620127627283171
 30
0.0
 11
17.19331864188442
 21
1.620127627283171
 31
0.0
  0
LINE
  5
59F6
330
18
100
AcDbEntity
  8
BORDER
100
AcDbLine
 10
13.93243864188443
 20
1.34062362728317
 30
0.0
 11
17.21349565830658
 21
1.34062362728317
 31
0.0
  0
LINE
  5
59F7
330
18
100
AcDbEntity
  8
BORDER
100
AcDbLine
 10
13.93243864188443
 20
1.06111962728317
 30
0.0
 11
17.21349565830658
 21
1.06111962728317
 31
0.0
  0
LINE
  5
59F8
330
18
100
AcDbEntity
  8
BORDER
100
AcDbLine
 10
13.93243864188443
 20
0.7816156272831709
 30
0.0
 11
17.20913868652081
 21
0.7816156272831709
 31
0.0
  0
LINE
  5
59F9
330
18
100
AcDbEntity
  8
BORDER
100
AcDbLine
 10
13.93243864188443
 20
1.778273835643592
 30
0.0
 11
17.19331864188442
 21
1.778273835643592
 31
0.0
  0
TRACE
  5
59FA
330
18
100
AcDbEntity
  8
BORDER
100
AcDbTrace
 10
17.19331864188442
 20
2.206861035643592
 30
0.0
 11
17.19331864188442
 21
2.225494635643592
 31
0.0
 12
13.93709704188443
 22
2.206861035643592
 32
0.0
 13
13.93709704188443
 23
2.225494635643592
 33
0.0
  0
TEXT
  5
59FB
330
18
100
AcDbEntity
  8
BORDER
100
AcDbText
 10
16.17667174762063
 20
0.9635309474587469
 30
0.0
 40
0.0576
  1
DRAWING SCALE
100
AcDbText
  0
TEXT
  5
59FC
330
18
100
AcDbEntity
  8
BORDER
100
AcDbText
 10
15.85612215094673
 20
1.52808119330731
 30
0.0
 40
0.0576
  1
APPROVED
100
AcDbText
  0
TEXT
  5
59FD
330
18
100
AcDbEntity
  8
D1
100
AcDbText
 10
15.59051515502297
 20
0.5431888808400345
 30
0.0
 40
0.0864
  1
SM05PD7B
100
AcDbText
  0
TEXT
  5
59FE
330
18
100
AcDbEntity
  8
BORDER
100
AcDbText
 10
14.01628984188443
 20
1.815555435643592
 30
0.0
 40
0.0652176
  1
TOL: X.XXX=+/-0.005 X.XX=+/-0.010 ANGULAR +/-30'
100
AcDbText
  0
TRACE
  5
59FF
330
18
100
AcDbEntity
  8
BORDER
100
AcDbTrace
 10
17.19331864188442
 20
2.565557835643591
 30
0.0
 11
17.19331864188442
 21
2.612141835643591
 31
0.0
 12
13.95573064188443
 22
2.565557835643591
 32
0.0
 13
13.90914664188443
 23
2.612141835643591
 33
0.0
  0
TEXT
  5
5A00
330
18
100
AcDbEntity
  8
D1
100
AcDbText
 10
14.09505053366135
 20
1.994379289860429
 30
0.0
 40
0.0864
  1
SM05PD7B MOUNTED GaP PHOTODIODE
100
AcDbText
  0
TEXT
  5
5A01
330
18
100
AcDbEntity
  8
D1
100
AcDbText
 10
14.5316413308064
 20
1.126515888656993
 30
0.0
 40
0.0864
  1
N/A
100
AcDbText
  0
TEXT
  5
5A02
330
18
100
AcDbEntity
  8
BORDER
100
AcDbText
 10
14.0028724779958
 20
1.662780269116971
 30
0.0
 40
0.0623101182846307
  1
SURF. FINISH: 32 MICROINCHES UNLESS OTHERWISE NOTED
100
AcDbText
  0
POLYLINE
  5
5A03
330
18
100
AcDbEntity
  8
BORDER
100
AcDb2dPolyline
 66
     1
 10
0.0
 20
0.0
 30
0.0
 40
0.0144
 41
0.0144
  0
VERTEX
  5
6BFF
330
5A03
100
AcDbEntity
  8
BORDER
100
AcDbVertex
100
AcDb2dVertex
 10
14.9920749093331
 20
1.06111962728317
 30
0.0
  0
VERTEX
  5
6C00
330
5A03
100
AcDbEntity
  8
BORDER
100
AcDbVertex
100
AcDb2dVertex
 10
14.9920749093331
 20
0.7816156272831709
 30
0.0
  0
SEQEND
  5
6C01
330
5A03
100
AcDbEntity
  8
BORDER
  0
POLYLINE
  5
5A04
330
18
100
AcDbEntity
  8
BORDER
100
AcDb2dPolyline
 66
     1
 10
0.0
 20
0.0
 30
0.0
 40
0.0144
 41
0.0144
  0
VERTEX
  5
6C02
330
5A04
100
AcDbEntity
  8
BORDER
100
AcDbVertex
100
AcDb2dVertex
 10
14.72044624632172
 20
1.06111962728317
 30
0.0
  0
VERTEX
  5
6C03
330
5A04
100
AcDbEntity
  8
BORDER
100
AcDbVertex
100
AcDb2dVertex
 10
14.72044624632172
 20
0.7816156272831709
 30
0.0
  0
SEQEND
  5
6C04
330
5A04
100
AcDbEntity
  8
BORDER
  0
POLYLINE
  5
5A05
330
18
100
AcDbEntity
  8
BORDER
100
AcDb2dPolyline
 66
     1
 10
0.0
 20
0.0
 30
0.0
 40
0.0144
 41
0.0144
  0
VERTEX
  5
6C05
330
5A05
100
AcDbEntity
  8
BORDER
100
AcDbVertex
100
AcDb2dVertex
 10
14.95804624632172
 20
1.620127627283171
 30
0.0
  0
VERTEX
  5
6C06
330
5A05
100
AcDbEntity
  8
BORDER
100
AcDbVertex
100
AcDb2dVertex
 10
14.95804624632172
 20
1.34062362728317
 30
0.0
  0
SEQEND
  5
6C07
330
5A05
100
AcDbEntity
  8
BORDER
  0
POLYLINE
  5
5A06
330
18
100
AcDbEntity
  8
BORDER
100
AcDb2dPolyline
 66
     1
 10
0.0
 20
0.0
 30
0.0
 40
0.0144
 41
0.0144
  0
VERTEX
  5
6C08
330
5A06
100
AcDbEntity
  8
BORDER
100
AcDbVertex
100
AcDb2dVertex
 10
15.76300624632172
 20
1.620127627283171
 30
0.0
  0
VERTEX
  5
6C09
330
5A06
100
AcDbEntity
  8
BORDER
100
AcDbVertex
100
AcDb2dVertex
 10
15.76300624632172
 20
1.34062362728317
 30
0.0
  0
SEQEND
  5
6C0A
330
5A06
100
AcDbEntity
  8
BORDER
  0
LINE
  5
5A07
330
18
100
AcDbEntity
  8
BORDER
100
AcDbLine
 10
14.9920749093331
 20
1.06111962728317
 30
0.0
 11
14.9920749093331
 21
0.7816156272831709
 31
0.0
  0
LINE
  5
5A08
330
18
100
AcDbEntity
  8
BORDER
100
AcDbLine
 10
14.95804624632172
 20
1.34062362728317
 30
0.0
 11
14.95804624632172
 21
1.620127627283171
 31
0.0
  0
LINE
  5
5A09
330
18
100
AcDbEntity
  8
BORDER
100
AcDbLine
 10
15.76300624632172
 20
1.34062362728317
 30
0.0
 11
15.76300624632172
 21
1.620127627283171
 31
0.0
  0
LINE
  5
5A0A
330
18
100
AcDbEntity
  8
BORDER
100
AcDbLine
 10
14.72044624632172
 20
0.7816156272831709
 30
0.0
 11
14.72044624632172
 21
1.06111962728317
 31
0.0
  0
TEXT
  5
5A0B
330
18
100
AcDbEntity
  8
D1
100
AcDbText
 10
14.15216260790222
 20
0.5431888808400345
 30
0.0
 40
0.0864
  1
12055-E01
100
AcDbText
  0
TEXT
  5
5A0C
330
18
100
AcDbEntity
  8
D1
100
AcDbText
 10
13.99931515502297
 20
0.8455888808400334
 30
0.0
 40
0.0864
  1
07/22/04
100
AcDbText
  0
TEXT
  5
5A0D
330
18
100
AcDbEntity
  8
D1
100
AcDbText
 10
14.26020730202883
 20
1.382872846864173
 30
0.0
 40
0.0864
  1
HS
100
AcDbText
  0
TEXT
  5
5A0E
330
18
100
AcDbEntity
  8
D1
100
AcDbText
 10
14.8305004934966
 20
0.8455888808400334
 30
0.0
 40
0.0864
  1
A
100
AcDbText
  0
TEXT
  5
5A0F
330
18
100
AcDbEntity
  8
BORDER
100
AcDbText
 10
15.04861222247164
 20
0.9649707167954256
 30
0.0
 40
0.0576
  1
SIZE
 72
     1
 11
15.14461222247164
 21
0.9649707167954256
 31
0.0
100
AcDbText
  0
TEXT
  5
5A10
330
18
100
AcDbEntity
  8
D1
100
AcDbText
 10
15.11638934857135
 20
0.8569707167954252
 30
0.0
 40
0.0864
  1
B
 72
     1
 11
15.14518934857135
 21
0.8569707167954252
 31
0.0
100
AcDbText
  0
TEXT
  5
5A11
330
18
100
AcDbEntity
  8
D1
100
AcDbText
 10
15.52810589062972
 20
0.8455888808400334
 30
0.0
 40
0.0864
  1
1
100
AcDbText
  0
TEXT
  5
5A13
330
18
100
AcDbEntity
  8
D1
100
AcDbText
 10
15.88090589062971
 20
0.8455888808400334
 30
0.0
 40
0.0864
  1
1
100
AcDbText
  0
TRACE
  5
5A14
330
18
100
AcDbEntity
  8
BORDER
100
AcDbTrace
 10
13.95573064188443
 20
2.566061402659054
 30
0.0
 11
13.90914664188443
 21
2.612645402659055
 31
0.0
 12
13.95573064188443
 22
0.5021116272831714
 32
0.0
 13
13.90914664188443
 23
0.5021116272831714
 33
0.0
  0
LINE
  5
5A15
330
18
100
AcDbEntity
  8
BORDER
100
AcDbLine
 10
16.13808983146224
 20
1.06111962728317
 30
0.0
 11
16.13808983146224
 21
0.7816156272831709
 31
0.0
  0
LINE
  5
5A16
330
18
100
AcDbEntity
  8
BORDER
100
AcDbLine
 10
15.3078441832334
 20
0.4838757627084576
 30
0.0
 11
15.3078441832334
 21
1.06111962728317
 31
0.0
  0
TEXT
  5
5A17
330
18
100
AcDbEntity
  8
BORDER
100
AcDbText
 10
14.02094824188443
 20
0.6884476272831708
 30
0.0
 40
0.0652176
  1
DWG NO.
100
AcDbText
  0
TEXT
  5
5A18
330
18
100
AcDbEntity
  8
BORDER
100
AcDbText
 10
15.36735528000759
 20
0.6884476272831708
 30
0.0
 40
0.0652176
  1
PART NO.
100
AcDbText
  0
TEXT
  5
5A19
330
18
100
AcDbEntity
  8
BORDER
100
AcDbText
 10
14.9794930726573
 20
1.52808119330731
 30
0.0
 40
0.0576
  1
ENGINEER
100
AcDbText
  0
TEXT
  5
5A1A
330
18
100
AcDbEntity
  8
BORDER
100
AcDbText
 10
14.01628984188443
 20
1.238560686607382
 30
0.0
 40
0.0652176
  1
MATERIAL
100
AcDbText
  0
TEXT
  5
5A1B
330
18
100
AcDbEntity
  8
BORDER
100
AcDbText
 10
14.02094824188442
 20
0.9679516272831708
 30
0.0
 40
0.0576
  1
DATE
100
AcDbText
  0
TEXT
  5
5A1C
330
18
100
AcDbEntity
  8
BORDER
100
AcDbText
 10
14.01008523453413
 20
1.52808119330731
 30
0.0
 40
0.0576
  1
DRAWN
100
AcDbText
  0
TEXT
  5
5A1D
330
18
100
AcDbEntity
  8
BORDER
100
AcDbText
 10
14.7502000800076
 20
0.9632932272831705
 30
0.0
 40
0.0576
  1
REV
100
AcDbText
  0
TEXT
  5
5A1E
330
18
100
AcDbEntity
  8
BORDER
100
AcDbText
 10
14.01628984188443
 20
2.118351435643592
 30
0.0
 40
0.0652176
  1
TITLE
100
AcDbText
  0
TEXT
  5
5A1F
330
18
100
AcDbEntity
  8
BORDER
100
AcDbText
 10
15.34569504774953
 20
0.9635309474587469
 30
0.0
 40
0.0576
  1
SHEET
100
AcDbText
  0
TEXT
  5
5A20
330
18
100
AcDbEntity
  8
BORDER
100
AcDbText
 10
15.66511964715972
 20
0.8523412272831709
 30
0.0
 40
0.0652176
  1
OF
100
AcDbText
  0
TEXT
  5
5A21
330
18
100
AcDbEntity
  8
D1
100
AcDbText
 10
16.3747540353002
 20
0.8455888808400334
 30
0.0
 40
0.0864
  1
2" = 1"
100
AcDbText
  0
TEXT
  5
5A22
330
18
100
AcDbEntity
  8
BORDER
100
AcDbText
 10
16.06432964945025
 20
2.423164986131337
 30
0.0
 40
0.104814
  1
PO BOX 366
100
AcDbText
  0
TEXT
  5
5A23
330
18
100
AcDbEntity
  8
BORDER
100
AcDbText
 10
16.06432964945025
 20
2.248474986131337
 30
0.0
 40
0.104814
  1
NEWTON NJ
100
AcDbText
  0
POLYLINE
  5
5A24
330
18
100
AcDbEntity
  8
BORDER
100
AcDb2dPolyline
 66
     1
 10
0.0
 20
0.0
 30
0.0
 40
0.00493045056
 41
0.00493045056
  0
VERTEX
  5
6C0B
330
5A24
100
AcDbEntity
  8
BORDER
100
AcDbVertex
100
AcDb2dVertex
 10
15.91654691965104
 20
2.462067105502534
 30
0.0
 42
0.1521907920671271
  0
VERTEX
  5
6C0C
330
5A24
100
AcDbEntity
  8
BORDER
100
AcDbVertex
100
AcDb2dVertex
 10
15.91225178861954
 20
2.496806460126451
 30
0.0
 42
0.1521907920671271
  0
SEQEND
  5
6C0D
330
5A24
100
AcDbEntity
  8
BORDER
  0
SOLID
  5
5A25
330
18
100
AcDbEntity
  8
BORDER
100
AcDbTrace
 10
15.90234858433021
 20
2.470291697178187
 30
0.0
 11
15.91832203822379
 21
2.462310286192544
 31
0.0
 12
15.89585936868593
 22
2.491741739202103
 32
0.0
 13
15.91108406692825
 23
2.501967922027458
 33
0.0
  0
POLYLINE
  5
5A26
330
18
100
AcDbEntity
  8
BORDER
100
AcDb2dPolyline
 66
     1
 10
0.0
 20
0.0
 30
0.0
 40
0.00493045056
 41
0.00493045056
  0
VERTEX
  5
6C0E
330
5A26
100
AcDbEntity
  8
BORDER
100
AcDbVertex
100
AcDb2dVertex
 10
15.79543783155204
 20
2.490673265252777
 30
0.0
 42
0.3986208060685013
  0
VERTEX
  5
6C0F
330
5A26
100
AcDbEntity
  8
BORDER
100
AcDbVertex
100
AcDb2dVertex
 10
15.82837010359392
 20
2.420374273631635
 30
0.0
 42
0.3986208060685013
  0
SEQEND
  5
6C10
330
5A26
100
AcDbEntity
  8
BORDER
  0
SOLID
  5
5A27
330
18
100
AcDbEntity
  8
BORDER
100
AcDbTrace
 10
15.82291490085985
 20
2.499107795052449
 30
0.0
 11
15.81049029370266
 21
2.512652890338303
 31
0.0
 12
15.8075535683746
 22
2.482627929121326
 32
0.0
 13
15.79332174563091
 23
2.488497470411862
 33
0.0
  0
SOLID
  5
5A28
330
18
100
AcDbEntity
  8
BORDER
100
AcDbTrace
 10
15.8075535683746
 20
2.482627929121326
 30
0.0
 11
15.79332174563091
 21
2.488497470411862
 31
0.0
 12
15.81003848980603
 22
2.456440744902008
 32
0.0
 13
15.7951289612174
 23
2.450345452023373
 33
0.0
  0
ARC
  5
5A29
330
18
100
AcDbEntity
  8
BORDER
100
AcDbCircle
 10
15.48037296698338
 20
2.451406827523078
 30
0.0
 40
0.0589785580760116
100
AcDbArc
 50
358.6532608214001
 51
58.67020583628288
  0
SOLID
  5
5A2A
330
18
100
AcDbEntity
  8
BORDER
100
AcDbTrace
 10
14.76653889437084
 20
2.477550151191652
 30
0.0
 11
14.76653889437084
 21
2.511788449336835
 31
0.0
 12
14.83350507409793
 22
2.477550151191652
 32
0.0
 13
14.85764617023569
 23
2.517497586131336
 33
0.0
  0
POLYLINE
  5
5A2B
330
18
100
AcDbEntity
  8
BORDER
100
AcDb2dPolyline
 66
     1
 10
0.0
 20
0.0
 30
0.0
 40
0.0104814
 41
0.0104814
  0
VERTEX
  5
6C11
330
5A2B
100
AcDbEntity
  8
BORDER
100
AcDbVertex
100
AcDb2dVertex
 10
14.86549971251974
 20
2.385556000624649
 30
0.0
 42
0.9399343180161681
  0
VERTEX
  5
6C12
330
5A2B
100
AcDbEntity
  8
BORDER
100
AcDbVertex
100
AcDb2dVertex
 10
14.85764617023569
 20
2.512256886131337
 30
0.0
 42
0.9399343180161681
  0
SEQEND
  5
6C13
330
5A2B
100
AcDbEntity
  8
BORDER
  0
POLYLINE
  5
5A2C
330
18
100
AcDbEntity
  8
BORDER
100
AcDb2dPolyline
 66
     1
 10
0.0
 20
0.0
 30
0.0
 40
0.0104814
 41
0.0104814
  0
VERTEX
  5
6C14
330
5A2C
100
AcDbEntity
  8
BORDER
100
AcDbVertex
100
AcDb2dVertex
 10
14.83350507409793
 20
2.394445578919877
 30
0.0
 42
1.0
  0
VERTEX
  5
6C15
330
5A2C
100
AcDbEntity
  8
BORDER
100
AcDbVertex
100
AcDb2dVertex
 10
14.83350507409793
 20
2.482790851191652
 30
0.0
 42
1.0
  0
SEQEND
  5
6C16
330
5A2C
100
AcDbEntity
  8
BORDER
  0
SOLID
  5
5A2D
330
18
100
AcDbEntity
  8
BORDER
100
AcDbTrace
 10
14.87389709336464
 20
2.461444576793407
 30
0.0
 11
14.91458577012296
 21
2.482616780915384
 31
0.0
 12
14.85599407559098
 22
2.480445272800309
 32
0.0
 13
14.87443960905475
 23
2.510303509382583
 33
0.0
  0
SOLID
  5
5A2E
330
18
100
AcDbEntity
  8
BORDER
100
AcDbTrace
 10
14.85599407559098
 20
2.480445272800309
 30
0.0
 11
14.87443960905475
 21
2.510303509382583
 31
0.0
 12
14.83350507409793
 22
2.477550151191652
 32
0.0
 13
14.85764617023569
 23
2.517497586131336
 33
0.0
  0
POLYLINE
  5
5A2F
330
18
100
AcDbEntity
  8
BORDER
100
AcDb2dPolyline
 66
     1
 10
0.0
 20
0.0
 30
0.0
 40
0.00493045056
 41
0.00493045056
  0
VERTEX
  5
6C17
330
5A2F
100
AcDbEntity
  8
BORDER
100
AcDbVertex
100
AcDb2dVertex
 10
15.83111860223525
 20
2.501330070830354
 30
0.0
 42
0.3426274439635524
  0
VERTEX
  5
6C18
330
5A2F
100
AcDbEntity
  8
BORDER
100
AcDbVertex
100
AcDb2dVertex
 10
15.80734620408546
 20
2.476050825668901
 30
0.0
 42
0.2942809489964497
  0
VERTEX
  5
6C19
330
5A2F
100
AcDbEntity
  8
BORDER
100
AcDbVertex
100
AcDb2dVertex
 10
15.82428613456932
 20
2.443344666530432
 30
0.0
 42
0.2735375373643303
  0
VERTEX
  5
6C1A
330
5A2F
100
AcDbEntity
  8
BORDER
100
AcDbVertex
100
AcDb2dVertex
 10
15.88593923054275
 20
2.444178151741401
 30
0.0
 42
0.208169861593478
  0
VERTEX
  5
6C1B
330
5A2F
100
AcDbEntity
  8
BORDER
100
AcDbVertex
100
AcDb2dVertex
 10
15.90160919418534
 20
2.466465816932976
 30
0.0
 42
0.4189849082168211
  0
VERTEX
  5
6C1C
330
5A2F
100
AcDbEntity
  8
BORDER
100
AcDbVertex
100
AcDb2dVertex
 10
15.87745005096923
 20
2.502453249544586
 30
0.0
 42
0.4189849082168211
  0
SEQEND
  5
6C1D
330
5A2F
100
AcDbEntity
  8
BORDER
  0
LINE
  5
5A30
330
18
100
AcDbEntity
  8
BORDER
100
AcDbLine
 10
14.98148885264618
 20
2.300008536131336
 30
0.0
 11
14.98148885264618
 21
2.517497586131336
 31
0.0
  0
LINE
  5
5A31
330
18
100
AcDbEntity
  8
BORDER
100
AcDbLine
 10
14.92646150264618
 20
2.517497586131336
 30
0.0
 11
14.92646150264618
 21
2.255462586131337
 31
0.0
  0
POLYLINE
  5
5A32
330
18
100
AcDbEntity
  8
BORDER
100
AcDb2dPolyline
 66
     1
 10
0.0
 20
0.0
 30
0.0
  0
VERTEX
  5
6C1E
330
5A32
100
AcDbEntity
  8
BORDER
100
AcDbVertex
100
AcDb2dVertex
 10
15.10997771489618
 20
2.300008536131336
 30
0.0
  0
VERTEX
  5
6C1F
330
5A32
100
AcDbEntity
  8
BORDER
100
AcDbVertex
100
AcDb2dVertex
 10
15.18718632764619
 20
2.517497586131336
 30
0.0
  0
VERTEX
  5
6C20
330
5A32
100
AcDbEntity
  8
BORDER
100
AcDbVertex
100
AcDb2dVertex
 10
15.24614420264618
 20
2.517497586131336
 30
0.0
  0
VERTEX
  5
6C21
330
5A32
100
AcDbEntity
  8
BORDER
100
AcDbVertex
100
AcDb2dVertex
 10
15.33258757683973
 20
2.273995123614297
 30
0.0
  0
SEQEND
  5
6C22
330
5A32
100
AcDbEntity
  8
BORDER
  0
LINE
  5
5A33
330
18
100
AcDbEntity
  8
BORDER
100
AcDbLine
 10
15.33258757683973
 20
2.517497586131336
 30
0.0
 11
15.33258757683973
 21
2.273995123614299
 31
0.0
  0
POLYLINE
  5
5A34
330
18
100
AcDbEntity
  8
BORDER
100
AcDb2dPolyline
 66
     1
 10
0.0
 20
0.0
 30
0.0
  0
VERTEX
  5
6C23
330
5A34
100
AcDbEntity
  8
BORDER
100
AcDbVertex
100
AcDb2dVertex
 10
15.54666591459322
 20
2.334210671736443
 30
0.0
  0
VERTEX
  5
6C24
330
5A34
100
AcDbEntity
  8
BORDER
100
AcDbVertex
100
AcDb2dVertex
 10
15.58868177414534
 20
2.334210671736443
 30
0.0
 42
0.3020440864755188
  0
VERTEX
  5
6C25
330
5A34
100
AcDbEntity
  8
BORDER
100
AcDbVertex
100
AcDb2dVertex
 10
15.61555162392121
 20
2.294624202276565
 30
0.0
 42
0.2653699712401423
  0
VERTEX
  5
6C26
330
5A34
100
AcDbEntity
  8
BORDER
100
AcDbVertex
100
AcDb2dVertex
 10
15.68759371750457
 20
2.304114549770706
 30
0.0
 42
0.6356064402471244
  0
VERTEX
  5
6C27
330
5A34
100
AcDbEntity
  8
BORDER
100
AcDbVertex
100
AcDb2dVertex
 10
15.67596573271429
 20
2.358311684260055
 30
0.0
 42
-0.0009437836138568
  0
VERTEX
  5
6C28
330
5A34
100
AcDbEntity
  8
BORDER
100
AcDbVertex
100
AcDb2dVertex
 10
15.59007221237064
 20
2.37832868810786
 30
0.0
 42
-0.3442454331168749
  0
VERTEX
  5
6C29
330
5A34
100
AcDbEntity
  8
BORDER
100
AcDbVertex
100
AcDb2dVertex
 10
15.53938797198022
 20
2.4414078564764
 30
0.0
 42
-0.322222187521162
  0
VERTEX
  5
6C2A
330
5A34
100
AcDbEntity
  8
BORDER
100
AcDbVertex
100
AcDb2dVertex
 10
15.59136875298689
 20
2.515837983645528
 30
0.0
 42
-0.1417364340760132
  0
VERTEX
  5
6C2B
330
5A34
100
AcDbEntity
  8
BORDER
100
AcDbVertex
100
AcDb2dVertex
 10
15.68022029139325
 20
2.520829930332128
 30
0.0
 42
-0.3337744805077131
  0
VERTEX
  5
6C2C
330
5A34
100
AcDbEntity
  8
BORDER
100
AcDbVertex
100
AcDb2dVertex
 10
15.74397398679628
 20
2.445296615677748
 30
0.0
  0
VERTEX
  5
6C2D
330
5A34
100
AcDbEntity
  8
BORDER
100
AcDbVertex
100
AcDb2dVertex
 10
15.69215980936515
 20
2.445296615677748
 30
0.0
 42
0.3019792396306431
  0
VERTEX
  5
6C2E
330
5A34
100
AcDbEntity
  8
BORDER
100
AcDbVertex
100
AcDb2dVertex
 10
15.66740696524277
 20
2.479695889795471
 30
0.0
 42
0.1972875622237244
  0
VERTEX
  5
6C2F
330
5A34
100
AcDbEntity
  8
BORDER
100
AcDbVertex
100
AcDb2dVertex
 10
15.61245847369059
 20
2.47809853067431
 30
0.0
 42
0.728374493267646
  0
VERTEX
  5
6C30
330
5A34
100
AcDbEntity
  8
BORDER
100
AcDbVertex
100
AcDb2dVertex
 10
15.61870560631762
 20
2.419866265182064
 30
0.0
 42
0.0019568917075044
  0
SEQEND
  5
6C31
330
5A34
100
AcDbEntity
  8
BORDER
  0
SOLID
  5
5A35
330
18
100
AcDbEntity
  8
BORDER
100
AcDbTrace
 10
14.68785378002881
 20
2.471408161981998
 30
0.0
 11
14.64888506626278
 21
2.453014450379919
 31
0.0
 12
14.63565040875734
 22
2.512610075970656
 32
0.0
 13
14.62241575125191
 23
2.475086904302415
 33
0.0
  0
SOLID
  5
5A36
330
18
100
AcDbEntity
  8
BORDER
100
AcDbTrace
 10
14.63565040875734
 20
2.512610075970656
 30
0.0
 11
14.62241575125191
 21
2.475086904302415
 31
0.0
 12
14.58762865452397
 22
2.522814238305249
 32
0.0
 13
14.58652175589624
 23
2.485154618740033
 33
0.0
  0
SOLID
  5
5A37
330
18
100
AcDbEntity
  8
BORDER
100
AcDbTrace
 10
14.51789404097712
 20
2.498446249174815
 30
0.0
 11
14.53781821627622
 21
2.468540080696555
 31
0.0
 12
14.48247328488984
 22
2.458571357870467
 32
0.0
 13
14.52010783823258
 23
2.431988097000902
 33
0.0
  0
POLYLINE
  5
5A38
330
18
100
AcDbEntity
  8
BORDER
100
AcDb2dPolyline
 66
     1
 10
0.0
 20
0.0
 30
0.0
 40
0.0104814
 41
0.0104814
  0
VERTEX
  5
6C32
330
5A38
100
AcDbEntity
  8
BORDER
100
AcDbVertex
100
AcDb2dVertex
 10
14.70090750849396
 20
2.436925369059132
 30
0.0
 42
0.7414713431190223
  0
VERTEX
  5
6C33
330
5A38
100
AcDbEntity
  8
BORDER
100
AcDbVertex
100
AcDb2dVertex
 10
14.47546412469451
 20
2.435594318890266
 30
0.0
 42
0.7414713431190223
  0
SEQEND
  5
6C34
330
5A38
100
AcDbEntity
  8
BORDER
  0
SOLID
  5
5A39
330
18
100
AcDbEntity
  8
BORDER
100
AcDbTrace
 10
14.58762865452397
 20
2.522814238305249
 30
0.0
 11
14.58652175589624
 21
2.485154618740033
 31
0.0
 12
14.51789404097712
 22
2.498446249174815
 32
0.0
 13
14.53781821627622
 23
2.468540080696555
 33
0.0
  0
SOLID
  5
5A3A
330
18
100
AcDbEntity
  8
BORDER
100
AcDbTrace
 10
14.03030180264618
 20
2.517497586131336
 30
0.0
 11
14.25041120264618
 21
2.517497586131336
 31
0.0
 12
14.03030180264618
 22
2.474261811131337
 32
0.0
 13
14.25041120264618
 23
2.474261811131337
 33
0.0
  0
POLYLINE
  5
5A3B
330
18
100
AcDbEntity
  8
BORDER
100
AcDb2dPolyline
 66
     1
 10
0.0
 20
0.0
 30
0.0
 70
     1
 40
0.0104814
 41
0.0104814
  0
VERTEX
  5
6C35
330
5A3B
100
AcDbEntity
  8
BORDER
100
AcDbVertex
100
AcDb2dVertex
 10
14.52402024739717
 20
2.444996620445319
 30
0.0
 42
0.2285268323977459
  0
VERTEX
  5
6C36
330
5A3B
100
AcDbEntity
  8
BORDER
100
AcDbVertex
100
AcDb2dVertex
 10
14.5252443002824
 20
2.326021752009645
 30
0.0
 42
0.6230043105321781
  0
VERTEX
  5
6C37
330
5A3B
100
AcDbEntity
  8
BORDER
100
AcDbVertex
100
AcDb2dVertex
 10
14.65130319986161
 20
2.326419477316846
 30
0.0
 42
0.2290062495557326
  0
VERTEX
  5
6C38
330
5A3B
100
AcDbEntity
  8
BORDER
100
AcDbVertex
100
AcDb2dVertex
 10
14.65166843198482
 20
2.445515668241113
 30
0.0
 42
0.6323121992740218
  0
SEQEND
  5
6C39
330
5A3B
100
AcDbEntity
  8
BORDER
  0
SOLID
  5
5A3C
330
18
100
AcDbEntity
  8
BORDER
100
AcDbTrace
 10
14.25041120264618
 20
2.517497586131336
 30
0.0
 11
14.30281820264618
 21
2.517497586131336
 31
0.0
 12
14.25041120264618
 22
2.255462586131336
 32
0.0
 13
14.30281820264618
 23
2.255462586131336
 33
0.0
  0
SOLID
  5
5A3D
330
18
100
AcDbEntity
  8
BORDER
100
AcDbTrace
 10
14.41156272764618
 20
2.517497586131336
 30
0.0
 11
14.46396972764618
 21
2.517497586131336
 31
0.0
 12
14.41156272764618
 22
2.255462586131336
 32
0.0
 13
14.46396972764618
 23
2.255462586131336
 33
0.0
  0
SOLID
  5
5A3E
330
18
100
AcDbEntity
  8
BORDER
100
AcDbTrace
 10
14.71300909850256
 20
2.255462586131336
 30
0.0
 11
14.71300909850256
 21
2.517497586131336
 31
0.0
 12
14.76653889437084
 22
2.255462586131336
 32
0.0
 13
14.76653889437084
 23
2.511788449336835
 33
0.0
  0
LINE
  5
5A3F
330
18
100
AcDbEntity
  8
BORDER
100
AcDbLine
 10
14.92646150264618
 20
2.255462586131337
 30
0.0
 11
15.11250635264619
 21
2.255462586131337
 31
0.0
  0
LINE
  5
5A40
330
18
100
AcDbEntity
  8
BORDER
100
AcDbLine
 10
15.10997771489618
 20
2.300008536131336
 30
0.0
 11
14.98148885264618
 21
2.300008536131336
 31
0.0
  0
SOLID
  5
5A41
330
18
100
AcDbEntity
  8
BORDER
100
AcDbTrace
 10
14.11415300264619
 20
2.255462586131337
 30
0.0
 11
14.16656000264618
 21
2.255462586131337
 31
0.0
 12
14.11415300264619
 22
2.474261811131337
 32
0.0
 13
14.16656000264618
 23
2.474261811131337
 33
0.0
  0
SOLID
  5
5A42
330
18
100
AcDbEntity
  8
BORDER
100
AcDbTrace
 10
14.41156272764618
 20
2.415303936131336
 30
0.0
 11
14.30281820264618
 21
2.415303936131336
 31
0.0
 12
14.41156272764618
 22
2.370757986131337
 32
0.0
 13
14.30281820264618
 23
2.370757986131337
 33
0.0
  0
POLYLINE
  5
5A43
330
18
100
AcDbEntity
  8
BORDER
100
AcDb2dPolyline
 66
     1
 10
0.0
 20
0.0
 30
0.0
 40
0.0104814
 41
0.0104814
  0
VERTEX
  5
6C3A
330
5A43
100
AcDbEntity
  8
BORDER
100
AcDbVertex
100
AcDb2dVertex
 10
14.70285880008668
 20
2.344482536601264
 30
0.0
 42
0.1406948172011772
  0
VERTEX
  5
6C3B
330
5A43
100
AcDbEntity
  8
BORDER
100
AcDbVertex
100
AcDb2dVertex
 10
14.70090750849396
 20
2.436925369059132
 30
0.0
 42
0.1406948172011772
  0
SEQEND
  5
6C3C
330
5A43
100
AcDbEntity
  8
BORDER
  0
SOLID
  5
5A44
330
18
100
AcDbEntity
  8
BORDER
100
AcDbTrace
 10
14.70991154253787
 20
2.397097567109597
 30
0.0
 11
14.66432550001913
 21
2.401512057894096
 31
0.0
 12
14.68785378002881
 22
2.471408161981998
 32
0.0
 13
14.64888506626278
 23
2.453014450379919
 33
0.0
  0
POLYLINE
  5
5A45
330
18
100
AcDbEntity
  8
BORDER
100
AcDb2dPolyline
 66
     1
 10
0.0
 20
0.0
 30
0.0
 40
0.0104814
 41
0.0104814
  0
VERTEX
  5
6C3D
330
5A45
100
AcDbEntity
  8
BORDER
100
AcDbVertex
100
AcDb2dVertex
 10
14.47546412469451
 20
2.435594318890266
 30
0.0
 42
0.1430540650207981
  0
VERTEX
  5
6C3E
330
5A45
100
AcDbEntity
  8
BORDER
100
AcDbVertex
100
AcDb2dVertex
 10
14.47502729388522
 20
2.342083503530088
 30
0.0
 42
0.1430540650207981
  0
SEQEND
  5
6C3F
330
5A45
100
AcDbEntity
  8
BORDER
  0
SOLID
  5
5A46
330
18
100
AcDbEntity
  8
BORDER
100
AcDbTrace
 10
14.48247328488984
 20
2.458571357870467
 30
0.0
 11
14.52010783823258
 21
2.431988097000902
 31
0.0
 12
14.46727615493814
 22
2.38606134014835
 32
0.0
 13
14.50992116245567
 23
2.382382597827934
 33
0.0
  0
SOLID
  5
5A47
330
18
100
AcDbEntity
  8
BORDER
100
AcDbTrace
 10
14.588593848738
 20
2.254362365077462
 30
0.0
 11
14.588593848738
 21
2.287471045961204
 31
0.0
 12
14.65697291251611
 22
2.277906315928123
 32
0.0
 13
14.63859144375855
 23
2.302921763706951
 33
0.0
  0
SOLID
  5
5A48
330
18
100
AcDbEntity
  8
BORDER
100
AcDbTrace
 10
14.486392882446
 20
2.311014996811866
 30
0.0
 11
14.52389107871141
 21
2.324994217629446
 31
0.0
 12
14.54153728871866
 22
2.263191346646459
 32
0.0
 13
14.56065401622652
 23
2.290414039817536
 33
0.0
  0
SOLID
  5
5A49
330
18
100
AcDbEntity
  8
BORDER
100
AcDbTrace
 10
14.54153728871866
 20
2.263191346646459
 30
0.0
 11
14.56065401622652
 21
2.290414039817536
 31
0.0
 12
14.588593848738
 22
2.254362365077462
 32
0.0
 13
14.588593848738
 23
2.287471045961204
 33
0.0
  0
POLYLINE
  5
5A4A
330
18
100
AcDbEntity
  8
BORDER
100
AcDb2dPolyline
 66
     1
 10
0.0
 20
0.0
 30
0.0
 40
0.0104814
 41
0.0104814
  0
VERTEX
  5
6C40
330
5A4A
100
AcDbEntity
  8
BORDER
100
AcDbVertex
100
AcDb2dVertex
 10
14.47502729388522
 20
2.342083503530088
 30
0.0
 42
0.7616390336395551
  0
VERTEX
  5
6C41
330
5A4A
100
AcDbEntity
  8
BORDER
100
AcDbVertex
100
AcDb2dVertex
 10
14.70285880008668
 20
2.344482536601264
 30
0.0
 42
0.7616390336395551
  0
SEQEND
  5
6C42
330
5A4A
100
AcDbEntity
  8
BORDER
  0
SOLID
  5
5A4B
330
18
100
AcDbEntity
  8
BORDER
100
AcDbTrace
 10
14.46727615493814
 20
2.38606134014835
 30
0.0
 11
14.50992116245567
 21
2.382382597827934
 31
0.0
 12
14.486392882446
 22
2.311014996811866
 32
0.0
 13
14.52389107871141
 23
2.324994217629446
 33
0.0
  0
SOLID
  5
5A4C
330
18
100
AcDbEntity
  8
BORDER
100
AcDbTrace
 10
14.65697291251611
 20
2.277906315928123
 30
0.0
 11
14.63859144375855
 21
2.302921763706951
 31
0.0
 12
14.69373585003122
 22
2.319108229916781
 32
0.0
 13
14.66285498251853
 23
2.351481162336441
 33
0.0
  0
SOLID
  5
5A4D
330
18
100
AcDbEntity
  8
BORDER
100
AcDbTrace
 10
14.69373585003122
 20
2.319108229916781
 30
0.0
 11
14.66285498251853
 21
2.351481162336441
 31
0.0
 12
14.70991154253787
 22
2.397097567109597
 32
0.0
 13
14.66432550001913
 23
2.401512057894096
 33
0.0
  0
SOLID
  5
5A4E
330
18
100
AcDbEntity
  8
BORDER
100
AcDbTrace
 10
14.87932225026575
 20
2.439729495642663
 30
0.0
 11
14.92001092702407
 21
2.426700446952215
 31
0.0
 12
14.87389709336464
 22
2.461444576793407
 32
0.0
 13
14.91458577012296
 23
2.482616780915384
 33
0.0
  0
SOLID
  5
5A4F
330
18
100
AcDbEntity
  8
BORDER
100
AcDbTrace
 10
14.76653889437084
 20
2.399686278919876
 30
0.0
 11
14.76653889437084
 21
2.36018581116814
 31
0.0
 12
14.83350507409793
 22
2.399686278919876
 32
0.0
 13
14.81757654080889
 23
2.36018581116814
 33
0.0
  0
SOLID
  5
5A50
330
18
100
AcDbEntity
  8
BORDER
100
AcDbTrace
 10
14.84044033948886
 20
2.362151702374647
 30
0.0
 11
14.86614691446446
 21
2.380355417375364
 31
0.0
 12
14.81757654080889
 22
2.36018581116814
 32
0.0
 13
14.83350507409793
 23
2.399686278919876
 33
0.0
  0
SOLID
  5
5A51
330
18
100
AcDbEntity
  8
BORDER
100
AcDbTrace
 10
14.85465917894023
 20
2.348000403239088
 30
0.0
 11
14.88300006167914
 21
2.367852234524531
 31
0.0
 12
14.84044033948886
 22
2.362151702374647
 32
0.0
 13
14.86614691446446
 23
2.380355417375364
 33
0.0
  0
SOLID
  5
5A52
330
18
100
AcDbEntity
  8
BORDER
100
AcDbTrace
 10
14.86105881997068
 20
2.398760312599209
 30
0.0
 11
14.8810844778046
 21
2.389424156424391
 31
0.0
 12
14.87932225026575
 22
2.439729495642663
 32
0.0
 13
14.92001092702407
 23
2.426700446952215
 33
0.0
  0
SOLID
  5
5A53
330
18
100
AcDbEntity
  8
BORDER
100
AcDbTrace
 10
14.86105881997068
 20
2.398760312599209
 30
0.0
 11
14.8810844778046
 21
2.389424156424391
 31
0.0
 12
14.83350507409793
 22
2.399686278919876
 32
0.0
 13
14.86614691446446
 23
2.380355417375364
 33
0.0
  0
POLYLINE
  5
5A54
330
18
100
AcDbEntity
  8
BORDER
100
AcDb2dPolyline
 66
     1
 10
0.0
 20
0.0
 30
0.0
 40
0.0104814
 41
0.0104814
  0
VERTEX
  5
6C43
330
5A54
100
AcDbEntity
  8
BORDER
100
AcDbVertex
100
AcDb2dVertex
 10
14.91597124086369
 20
2.272311824583561
 30
0.0
 42
0.0950669764493849
  0
VERTEX
  5
6C44
330
5A54
100
AcDbEntity
  8
BORDER
100
AcDbVertex
100
AcDb2dVertex
 10
14.92015690490229
 20
2.258170794898105
 30
0.0
 42
0.1404915454274296
  0
SEQEND
  5
6C45
330
5A54
100
AcDbEntity
  8
BORDER
  0
SOLID
  5
5A55
330
18
100
AcDbEntity
  8
BORDER
100
AcDbTrace
 10
14.87404461873062
 20
2.255462586131336
 30
0.0
 11
14.92806883275265
 21
2.255462586131336
 31
0.0
 12
14.87156956928777
 22
2.26274883580767
 32
0.0
 13
14.92017509034986
 23
2.267857647445038
 33
0.0
  0
POLYLINE
  5
5A56
330
18
100
AcDbEntity
  8
BORDER
100
AcDb2dPolyline
 66
     1
 10
0.0
 20
0.0
 30
0.0
 40
0.0104814
 41
0.0104814
  0
VERTEX
  5
6C46
330
5A56
100
AcDbEntity
  8
BORDER
100
AcDbVertex
100
AcDb2dVertex
 10
14.87491980210343
 20
2.269287899109138
 30
0.0
 42
0.1148360225250129
  0
VERTEX
  5
6C47
330
5A56
100
AcDbEntity
  8
BORDER
100
AcDbVertex
100
AcDb2dVertex
 10
14.87853203930082
 20
2.258169612750358
 30
0.0
 42
0.1148360225250129
  0
SEQEND
  5
6C48
330
5A56
100
AcDbEntity
  8
BORDER
  0
SOLID
  5
5A57
330
18
100
AcDbEntity
  8
BORDER
100
AcDbTrace
 10
14.86565356538485
 20
2.316051533604086
 30
0.0
 11
14.86969822948603
 21
2.268840555962012
 31
0.0
 12
14.91544284242362
 22
2.331120750135454
 32
0.0
 13
14.92118668553889
 23
2.272825705240911
 33
0.0
  0
SOLID
  5
5A58
330
18
100
AcDbEntity
  8
BORDER
100
AcDbTrace
 10
14.87156956928777
 20
2.26274883580767
 30
0.0
 11
14.92017509034986
 21
2.267857647445038
 31
0.0
 12
14.86969822948603
 22
2.268840555962012
 32
0.0
 13
14.92118668553889
 23
2.272825705240911
 33
0.0
  0
POLYLINE
  5
5A59
330
18
100
AcDbEntity
  8
BORDER
100
AcDb2dPolyline
 66
     1
 10
0.0
 20
0.0
 30
0.0
 40
0.0104814
 41
0.0104814
  0
VERTEX
  5
6C49
330
5A59
100
AcDbEntity
  8
BORDER
100
AcDbVertex
100
AcDb2dVertex
 10
14.91022739774843
 20
2.330606869478105
 30
0.0
 42
0.3581345567762107
  0
VERTEX
  5
6C4A
330
5A59
100
AcDbEntity
  8
BORDER
100
AcDbVertex
100
AcDb2dVertex
 10
14.86563951953554
 20
2.375139337729105
 30
0.0
 42
0.3581345567762107
  0
SEQEND
  5
6C4B
330
5A59
100
AcDbEntity
  8
BORDER
  0
POLYLINE
  5
5A5A
330
18
100
AcDbEntity
  8
BORDER
100
AcDb2dPolyline
 66
     1
 10
0.0
 20
0.0
 30
0.0
 40
0.0104814
 41
0.0104814
  0
VERTEX
  5
6C4C
330
5A5A
100
AcDbEntity
  8
BORDER
100
AcDbVertex
100
AcDb2dVertex
 10
14.87087513800224
 20
2.316498876751212
 30
0.0
 42
0.3893977487990803
  0
VERTEX
  5
6C4D
330
5A5A
100
AcDbEntity
  8
BORDER
100
AcDbVertex
100
AcDb2dVertex
 10
14.81757654080889
 20
2.36542651116814
 30
0.0
 42
0.3893977487990803
  0
SEQEND
  5
6C4E
330
5A5A
100
AcDbEntity
  8
BORDER
  0
SOLID
  5
5A5B
330
18
100
AcDbEntity
  8
BORDER
100
AcDbTrace
 10
14.86565356538485
 20
2.316051533604086
 30
0.0
 11
14.91544284242362
 21
2.331120750135454
 31
0.0
 12
14.86670405410427
 22
2.331693541826044
 32
0.0
 13
14.90921537821265
 23
2.346582415290127
 33
0.0
  0
SOLID
  5
5A5C
330
18
100
AcDbEntity
  8
BORDER
100
AcDbTrace
 10
14.86670405410427
 20
2.331693541826044
 30
0.0
 11
14.90921537821265
 21
2.346582415290127
 31
0.0
 12
14.85465917894023
 22
2.348000403239088
 32
0.0
 13
14.88300006167914
 23
2.367852234524531
 33
0.0
  0
POLYLINE
  5
5A5D
330
18
100
AcDbEntity
  8
BORDER
100
AcDb2dPolyline
 66
     1
 10
0.0
 20
0.0
 30
0.0
  0
VERTEX
  5
6C4F
330
5A5D
100
AcDbEntity
  8
BORDER
100
AcDbVertex
100
AcDb2dVertex
 10
15.61870560631762
 20
2.419866265182064
 30
0.0
 42
0.0019568917075044
  0
VERTEX
  5
6C50
330
5A5D
100
AcDbEntity
  8
BORDER
100
AcDbVertex
100
AcDb2dVertex
 10
15.69374351293166
 20
2.404578858603103
 30
0.0
 42
-0.2136964031287707
  0
VERTEX
  5
6C51
330
5A5D
100
AcDbEntity
  8
BORDER
100
AcDbVertex
100
AcDb2dVertex
 10
15.74477850139025
 20
2.368908269974074
 30
0.0
 42
-0.2075585583027768
  0
VERTEX
  5
6C52
330
5A5D
100
AcDbEntity
  8
BORDER
100
AcDbVertex
100
AcDb2dVertex
 10
15.75183595513862
 20
2.315099842159789
 30
0.0
 42
-0.2311984101377718
  0
VERTEX
  5
6C53
330
5A5D
100
AcDbEntity
  8
BORDER
100
AcDbVertex
100
AcDb2dVertex
 10
15.70219527232426
 20
2.259997681822924
 30
0.0
 42
-0.176335766587305
  0
VERTEX
  5
6C54
330
5A5D
100
AcDbEntity
  8
BORDER
100
AcDbVertex
100
AcDb2dVertex
 10
15.59857960989478
 20
2.256473672392217
 30
0.0
 42
-0.2115906095274752
  0
VERTEX
  5
6C55
330
5A5D
100
AcDbEntity
  8
BORDER
100
AcDbVertex
100
AcDb2dVertex
 10
15.54348309252508
 20
2.305990850964811
 30
0.0
  0
SEQEND
  5
6C56
330
5A5D
100
AcDbEntity
  8
BORDER
  0
POLYLINE
  5
5A5E
330
18
100
AcDbEntity
  8
BORDER
100
AcDb2dPolyline
 66
     1
 10
0.0
 20
0.0
 30
0.0
  0
VERTEX
  5
6C57
330
5A5E
100
AcDbEntity
  8
BORDER
100
AcDbVertex
100
AcDb2dVertex
 10
15.33916662764618
 20
2.255462586131336
 30
0.0
  0
VERTEX
  5
6C58
330
5A5E
100
AcDbEntity
  8
BORDER
100
AcDbVertex
100
AcDb2dVertex
 10
15.28413927764619
 20
2.255462586131336
 30
0.0
  0
VERTEX
  5
6C59
330
5A5E
100
AcDbEntity
  8
BORDER
100
AcDbVertex
100
AcDb2dVertex
 10
15.26678376285634
 20
2.311800111131336
 30
0.0
  0
SEQEND
  5
6C5A
330
5A5E
100
AcDbEntity
  8
BORDER
  0
LINE
  5
5A5F
330
18
100
AcDbEntity
  8
BORDER
100
AcDbLine
 10
15.25467526416575
 20
2.351105361131335
 30
0.0
 11
15.21666526514619
 21
2.474489155616477
 31
0.0
  0
LINE
  5
5A60
330
18
100
AcDbEntity
  8
BORDER
100
AcDbLine
 10
15.17865526612663
 20
2.351105361131335
 30
0.0
 11
15.25467526416575
 21
2.351105361131335
 31
0.0
  0
LINE
  5
5A61
330
18
100
AcDbEntity
  8
BORDER
100
AcDbLine
 10
15.21666526514619
 20
2.474489155616477
 30
0.0
 11
15.17865526612663
 21
2.351105361131335
 31
0.0
  0
POLYLINE
  5
5A62
330
18
100
AcDbEntity
  8
BORDER
100
AcDb2dPolyline
 66
     1
 10
0.0
 20
0.0
 30
0.0
  0
VERTEX
  5
6C5B
330
5A62
100
AcDbEntity
  8
BORDER
100
AcDbVertex
100
AcDb2dVertex
 10
15.26678376285634
 20
2.311800111131336
 30
0.0
  0
VERTEX
  5
6C5C
330
5A62
100
AcDbEntity
  8
BORDER
100
AcDbVertex
100
AcDb2dVertex
 10
15.16654676743603
 20
2.311800111131336
 30
0.0
  0
VERTEX
  5
6C5D
330
5A62
100
AcDbEntity
  8
BORDER
100
AcDbVertex
100
AcDb2dVertex
 10
15.14919125264619
 20
2.255462586131336
 30
0.0
  0
VERTEX
  5
6C5E
330
5A62
100
AcDbEntity
  8
BORDER
100
AcDbVertex
100
AcDb2dVertex
 10
15.09416390264618
 20
2.255462586131336
 30
0.0
  0
SEQEND
  5
6C5F
330
5A62
100
AcDbEntity
  8
BORDER
  0
ARC
  5
5A63
330
18
100
AcDbEntity
  8
BORDER
100
AcDbCircle
 10
15.45983494093842
 20
2.309403825740498
 30
0.0
 40
0.0940653841802545
100
AcDbArc
 50
41.8214311105379
 51
67.21116987831337
  0
ARC
  5
5A64
330
18
100
AcDbEntity
  8
BORDER
100
AcDbCircle
 10
15.45050332683973
 20
2.492604261131342
 30
0.0
 40
0.1067827813404871
100
AcDbArc
 50
295.3783953421117
 51
313.157562911559
  0
ARC
  5
5A65
330
18
100
AcDbEntity
  8
BORDER
100
AcDbCircle
 10
15.48933036743682
 20
2.451196244748515
 30
0.0
 40
0.050018682631104
100
AcDbArc
 50
313.1575629115595
 51
358.653260821401
  0
ARC
  5
5A66
330
18
100
AcDbEntity
  8
BORDER
100
AcDbCircle
 10
15.47999330792207
 20
2.327441058348393
 30
0.0
 40
0.0670154023022719
100
AcDbArc
 50
5.797666812800194
 51
41.82143111053831
  0
LINE
  5
5A67
330
18
100
AcDbEntity
  8
BORDER
100
AcDbLine
 10
15.38499457683974
 20
2.478192336131336
 30
0.0
 11
15.38499457683974
 21
2.412683586131335
 31
0.0
  0
LINE
  5
5A68
330
18
100
AcDbEntity
  8
BORDER
100
AcDbLine
 10
15.45463958881493
 20
2.372068161131337
 30
0.0
 11
15.38499457683974
 21
2.372068161131337
 31
0.0
  0
ARC
  5
5A69
330
18
100
AcDbEntity
  8
BORDER
100
AcDbCircle
 10
15.45125395215111
 20
2.445437961131336
 30
0.0
 40
0.032754375
100
AcDbArc
 50
270.0
 51
90.00000482967505
  0
LINE
  5
5A6A
330
18
100
AcDbEntity
  8
BORDER
100
AcDbLine
 10
15.38499457683974
 20
2.412683586131335
 30
0.0
 11
15.45125395215111
 21
2.412683586131335
 31
0.0
  0
LINE
  5
5A6B
330
18
100
AcDbEntity
  8
BORDER
100
AcDbLine
 10
15.45125394939012
 20
2.478192336131336
 30
0.0
 11
15.38499457683974
 21
2.478192336131336
 31
0.0
  0
ARC
  5
5A6C
330
18
100
AcDbEntity
  8
BORDER
100
AcDbCircle
 10
15.44788297683973
 20
2.342599732319962
 30
0.0
 40
0.0465217211886261
100
AcDbArc
 50
270.0
 51
313.2275081247473
  0
ARC
  5
5A6D
330
18
100
AcDbEntity
  8
BORDER
100
AcDbCircle
 10
15.45967455183974
 20
2.366551910343223
 30
0.0
 40
0.1110893242118861
100
AcDbArc
 50
269.9999999999952
 51
297.4526478761186
  0
ARC
  5
5A6E
330
18
100
AcDbEntity
  8
BORDER
100
AcDbCircle
 10
15.47999330792207
 20
2.327441058348393
 30
0.0
 40
0.0670154023022719
100
AcDbArc
 50
297.4526478761237
 51
341.3323115150402
  0
LINE
  5
5A6F
330
18
100
AcDbEntity
  8
BORDER
100
AcDbLine
 10
15.38499457683974
 20
2.296078011131337
 30
0.0
 11
15.44788297683973
 21
2.296078011131337
 31
0.0
  0
LINE
  5
5A70
330
18
100
AcDbEntity
  8
BORDER
100
AcDbLine
 10
15.33258757683973
 20
2.255462586131337
 30
0.0
 11
15.45967455183973
 21
2.255462586131337
 31
0.0
  0
ARC
  5
5A71
330
18
100
AcDbEntity
  8
BORDER
100
AcDbCircle
 10
15.45463958881493
 20
2.335411590285651
 30
0.0
 40
0.0366565708456863
100
AcDbArc
 50
313.2275081247476
 51
90.0
  0
LINE
  5
5A72
330
18
100
AcDbEntity
  8
BORDER
100
AcDbLine
 10
15.38499457683974
 20
2.372068161131337
 30
0.0
 11
15.38499457683974
 21
2.296078011131337
 31
0.0
  0
SOLID
  5
5A73
330
18
100
AcDbEntity
  8
BORDER
100
AcDbTrace
 10
15.79353454971941
 20
2.401034400922116
 30
0.0
 11
15.91679581371941
 21
2.401034400922116
 31
0.0
 12
15.79353454971941
 22
2.375149535482116
 32
0.0
 13
15.91679581371941
 23
2.375149535482116
 33
0.0
  0
POLYLINE
  5
5A74
330
18
100
AcDbEntity
  8
BORDER
100
AcDb2dPolyline
 66
     1
 10
0.0
 20
0.0
 30
0.0
 40
0.00493045056
 41
0.00493045056
  0
VERTEX
  5
6C60
330
5A74
100
AcDbEntity
  8
BORDER
100
AcDbVertex
100
AcDb2dVertex
 10
15.82837010359392
 20
2.420374273631635
 30
0.0
 42
0.2706611322925477
  0
VERTEX
  5
6C61
330
5A74
100
AcDbEntity
  8
BORDER
100
AcDbVertex
100
AcDb2dVertex
 10
15.89837348150257
 20
2.431283286226639
 30
0.0
 42
0.2706611322925477
  0
SEQEND
  5
6C62
330
5A74
100
AcDbEntity
  8
BORDER
  0
SOLID
  5
5A75
330
18
100
AcDbEntity
  8
BORDER
100
AcDbTrace
 10
15.85883331064154
 20
2.435671598797031
 30
0.0
 11
15.86018872233142
 21
2.414676701103957
 31
0.0
 12
15.89161641999545
 22
2.446098045127957
 32
0.0
 13
15.90085107302768
 23
2.430883480436575
 33
0.0
  0
SOLID
  5
5A76
330
18
100
AcDbEntity
  8
BORDER
100
AcDbTrace
 10
15.79353455745089
 20
2.248806741057628
 30
0.0
 11
15.79353455745089
 21
2.274691606497628
 31
0.0
 12
15.91679582145089
 22
2.248806741057628
 32
0.0
 13
15.91679582145089
 23
2.274691606497628
 33
0.0
  0
SOLID
  5
5A77
330
18
100
AcDbEntity
  8
BORDER
100
AcDbTrace
 10
15.91679581371941
 20
2.296262326522116
 30
0.0
 11
15.79353454971941
 21
2.296262326522116
 31
0.0
 12
15.91679581371941
 22
2.322147191962116
 32
0.0
 13
15.79353454971941
 23
2.322147191962116
 33
0.0
  0
SOLID
  5
5A78
330
18
100
AcDbEntity
  8
BORDER
100
AcDbTrace
 10
15.79353454971941
 20
2.322763498282116
 30
0.0
 11
15.91679312807597
 21
2.400370751321433
 31
0.0
 12
15.79354373506936
 22
2.298062498281336
 32
0.0
 13
15.91679581371941
 23
2.374533229162116
 33
0.0
  0
SOLID
  5
5A79
330
18
100
AcDbEntity
  8
BORDER
100
AcDbTrace
 10
15.81003848980603
 20
2.456440744902008
 30
0.0
 11
15.7951289612174
 21
2.450345452023373
 31
0.0
 12
15.83353229243054
 22
2.43770336308991
 32
0.0
 13
15.82088178332503
 23
2.422578006687372
 33
0.0
  0
SOLID
  5
5A7A
330
18
100
AcDbEntity
  8
BORDER
100
AcDbTrace
 10
15.83353229243054
 20
2.43770336308991
 30
0.0
 11
15.82088178332503
 21
2.422578006687372
 31
0.0
 12
15.85883331064154
 22
2.435671598797031
 32
0.0
 13
15.86018872233142
 23
2.414676701103957
 33
0.0
  0
POLYLINE
  5
5A7B
330
18
100
AcDbEntity
  8
BORDER
100
AcDb2dPolyline
 66
     1
 10
0.0
 20
0.0
 30
0.0
 40
0.00493045056
 41
0.00493045056
  0
VERTEX
  5
6C63
330
5A7B
100
AcDbEntity
  8
BORDER
100
AcDbVertex
100
AcDb2dVertex
 10
15.89837348150257
 20
2.431283286226639
 30
0.0
 42
0.1790006504245718
  0
VERTEX
  5
6C64
330
5A7B
100
AcDbEntity
  8
BORDER
100
AcDbVertex
100
AcDb2dVertex
 10
15.91654691965104
 20
2.462067105502534
 30
0.0
 42
0.1790006504245718
  0
SEQEND
  5
6C65
330
5A7B
100
AcDbEntity
  8
BORDER
  0
SOLID
  5
5A7C
330
18
100
AcDbEntity
  8
BORDER
100
AcDbTrace
 10
15.89161641999545
 20
2.446098045127957
 30
0.0
 11
15.90085107302768
 21
2.430883480436575
 31
0.0
 12
15.90234858433021
 22
2.470291697178187
 32
0.0
 13
15.91832203822379
 23
2.462310286192544
 33
0.0
  0
POLYLINE
  5
5A7D
330
18
100
AcDbEntity
  8
BORDER
100
AcDb2dPolyline
 66
     1
 10
0.0
 20
0.0
 30
0.0
 40
0.0104814
 41
0.0104814
  0
VERTEX
  5
6C66
330
5A7D
100
AcDbEntity
  8
BORDER
100
AcDbVertex
100
AcDb2dVertex
 10
14.85764617023569
 20
2.512256886131337
 30
0.0
  0
VERTEX
  5
6C67
330
5A7D
100
AcDbEntity
  8
BORDER
100
AcDbVertex
100
AcDb2dVertex
 10
14.71300909850256
 20
2.512256886131337
 30
0.0
  0
SEQEND
  5
6C68
330
5A7D
100
AcDbEntity
  8
BORDER
  0
LINE
  5
5A7E
330
18
100
AcDbEntity
  8
BORDER
100
AcDbLine
 10
14.98148885264618
 20
2.517497586131336
 30
0.0
 11
14.92646150264618
 21
2.517497586131336
 31
0.0
  0
ARC
  5
5A7F
330
18
100
AcDbEntity
  8
BORDER
100
AcDbCircle
 10
15.45501087082988
 20
2.409742329861524
 30
0.0
 40
0.1077552562698128
100
AcDbArc
 50
58.67020583628413
 51
90.00000000000101
  0
LINE
  5
5A80
330
18
100
AcDbEntity
  8
BORDER
100
AcDbLine
 10
15.45501087082988
 20
2.517497586131336
 30
0.0
 11
15.33258757683973
 21
2.517497586131336
 31
0.0
  0
SOLID
  5
5A81
330
18
100
AcDbEntity
  8
BORDER
100
AcDbTrace
 10
15.89585936868593
 20
2.491741739202103
 30
0.0
 11
15.91108406692825
 21
2.501967922027458
 31
0.0
 12
15.8803806759669
 22
2.500859243207885
 32
0.0
 13
15.88300191480824
 23
2.523495035158064
 33
0.0
  0
POLYLINE
  5
5A82
330
18
100
AcDbEntity
  8
BORDER
100
AcDb2dPolyline
 66
     1
 10
0.0
 20
0.0
 30
0.0
 40
0.00493045056
 41
0.00493045056
  0
VERTEX
  5
6C69
330
5A82
100
AcDbEntity
  8
BORDER
100
AcDbVertex
100
AcDb2dVertex
 10
15.91225178861954
 20
2.496806460126451
 30
0.0
 42
0.2619660936757589
  0
VERTEX
  5
6C6A
330
5A82
100
AcDbEntity
  8
BORDER
100
AcDbVertex
100
AcDb2dVertex
 10
15.8773345572074
 20
2.522442069484772
 30
0.0
 42
0.2656465770789468
  0
SEQEND
  5
6C6B
330
5A82
100
AcDbEntity
  8
BORDER
  0
SOLID
  5
5A83
330
18
100
AcDbEntity
  8
BORDER
100
AcDbTrace
 10
15.8803806759669
 20
2.500859243207885
 30
0.0
 11
15.88300191480824
 21
2.523495035158064
 31
0.0
 12
15.8769940412474
 22
2.500030566978762
 32
0.0
 13
15.8769940412474
 23
2.524962330760263
 33
0.0
  0
POLYLINE
  5
5A84
330
18
100
AcDbEntity
  8
BORDER
100
AcDb2dPolyline
 66
     1
 10
0.0
 20
0.0
 30
0.0
 40
0.00493045056
 41
0.00493045056
  0
VERTEX
  5
6C6C
330
5A84
100
AcDbEntity
  8
BORDER
100
AcDbVertex
100
AcDb2dVertex
 10
15.83104605364547
 20
2.520459868369472
 30
0.0
 42
0.2841209316902218
  0
VERTEX
  5
6C6D
330
5A84
100
AcDbEntity
  8
BORDER
100
AcDbVertex
100
AcDb2dVertex
 10
15.79543783155204
 20
2.490673265252777
 30
0.0
 42
0.2888447634665965
  0
SEQEND
  5
6C6E
330
5A84
100
AcDbEntity
  8
BORDER
  0
SOLID
  5
5A85
330
18
100
AcDbEntity
  8
BORDER
100
AcDbTrace
 10
15.82291490085985
 20
2.499107795052449
 30
0.0
 11
15.81049029370266
 21
2.512652890338303
 31
0.0
 12
15.82811793283066
 22
2.500440457653153
 32
0.0
 13
15.8265147577136
 23
2.52177762388302
 33
0.0
  0
SOLID
  5
5A86
330
18
100
AcDbEntity
  8
BORDER
100
AcDbTrace
 10
15.82811793283066
 20
2.500440457653153
 30
0.0
 11
15.8265147577136
 21
2.52177762388302
 31
0.0
 12
15.83150143558184
 22
2.498894752717687
 32
0.0
 13
15.83150143558184
 23
2.523008868646434
 33
0.0
  0
INSERT
  5
5F16
330
18
100
AcDbEntity
  8
D1
100
AcDbBlockReference
  2
ESD-INFO
 10
8.70310315048712
 20
1.36410502937693
 30
0.0
 41
0.75
 42
0.75
 43
0.75
  0
LINE
  5
5FB1
330
18
100
AcDbEntity
  8
D1
100
AcDbLine
 39
0.27
 10
3.344898358468098
 20
7.070254654303912
 30
0.0
 11
6.384039863835162
 21
7.070254654303912
 31
0.0
  0
LINE
  5
5FB2
330
18
100
AcDbEntity
  8
D1
100
AcDbLine
 39
0.27
 10
6.169076196382368
 20
7.11472989584587
 30
0.0
 11
3.559862025920891
 21
7.11472989584587
 31
0.0
  0
TEXT
  5
5FD6
330
18
100
AcDbEntity
  8
D1
100
AcDbText
 10
3.539364101565213
 20
6.889423380005759
 30
0.0
 40
0.09
  1
SMA COAX CABLE SOLD SEPARATELY
100
AcDbText
  0
TEXT
  5
5FD8
330
18
100
AcDbEntity
  8
D1
100
AcDbText
 10
3.874469111151629
 20
7.179617401830594
 30
0.0
 40
0.12
  1
SM05PD7B ASSEMBLY
 72
     1
 11
4.864469111151629
 21
7.239617401830593
 31
0.0
100
AcDbText
 73
     2
  0
TEXT
  5
6008
330
18
100
AcDbEntity
  8
D1
100
AcDbText
 10
3.322873919043802
 20
9.890116072880584
 30
0.0
 40
0.1
  1
SMA CONNECTOR
 72
     2
 11
4.589540585710468
 21
9.940116072880584
 31
0.0
100
AcDbText
 73
     2
  0
LINE
  5
6184
330
18
100
AcDbEntity
  8
D1
100
AcDbLine
 39
0.27
 10
6.16907619638237
 20
2.811725309067754
 30
0.0
 11
3.559862025920892
 21
2.811725309067754
 31
0.0
  0
LINE
  5
6185
330
18
100
AcDbEntity
  8
D1
100
AcDbLine
 39
0.27
 10
3.344898358468099
 20
2.767250067525797
 30
0.0
 11
6.384039863835162
 21
2.767250067525797
 31
0.0
  0
TEXT
  5
6186
330
18
100
AcDbEntity
  8
D1
100
AcDbText
 10
3.924469111151631
 20
2.870342346028563
 30
0.0
 40
0.12
  1
X-X SECTION VIEW
 72
     1
 11
4.864469111151631
 21
2.930342346028563
 31
0.0
100
AcDbText
 73
     2
  0
MTEXT
  5
61C8
330
18
100
AcDbEntity
  8
D1
100
AcDbMText
 10
15.36985522531995
 20
1.463693961496995
 30
0.0
 40
0.0864
 41
0.14
 71
     1
 72
     1
  1
HS
1001
ACAD
1000
MTEXTBEGIN
1070
    73
1070
     1
1070
    44
1040
1.0
1070
    74
1070
     0
1000
MTEXTEND
  0
MTEXT
  5
61D8
330
18
100
AcDbEntity
  8
D1
100
AcDbMText
 10
16.3127109568219
 20
1.459566793415478
 30
0.0
 40
0.0864
 41
0.14
 71
     1
 72
     1
  1
TC
1001
ACAD
1000
MTEXTBEGIN
1070
    73
1070
     1
1070
    44
1040
1.0
1070
    74
1070
     0
1000
MTEXTEND
  0
LINE
  5
6517
330
18
100
AcDbEntity
  8
D1
  6
CONTINUOUS
100
AcDbLine
 10
6.544250324507421
 20
9.674785986990672
 30
0.0
 11
6.544250324507421
 21
10.17478598699067
 31
0.0
  0
LINE
  5
6518
330
18
100
AcDbEntity
  8
D1
  6
CONTINUOUS
100
AcDbLine
 10
7.634250324507421
 20
9.674785986990672
 30
0.0
 11
7.634250324507421
 21
10.17478598699067
 31
0.0
  0
LINE
  5
6519
330
18
100
AcDbEntity
  8
D1
  6
CONTINUOUS
100
AcDbLine
 10
6.364250324507422
 20
10.13478598699067
 30
0.0
 11
6.184250324507421
 21
10.13478598699067
 31
0.0
  0
LINE
  5
651A
330
18
100
AcDbEntity
  8
D1
  6
CONTINUOUS
100
AcDbLine
 10
7.814250324507421
 20
10.13478598699067
 30
0.0
 11
7.994250324507421
 21
10.13478598699067
 31
0.0
  0
SOLID
  5
651B
330
18
100
AcDbEntity
  8
D1
  6
CONTINUOUS
100
AcDbTrace
 10
6.364250324507422
 20
10.16478598699067
 30
0.0
 11
6.364250324507422
 21
10.10478598699067
 31
0.0
 12
6.544250324507421
 22
10.13478598699067
 32
0.0
 13
6.544250324507421
 23
10.13478598699067
 33
0.0
  0
SOLID
  5
651C
330
18
100
AcDbEntity
  8
D1
  6
CONTINUOUS
100
AcDbTrace
 10
7.814250324507421
 20
10.16478598699067
 30
0.0
 11
7.814250324507421
 21
10.10478598699067
 31
0.0
 12
7.634250324507421
 22
10.13478598699067
 32
0.0
 13
7.634250324507421
 23
10.13478598699067
 33
0.0
  0
MTEXT
  5
651D
330
18
100
AcDbEntity
  8
D1
  6
CONTINUOUS
100
AcDbMText
 10
7.089250324507421
 20
10.13478598699067
 30
0.0
 40
0.1
 41
0.0
 71
     5
 72
     1
  1
0.55"\P(14mm)
1001
ACAD
1000
MTEXTBEGIN
1070
    73
1070
     1
1070
    44
1040
1.0
1070
    74
1070
     0
1000
MTEXTEND
  0
LINE
  5
65EA
330
18
100
AcDbEntity
  8
S4
100
AcDbLine
 10
6.544250324507421
 20
8.564785986990672
 30
0.0
 11
7.634250324507421
 21
8.564785986990672
 31
0.0
  0
LINE
  5
65EB
330
18
100
AcDbEntity
  8
S4
100
AcDbLine
 10
7.634250324507421
 20
9.634785986990673
 30
0.0
 11
6.544250324507421
 21
9.634785986990673
 31
0.0
  0
LINE
  5
65EC
330
18
100
AcDbEntity
  8
S4
100
AcDbLine
 10
6.884250324507424
 20
9.607785986990672
 30
0.0
 11
6.884250324507424
 21
8.591785986990673
 31
0.0
  0
LINE
  5
65ED
330
18
100
AcDbEntity
  8
S4
100
AcDbLine
 10
6.984250324507424
 20
8.591785986990673
 30
0.0
 11
6.984250324507423
 21
9.607785986990672
 31
0.0
  0
LINE
  5
65EE
330
18
100
AcDbEntity
  8
S4
100
AcDbLine
 10
7.084250324507424
 20
9.607785986990672
 30
0.0
 11
7.084250324507424
 21
8.591785986990673
 31
0.0
  0
LINE
  5
65EF
330
18
100
AcDbEntity
  8
S4
100
AcDbLine
 10
7.184250324507423
 20
8.591785986990673
 30
0.0
 11
7.184250324507424
 21
9.607785986990672
 31
0.0
  0
LINE
  5
65F0
330
18
100
AcDbEntity
  8
S4
100
AcDbLine
 10
7.284250324507422
 20
9.607785986990672
 30
0.0
 11
7.284250324507422
 21
8.591785986990673
 31
0.0
  0
LINE
  5
65F1
330
18
100
AcDbEntity
  8
S4
100
AcDbLine
 10
7.384250324507422
 20
8.591785986990673
 30
0.0
 11
7.384250324507422
 21
9.607785986990672
 31
0.0
  0
LINE
  5
65F2
330
18
100
AcDbEntity
  8
S4
100
AcDbLine
 10
6.934250324507423
 20
8.699785986990672
 30
0.0
 11
6.934250324507422
 21
9.499785986990673
 31
0.0
  0
LINE
  5
65F3
330
18
100
AcDbEntity
  8
S4
100
AcDbLine
 10
7.034250324507422
 20
9.499785986990673
 30
0.0
 11
7.034250324507422
 21
8.699785986990672
 31
0.0
  0
LINE
  5
65F4
330
18
100
AcDbEntity
  8
S4
100
AcDbLine
 10
7.134250324507423
 20
8.699785986990672
 30
0.0
 11
7.134250324507422
 21
9.499785986990673
 31
0.0
  0
LINE
  5
65F5
330
18
100
AcDbEntity
  8
S4
100
AcDbLine
 10
7.234250324507423
 20
9.499785986990673
 30
0.0
 11
7.234250324507423
 21
8.699785986990672
 31
0.0
  0
LINE
  5
65F6
330
18
100
AcDbEntity
  8
S4
100
AcDbLine
 10
7.334250324507422
 20
8.699785986990672
 30
0.0
 11
7.334250324507422
 21
9.499785986990673
 31
0.0
  0
LINE
  5
65F7
330
18
100
AcDbEntity
  8
S4
100
AcDbLine
 10
7.434250324507422
 20
8.699785986990672
 30
0.0
 11
7.434250324507423
 21
9.499785986990673
 31
0.0
  0
LINE
  5
65F8
330
18
100
AcDbEntity
  8
S4
100
AcDbLine
 10
7.484250324507422
 20
8.591785986990673
 30
0.0
 11
7.484250324507421
 21
9.607785986990672
 31
0.0
  0
LINE
  5
65F9
330
18
100
AcDbEntity
  8
S4
100
AcDbLine
 10
7.534250324507421
 20
8.699785986990672
 30
0.0
 11
7.534250324507421
 21
9.499785986990673
 31
0.0
  0
LINE
  5
65FA
330
18
100
AcDbEntity
  8
S4
100
AcDbLine
 10
7.584250324507421
 20
8.591785986990673
 30
0.0
 11
7.584250324507421
 21
9.607785986990672
 31
0.0
  0
LINE
  5
65FB
330
18
100
AcDbEntity
  8
S4
100
AcDbLine
 10
7.634250324507421
 20
8.564785986990672
 30
0.0
 11
7.634250324507421
 21
9.634785986990673
 31
0.0
  0
LINE
  5
6606
330
18
100
AcDbEntity
  8
S4
100
AcDbLine
 10
6.584250324507426
 20
8.591785986990673
 30
0.0
 11
6.584250324507426
 21
9.607785986990672
 31
0.0
  0
LINE
  5
6607
330
18
100
AcDbEntity
  8
S4
100
AcDbLine
 10
6.684250324507424
 20
9.607785986990672
 30
0.0
 11
6.684250324507425
 21
8.591785986990673
 31
0.0
  0
LINE
  5
6608
330
18
100
AcDbEntity
  8
S4
100
AcDbLine
 10
6.784250324507424
 20
8.591785986990673
 30
0.0
 11
6.784250324507424
 21
9.607785986990672
 31
0.0
  0
LINE
  5
6609
330
18
100
AcDbEntity
  8
S4
100
AcDbLine
 10
6.634250324507421
 20
9.499785986990673
 30
0.0
 11
6.634250324507421
 21
8.699785986990672
 31
0.0
  0
LINE
  5
660A
330
18
100
AcDbEntity
  8
S4
100
AcDbLine
 10
6.734250324507423
 20
8.699785986990672
 30
0.0
 11
6.734250324507422
 21
9.499785986990673
 31
0.0
  0
LINE
  5
660B
330
18
100
AcDbEntity
  8
S4
100
AcDbLine
 10
6.834250324507422
 20
9.499785986990673
 30
0.0
 11
6.834250324507422
 21
8.699785986990672
 31
0.0
  0
LINE
  5
660C
330
18
100
AcDbEntity
  8
S4
100
AcDbLine
 10
6.544250324507421
 20
9.634785986990673
 30
0.0
 11
6.544250324507421
 21
8.564785986990672
 31
0.0
  0
LINE
  5
660E
330
18
100
AcDbEntity
  8
SMA
100
AcDbLine
 10
6.349870671600379
 20
9.449785986990672
 30
0.0
 11
6.349870671600379
 21
8.749785986990673
 31
0.0
  0
LINE
  5
660F
330
18
100
AcDbEntity
  8
SMA
100
AcDbLine
 10
6.543870671600378
 20
8.659785986990675
 30
0.0
 11
6.543870671600378
 21
9.539785986990672
 31
0.0
  0
LINE
  5
6610
330
18
100
AcDbEntity
  8
SMA
100
AcDbLine
 10
6.473870671600382
 20
8.659785986990677
 30
0.0
 11
6.473870671600378
 21
9.539785986990674
 31
0.0
  0
LINE
  5
6611
330
18
100
AcDbEntity
  8
SMA
100
AcDbLine
 10
6.299870671600379
 20
9.345785986990673
 30
0.0
 11
6.349870671600379
 21
9.345785986990673
 31
0.0
  0
LINE
  5
6612
330
18
100
AcDbEntity
  8
SMA
100
AcDbLine
 10
6.349870671600379
 20
9.269785986990674
 30
0.0
 11
6.47387067160038
 21
9.269785986990674
 31
0.0
  0
LINE
  5
6613
330
18
100
AcDbEntity
  8
SMA
100
AcDbLine
 10
6.473870671600378
 20
9.449785986990672
 30
0.0
 11
6.349870671600379
 21
9.449785986990672
 31
0.0
  0
LINE
  5
6614
330
18
100
AcDbEntity
  8
SMA
100
AcDbLine
 10
6.473870671600378
 20
9.539785986990674
 30
0.0
 11
6.543870671600378
 21
9.539785986990672
 31
0.0
  0
LINE
  5
6615
330
18
100
AcDbEntity
  8
SMA
100
AcDbLine
 10
6.299870671600379
 20
8.853785986990672
 30
0.0
 11
6.349870671600379
 21
8.853785986990672
 31
0.0
  0
LINE
  5
6616
330
18
100
AcDbEntity
  8
SMA
100
AcDbLine
 10
6.47387067160038
 20
8.929785986990674
 30
0.0
 11
6.349870671600379
 21
8.929785986990674
 31
0.0
  0
LINE
  5
6617
330
18
100
AcDbEntity
  8
SMA
100
AcDbLine
 10
6.349870671600379
 20
8.749785986990673
 30
0.0
 11
6.473870671600378
 21
8.749785986990673
 31
0.0
  0
LINE
  5
6619
330
18
100
AcDbEntity
  8
SMA
100
AcDbLine
 10
6.473870671600382
 20
8.659785986990677
 30
0.0
 11
6.543870671600378
 21
8.659785986990675
 31
0.0
  0
LINE
  5
661E
330
18
100
AcDbEntity
  8
SMA
100
AcDbLine
 10
6.099870671600379
 20
9.409785986990673
 30
0.0
 11
5.639870671600379
 21
9.409785986990673
 31
0.0
  0
LINE
  5
661F
330
18
100
AcDbEntity
  8
SMA
100
AcDbLine
 10
6.099870671600379
 20
8.789785986990672
 30
0.0
 11
5.639870671600379
 21
8.789785986990672
 31
0.0
  0
LINE
  5
6620
330
18
100
AcDbEntity
  8
SMA
100
AcDbLine
 10
6.099870671600379
 20
9.099785986990672
 30
0.0
 11
5.639870671600379
 21
9.099785986990672
 31
0.0
  0
LINE
  5
6621
330
18
100
AcDbEntity
  8
D1
100
AcDbLine
 39
0.36
 10
1.959998784800684
 20
8.802663317210772
 30
0.0
 11
2.014601170479759
 21
8.605781531798641
 31
0.0
  0
LINE
  5
6622
330
18
100
AcDbEntity
  8
D1
100
AcDbLine
 39
0.36
 10
2.352599444503451
 20
8.970848828127344
 30
0.0
 11
1.959998784800684
 21
8.802663317210772
 31
0.0
  0
LINE
  5
6623
330
18
100
AcDbEntity
  8
D1
100
AcDbLine
 39
0.36
 10
1.513355393552815
 20
8.792609037553027
 30
0.0
 11
2.352599444503451
 21
8.970848828127344
 31
0.0
  0
LINE
  5
6624
330
18
100
AcDbEntity
  8
D1
100
AcDbLine
 39
0.36
 10
1.915277510128998
 20
8.963916425362816
 30
0.0
 11
1.513355393552815
 21
8.792609037553027
 31
0.0
  0
LINE
  5
6625
330
18
100
AcDbEntity
  8
D1
100
AcDbLine
 39
0.36
 10
1.870137079398249
 20
9.146822130035133
 30
0.0
 11
1.92112583198023
 21
8.962970151418664
 31
0.0
  0
ARC
  5
6626
330
18
100
AcDbEntity
  8
D1
100
AcDbCircle
 39
0.36
 10
3.870251597406769
 20
-0.0101985160565281
 30
0.0
 40
8.992856861216777
100
AcDbArc
 50
88.79179908633771
 51
102.221108933891
  0
ARC
  5
6627
330
18
100
AcDbEntity
  8
D1
100
AcDbCircle
 39
0.36
 10
3.84199015165343
 20
0.6481608615424257
 30
0.0
 40
8.575279640845669
100
AcDbArc
 50
88.54407339336919
 51
103.0201711654387
  0
LINE
  5
662C
330
18
100
AcDbEntity
  8
SMA
100
AcDbLine
 10
4.639870671600375
 20
8.939785986990672
 30
0.0
 11
4.059870671600377
 21
8.939785986990674
 31
0.0
  0
LINE
  5
662D
330
18
100
AcDbEntity
  8
SMA
100
AcDbLine
 10
4.639870671600382
 20
9.259785986990673
 30
0.0
 11
4.059870671600377
 21
9.259785986990673
 31
0.0
  0
LINE
  5
662E
330
18
100
AcDbEntity
  8
SMA
100
AcDbLine
 10
4.059870671600377
 20
9.259785986990673
 30
0.0
 11
4.059870671600377
 21
8.939785986990674
 31
0.0
  0
LINE
  5
662F
330
18
100
AcDbEntity
  8
SMA
100
AcDbLine
 10
4.059870671600377
 20
9.099785986990672
 30
0.0
 11
4.059870671600377
 21
8.999785986990673
 31
0.0
  0
LINE
  5
6630
330
18
100
AcDbEntity
  8
SMA
100
AcDbLine
 10
4.059870671600377
 20
9.099785986990672
 30
0.0
 11
4.059870671600377
 21
9.199785986990672
 31
0.0
  0
LINE
  5
6631
330
18
100
AcDbEntity
  8
SMA
100
AcDbLine
 10
5.519870671600378
 20
8.869785986990672
 30
0.0
 11
5.519870671600378
 21
9.329785986990673
 31
0.0
  0
LINE
  5
6632
330
18
100
AcDbEntity
  8
SMA
100
AcDbLine
 10
5.579870671600378
 20
8.839785986990673
 30
0.0
 11
5.579870671600378
 21
9.35978598699067
 31
0.0
  0
LINE
  5
6633
330
18
100
AcDbEntity
  8
SMA
100
AcDbLine
 10
5.639870671600379
 20
8.789785986990672
 30
0.0
 11
5.639870671600379
 21
9.409785986990673
 31
0.0
  0
LINE
  5
6634
330
18
100
AcDbEntity
  8
SMA
100
AcDbLine
 10
5.639870671600379
 20
8.839785986990673
 30
0.0
 11
5.579870671600378
 21
8.839785986990673
 31
0.0
  0
LINE
  5
6635
330
18
100
AcDbEntity
  8
SMA
100
AcDbLine
 10
5.639870671600379
 20
8.839785986990673
 30
0.0
 11
5.579870671600378
 21
8.839785986990673
 31
0.0
  0
LINE
  5
6636
330
18
100
AcDbEntity
  8
SMA
100
AcDbLine
 10
5.579870671600378
 20
8.869785986990672
 30
0.0
 11
5.519870671600378
 21
8.869785986990672
 31
0.0
  0
LINE
  5
6637
330
18
100
AcDbEntity
  8
SMA
100
AcDbLine
 10
5.579870671600378
 20
8.869785986990672
 30
0.0
 11
5.519870671600378
 21
8.869785986990672
 31
0.0
  0
LINE
  5
6638
330
18
100
AcDbEntity
  8
SMA
100
AcDbLine
 10
5.459870671600377
 20
8.919785986990673
 30
0.0
 11
4.659870671600376
 21
8.919785986990673
 31
0.0
  0
LINE
  5
6639
330
18
100
AcDbEntity
  8
SMA
100
AcDbLine
 10
5.459870671600377
 20
9.279785986990672
 30
0.0
 11
4.659870671600376
 21
9.279785986990672
 31
0.0
  0
LINE
  5
663A
330
18
100
AcDbEntity
  8
SMA
100
AcDbLine
 10
4.659870671600376
 20
9.279785986990672
 30
0.0
 11
4.659870671600376
 21
8.919785986990671
 31
0.0
  0
LINE
  5
663B
330
18
100
AcDbEntity
  8
SMA
100
AcDbLine
 10
4.639870671600382
 20
9.259785986990673
 30
0.0
 11
4.639870671600375
 21
8.939785986990672
 31
0.0
  0
LINE
  5
663C
330
18
100
AcDbEntity
  8
SMA
100
AcDbLine
 10
4.659870671600375
 20
8.919785986990673
 30
0.0
 11
4.639870671600375
 21
8.939785986990672
 31
0.0
  0
LINE
  5
663D
330
18
100
AcDbEntity
  8
SMA
100
AcDbLine
 10
4.659870671600376
 20
9.279785986990672
 30
0.0
 11
4.639870671600382
 21
9.259785986990673
 31
0.0
  0
LINE
  5
663E
330
18
100
AcDbEntity
  8
SMA
100
AcDbLine
 10
5.459870671600377
 20
9.099785986990672
 30
0.0
 11
5.459870671600377
 21
9.279785986990672
 31
0.0
  0
LINE
  5
663F
330
18
100
AcDbEntity
  8
SMA
100
AcDbLine
 10
5.459870671600377
 20
9.299785986990672
 30
0.0
 11
5.459870671600377
 21
8.899785986990673
 31
0.0
  0
LINE
  5
6640
330
18
100
AcDbEntity
  8
SMA
100
AcDbLine
 10
5.459870671600377
 20
9.099785986990672
 30
0.0
 11
5.459870671600377
 21
8.919785986990673
 31
0.0
  0
LINE
  5
6641
330
18
100
AcDbEntity
  8
SMA
100
AcDbLine
 10
5.519870671600378
 20
8.899785986990673
 30
0.0
 11
5.459870671600377
 21
8.899785986990673
 31
0.0
  0
LINE
  5
6642
330
18
100
AcDbEntity
  8
SMA
100
AcDbLine
 10
5.519870671600378
 20
9.099785986990672
 30
0.0
 11
5.519870671600378
 21
8.899785986990673
 31
0.0
  0
LINE
  5
6643
330
18
100
AcDbEntity
  8
SMA
100
AcDbLine
 10
5.639870671600379
 20
9.359785986990672
 30
0.0
 11
5.579870671600378
 21
9.35978598699067
 31
0.0
  0
LINE
  5
6644
330
18
100
AcDbEntity
  8
SMA
100
AcDbLine
 10
5.519870671600378
 20
9.299785986990672
 30
0.0
 11
5.459870671600377
 21
9.299785986990672
 31
0.0
  0
LINE
  5
6645
330
18
100
AcDbEntity
  8
SMA
100
AcDbLine
 10
5.579870671600378
 20
9.329785986990673
 30
0.0
 11
5.519870671600378
 21
9.329785986990673
 31
0.0
  0
LINE
  5
6646
330
18
100
AcDbEntity
  8
SMA
100
AcDbLine
 10
6.099870671600379
 20
9.409785986990673
 30
0.0
 11
6.099870671600379
 21
8.789785986990672
 31
0.0
  0
LINE
  5
6647
330
18
100
AcDbEntity
  8
SMA
100
AcDbLine
 10
6.099870671600379
 20
9.399785986990671
 30
0.0
 11
6.099870671600379
 21
8.799785986990672
 31
0.0
  0
LINE
  5
6648
330
18
100
AcDbEntity
  8
SMA
100
AcDbLine
 10
6.299870671600379
 20
8.799785986990672
 30
0.0
 11
6.299870671600379
 21
9.399785986990671
 31
0.0
  0
LINE
  5
6649
330
18
100
AcDbEntity
  8
SMA
100
AcDbLine
 10
6.299870671600379
 20
8.799785986990672
 30
0.0
 11
6.099870671600379
 21
8.799785986990672
 31
0.0
  0
LINE
  5
664A
330
18
100
AcDbEntity
  8
SMA
100
AcDbLine
 10
6.299870671600379
 20
9.399785986990671
 30
0.0
 11
6.099870671600379
 21
9.399785986990671
 31
0.0
  0
LEADER
  5
6671
330
18
100
AcDbEntity
  8
D1
100
AcDbLeader
  3
STANDARD
 76
     3
 10
3.465036505745869
 20
8.973524278855609
 30
0.0
 10
2.757929724559323
 20
8.266417497669063
 30
0.0
 10
2.257929724559323
 20
8.266417497669063
 30
0.0
1001
ACAD
1000
DSTYLE
1002
{
1070
     5
1000

1070
    77
1070
     0
1070
   147
1040
0.09
1070
   289
1070
     0
1002
}
1000
LEANOF
1010
0.0
1020
0.0
1030
0.0
  0
MTEXT
  5
6673
330
18
100
AcDbEntity
  8
D1
100
AcDbMText
 10
2.007929724559323
 20
8.266417497669063
 30
0.0
 40
0.1
 41
0.0
 71
     6
 72
     1
  1
COAX CABLE
1001
ACAD
1000
MTEXTBEGIN
1070
    73
1070
     1
1070
    44
1040
1.0
1070
    74
1070
     0
1000
MTEXTEND
  0
LINE
  5
67E7
330
18
100
AcDbEntity
  8
SMA
100
AcDbLine
 10
4.246484436544657
 20
4.493623744474097
 30
0.0
 11
4.370484436544655
 21
4.493623744474097
 31
0.0
  0
LINE
  5
67E8
330
18
100
AcDbEntity
  8
SMA
100
AcDbLine
 10
4.370484436544657
 20
4.673623744474099
 30
0.0
 11
4.246484436544657
 21
4.673623744474099
 31
0.0
  0
LINE
  5
67E9
330
18
100
AcDbEntity
  8
SMA
100
AcDbLine
 10
4.370484436544655
 20
5.193623744474097
 30
0.0
 11
4.246484436544657
 21
5.193623744474097
 31
0.0
  0
LINE
  5
67EA
330
18
100
AcDbEntity
  8
SMA
100
AcDbLine
 10
4.246484436544657
 20
5.013623744474099
 30
0.0
 11
4.370484436544657
 21
5.013623744474099
 31
0.0
  0
LINE
  5
67EB
330
18
100
AcDbEntity
  8
SMA
100
AcDbLine
 10
4.246484436544657
 20
5.193623744474097
 30
0.0
 11
4.246484436544657
 21
4.493623744474097
 31
0.0
  0
LINE
  5
67EC
330
18
100
AcDbEntity
  8
SMA
100
AcDbLine
 10
3.746484436544657
 20
5.089623744474097
 30
0.0
 11
3.746484436544657
 21
4.597623744474097
 31
0.0
  0
LINE
  5
67ED
330
18
100
AcDbEntity
  8
SMA
100
AcDbLine
 10
4.196484436544656
 20
4.633623744474096
 30
0.0
 11
4.196484436544656
 21
5.053623744474098
 31
0.0
  0
LINE
  5
67EE
330
18
100
AcDbEntity
  8
SMA
100
AcDbLine
 10
4.096484436544656
 20
4.633623744474096
 30
0.0
 11
4.096484436544656
 21
5.053623744474098
 31
0.0
  0
LINE
  5
67EF
330
18
100
AcDbEntity
  8
SMA
100
AcDbLine
 10
3.996484436544657
 20
5.053623744474098
 30
0.0
 11
3.996484436544657
 21
4.633623744474096
 31
0.0
  0
LINE
  5
67F0
330
18
100
AcDbEntity
  8
SMA
100
AcDbLine
 10
3.896484436544657
 20
4.633623744474096
 30
0.0
 11
3.896484436544657
 21
5.053623744474098
 31
0.0
  0
LINE
  5
67F1
330
18
100
AcDbEntity
  8
SMA
100
AcDbLine
 10
3.796484436544657
 20
5.053623744474098
 30
0.0
 11
3.796484436544657
 21
4.633623744474096
 31
0.0
  0
LINE
  5
67F2
330
18
100
AcDbEntity
  8
SMA
100
AcDbLine
 10
4.246484436544657
 20
4.673623744474099
 30
0.0
 11
4.246484436544657
 21
5.013623744474099
 31
0.0
  0
LINE
  5
67F3
330
18
100
AcDbEntity
  8
SMA
100
AcDbLine
 10
3.746484436544657
 20
4.597623744474097
 30
0.0
 11
4.246484436544657
 21
4.597623744474097
 31
0.0
  0
LINE
  5
67F4
330
18
100
AcDbEntity
  8
SMA
100
AcDbLine
 10
4.146484436544655
 20
4.733623744474098
 30
0.0
 11
4.146484436544655
 21
4.953623744474096
 31
0.0
  0
LINE
  5
67F5
330
18
100
AcDbEntity
  8
SMA
100
AcDbLine
 10
4.046484436544655
 20
4.733623744474098
 30
0.0
 11
4.046484436544655
 21
4.953623744474096
 31
0.0
  0
LINE
  5
67F6
330
18
100
AcDbEntity
  8
SMA
100
AcDbLine
 10
3.946484436544656
 20
4.953623744474096
 30
0.0
 11
3.946484436544656
 21
4.733623744474098
 31
0.0
  0
LINE
  5
67F7
330
18
100
AcDbEntity
  8
SMA
100
AcDbLine
 10
3.846484436544656
 20
4.733623744474098
 30
0.0
 11
3.846484436544656
 21
4.953623744474096
 31
0.0
  0
LINE
  5
67F8
330
18
100
AcDbEntity
  8
SMA
100
AcDbLine
 10
4.246484436544657
 20
4.633623744474096
 30
0.0
 11
4.246484436544657
 21
4.633623744474096
 31
0.0
  0
LINE
  5
67F9
330
18
100
AcDbEntity
  8
SMA
100
AcDbLine
 10
4.246484436544657
 20
4.843623744474097
 30
0.0
 11
4.246484436544657
 21
4.843623744474097
 31
0.0
  0
LINE
  5
67FA
330
18
100
AcDbEntity
  8
SMA
100
AcDbLine
 10
3.746484436544657
 20
5.089623744474097
 30
0.0
 11
4.246484436544657
 21
5.089623744474097
 31
0.0
  0
LINE
  5
67FB
330
18
100
AcDbEntity
  8
SMA
100
AcDbLine
 10
4.370484436544659
 20
4.403623744474101
 30
0.0
 11
4.370484436544655
 21
5.283623744474098
 31
0.0
  0
LINE
  5
67FC
330
18
100
AcDbEntity
  8
SMA
100
AcDbLine
 10
4.440484436544656
 20
4.403623744474099
 30
0.0
 11
4.440484436544656
 21
5.283623744474096
 31
0.0
  0
LINE
  5
67FE
330
18
100
AcDbEntity
  8
SMA
100
AcDbLine
 10
4.370484436544659
 20
4.403623744474101
 30
0.0
 11
4.440484436544656
 21
4.403623744474099
 31
0.0
  0
LINE
  5
67FF
330
18
100
AcDbEntity
  8
SMA
100
AcDbLine
 10
4.370484436544657
 20
4.843623744474099
 30
0.0
 11
4.370484436544657
 21
4.673623744474099
 31
0.0
  0
LINE
  5
6800
330
18
100
AcDbEntity
  8
SMA
100
AcDbLine
 10
4.370484436544655
 20
5.283623744474098
 30
0.0
 11
4.440484436544656
 21
5.283623744474096
 31
0.0
  0
LINE
  5
6807
330
18
100
AcDbEntity
  8
S4
100
AcDbLine
 10
4.440484436544656
 20
5.378623744474098
 30
0.0
 11
4.440484436544656
 21
4.308623744474098
 31
0.0
1001
ACAD
1000
ASC_BOUNDS
1002
{
1070
    19
1005
687C
1005
6875
1002
}
  0
LINE
  5
6808
330
18
100
AcDbEntity
  8
S4
100
AcDbLine
 10
5.526484436544651
 20
5.378623744474098
 30
0.0
 11
5.526484436544651
 21
4.308623744474098
 31
0.0
1001
ACAD
1000
ASC_BOUNDS
1002
{
1070
    19
1005
687C
1005
6875
1002
}
  0
LINE
  5
680C
330
18
100
AcDbEntity
  8
S4
100
AcDbLine
 10
5.526484436544651
 20
5.378623744474098
 30
0.0
 11
4.440484436544656
 21
5.378623744474098
 31
0.0
1001
ACAD
1000
ASC_BOUNDS
1002
{
1070
    19
1005
6875
1002
}
  0
LINE
  5
6812
330
18
100
AcDbEntity
  8
S4
100
AcDbLine
 10
5.526484436544651
 20
5.183623744474098
 30
0.0
 11
5.207610557160825
 21
5.183623744474098
 31
0.0
1001
ACAD
1000
ASC_BOUNDS
1002
{
1070
    19
1005
6875
1002
}
  0
LINE
  5
6814
330
18
100
AcDbEntity
  8
S4
100
AcDbLine
 10
5.207610557160825
 20
4.503623744474098
 30
0.0
 11
5.526484436544651
 21
4.503623744474098
 31
0.0
1001
ACAD
1000
ASC_BOUNDS
1002
{
1070
    19
1005
687C
1002
}
  0
LINE
  5
6819
330
18
100
AcDbEntity
  8
S4
100
AcDbLine
 10
4.440484436544656
 20
4.308623744474098
 30
0.0
 11
5.526484436544651
 21
4.308623744474098
 31
0.0
1001
ACAD
1000
ASC_BOUNDS
1002
{
1070
    19
1005
687C
1002
}
  0
LINE
  5
681B
330
18
100
AcDbEntity
  8
S1
100
AcDbLine
 10
5.397610557160824
 20
4.518623744474099
 30
0.0
 11
5.397610557160824
 21
5.168623744474097
 31
0.0
  0
LINE
  5
681C
330
18
100
AcDbEntity
  8
S1
100
AcDbLine
 10
5.197610557160825
 20
4.478623744474099
 30
0.0
 11
5.197610557160825
 21
5.208623744474096
 31
0.0
  0
LINE
  5
681D
330
18
100
AcDbEntity
  8
S1
100
AcDbLine
 10
5.117610557160825
 20
4.478623744474099
 30
0.0
 11
5.117610557160825
 21
5.208623744474096
 31
0.0
  0
LINE
  5
681E
330
18
100
AcDbEntity
  8
S1
100
AcDbLine
 10
5.117610557160825
 20
5.208623744474096
 30
0.0
 11
5.197610557160825
 21
5.208623744474096
 31
0.0
  0
LINE
  5
681F
330
18
100
AcDbEntity
  8
S1
100
AcDbLine
 10
5.397610557160824
 20
5.168623744474097
 30
0.0
 11
5.197610557160825
 21
5.168623744474097
 31
0.0
  0
LINE
  5
6820
330
18
100
AcDbEntity
  8
S1
100
AcDbLine
 10
5.117610557160825
 20
4.478623744474099
 30
0.0
 11
5.197610557160825
 21
4.478623744474099
 31
0.0
  0
LINE
  5
6821
330
18
100
AcDbEntity
  8
S1
100
AcDbLine
 10
5.197610557160825
 20
4.518623744474099
 30
0.0
 11
5.397610557160824
 21
4.518623744474099
 31
0.0
  0
LINE
  5
6824
330
18
100
AcDbEntity
  8
S1
100
AcDbLine
 10
4.917610557160825
 20
5.061623744474098
 30
0.0
 11
5.117610557160825
 21
5.061623744474098
 31
0.0
  0
LINE
  5
6825
330
18
100
AcDbEntity
  8
S1
100
AcDbLine
 10
4.917610557160825
 20
5.025623744474096
 30
0.0
 11
5.117610557160825
 21
5.025623744474096
 31
0.0
  0
LINE
  5
6826
330
18
100
AcDbEntity
  8
S1
100
AcDbLine
 10
4.917610557160825
 20
5.025623744474096
 30
0.0
 11
4.917610557160825
 21
5.061623744474098
 31
0.0
  0
LINE
  5
6828
330
18
100
AcDbEntity
  8
S1
100
AcDbLine
 10
4.917610557160825
 20
4.661623744474099
 30
0.0
 11
5.117610557160825
 21
4.661623744474099
 31
0.0
  0
LINE
  5
6829
330
18
100
AcDbEntity
  8
S1
100
AcDbLine
 10
4.917610557160825
 20
4.625623744474098
 30
0.0
 11
5.117610557160825
 21
4.625623744474098
 31
0.0
  0
LINE
  5
682A
330
18
100
AcDbEntity
  8
S1
100
AcDbLine
 10
4.917610557160825
 20
4.625623744474098
 30
0.0
 11
4.917610557160825
 21
4.661623744474099
 31
0.0
  0
TEXT
  5
6836
330
18
100
AcDbEntity
  8
D1
100
AcDbText
 10
1.449487683988079
 20
5.569953830364009
 30
0.0
 40
0.1
  1
SMA CONNECTOR
 72
     2
 11
2.716154350654745
 21
5.619953830364009
 31
0.0
100
AcDbText
 73
     2
  0
LINE
  5
6865
330
18
100
AcDbEntity
  8
S4
100
AcDbLine
 10
5.207610557160824
 20
5.218623744474096
 30
0.0
 11
5.207610557160825
 21
5.183623744474098
 31
0.0
1001
ACAD
1000
ASC_BOUNDS
1002
{
1070
    19
1005
6875
1002
}
  0
LINE
  5
6868
330
18
100
AcDbEntity
  8
S4
100
AcDbLine
 10
5.207610557160824
 20
5.218623744474096
 30
0.0
 11
4.440484436544656
 21
5.218623744474096
 31
0.0
1001
ACAD
1000
ASC_BOUNDS
1002
{
1070
    19
1005
6875
1002
}
  0
LINE
  5
686A
330
18
100
AcDbEntity
  8
S4
100
AcDbLine
 10
5.207610557160824
 20
4.4686237444741
 30
0.0
 11
5.207610557160825
 21
4.503623744474098
 31
0.0
1001
ACAD
1000
ASC_BOUNDS
1002
{
1070
    19
1005
687C
1002
}
  0
LINE
  5
686C
330
18
100
AcDbEntity
  8
S4
100
AcDbLine
 10
5.207610557160824
 20
4.4686237444741
 30
0.0
 11
4.440484436544656
 21
4.4686237444741
 31
0.0
1001
ACAD
1000
ASC_BOUNDS
1002
{
1070
    19
1005
687C
1002
}
  0
INSERT
  5
6875
330
18
100
AcDbEntity
  8
S4
  6
CONTINUOUS
100
AcDbBlockReference
  2
*X27
 10
0.0
 20
0.0
 30
0.0
1001
ACAD
1000
HATCH
1002
{
1070
    19
1000
ANSI31
1040
0.5
1040
0.0
1000
ASC_BOUNDS
1070
     1
1070
     1
1070
     6
1005
6808
1005
6812
1005
6865
1005
6868
1005
6807
1005
680C
1000
ASC_SEEDPOINT
1011
4.959434848924347
1021
5.321473325650979
1031
0.0
1000
R14_HATCH_DATA
1000
6875
1011
1.0
1021
0.0
1031
0.0
1011
0.0
1021
1.0
1031
0.0
1011
0.0
1021
0.0
1031
1.0
1040
0.0
1010
0.0
1020
0.0
1030
1.0
1000
ANSI31
1070
     0
1070
     1
1071
        1
1071
        7
1070
     0
1070
     1
1071
        6
1040
4.440484436544656
1040
5.378623744474099
1040
4.440484436544656
1040
5.218623744474096
1040
5.207610557160824
1040
5.218623744474096
1040
5.207610557160825
1040
5.183623744474098
1040
5.526484436544651
1040
5.183623744474098
1040
5.526484436544651
1040
5.378623744474099
1071
        6
1005
680C
1005
6807
1005
6868
1005
6865
1005
6812
1005
6808
1070
     0
1070
     1
1040
0.0
1040
0.5
1070
     0
1070
     1
1040
0.7853981633974483
1040
-0.3841575464713127
1040
-0.3569999999999975
1040
-0.0441941738241592
1040
0.0441941738241592
1070
     0
1040
0.0066091186091355
1071
        1
1040
4.959434848924347
1040
5.321473325650979
1040
0.0
1002
}
  0
INSERT
  5
687C
330
18
100
AcDbEntity
  8
S4
  6
CONTINUOUS
100
AcDbBlockReference
  2
*X28
 10
0.0
 20
0.0
 30
0.0
1001
ACAD
1000
HATCH
1002
{
1070
    19
1000
ANSI31
1040
0.5
1040
0.0
1000
ASC_BOUNDS
1070
     1
1070
     1
1070
     6
1005
6808
1005
6819
1005
6807
1005
686C
1005
686A
1005
6814
1000
ASC_SEEDPOINT
1011
5.045419192551152
1021
4.382978478787594
1031
0.0
1000
R14_HATCH_DATA
1000
687C
1011
1.0
1021
0.0
1031
0.0
1011
0.0
1021
1.0
1031
0.0
1011
0.0
1021
0.0
1031
1.0
1040
0.0
1010
0.0
1020
0.0
1030
1.0
1000
ANSI31
1070
     0
1070
     1
1071
        1
1071
        7
1070
     0
1070
     1
1071
        6
1040
5.526484436544651
1040
4.308623744474099
1040
5.526484436544651
1040
4.503623744474098
1040
5.207610557160825
1040
4.503623744474098
1040
5.207610557160825
1040
4.4686237444741
1040
4.440484436544656
1040
4.4686237444741
1040
4.440484436544656
1040
4.308623744474099
1071
        6
1005
6814
1005
686A
1005
686C
1005
6807
1005
6819
1005
6808
1070
     0
1070
     1
1040
0.0
1040
0.5
1070
     0
1070
     1
1040
0.7853981633974483
1040
-0.3841575464713127
1040
-0.3569999999999975
1040
-0.0441941738241592
1040
0.0441941738241592
1070
     0
1040
0.0066091186091355
1071
        1
1040
5.045419192551152
1040
4.382978478787594
1040
0.0
1002
}
  0
TEXT
  5
689E
330
18
100
AcDbEntity
  8
D1
100
AcDbText
 10
6.677940643050733
 20
5.323953830364009
 30
0.0
 40
0.1
  1
PHOTODIODE
 11
6.677940643050733
 21
5.373953830364008
 31
0.0
100
AcDbText
 73
     2
  0
TEXT
  5
68AB
330
18
100
AcDbEntity
  8
D1
100
AcDbText
 10
1.705725306624005
 20
3.72786461455345
 30
0.0
 40
0.1
  1
SM05PD7B ASSEMBLY
 72
     2
 11
3.355725306624006
 21
3.77786461455345
 31
0.0
100
AcDbText
 73
     2
  0
CIRCLE
  5
68DE
330
18
100
AcDbEntity
  8
S4
100
AcDbCircle
 10
12.17677456152586
 20
9.099785986990672
 30
0.0
 40
0.5350000000000001
  0
CIRCLE
  5
68E6
330
18
100
AcDbEntity
  8
S4
  6
HIDDEN
100
AcDbCircle
 10
12.17677456152586
 20
9.099785986990672
 30
0.0
 40
0.505
  0
CIRCLE
  5
68F0
330
18
100
AcDbEntity
  8
S4
100
AcDbCircle
 10
12.17677456152586
 20
9.099785986990672
 30
0.0
 40
0.34
  0
LINE
  5
6906
330
18
100
AcDbEntity
  8
D1
100
AcDbLine
 10
12.13677456152586
 20
9.439785986990672
 30
0.0
 11
11.10177456152586
 21
9.439785986990672
 31
0.0
  0
LINE
  5
6907
330
18
100
AcDbEntity
  8
D1
100
AcDbLine
 10
12.13677456152586
 20
8.759785986990673
 30
0.0
 11
11.10177456152586
 21
8.759785986990673
 31
0.0
  0
LINE
  5
6908
330
18
100
AcDbEntity
  8
D1
100
AcDbLine
 10
11.14177456152586
 20
9.619785986990672
 30
0.0
 11
11.14177456152586
 21
9.799785986990672
 31
0.0
  0
LINE
  5
6909
330
18
100
AcDbEntity
  8
D1
100
AcDbLine
 10
11.14177456152586
 20
8.579785986990673
 30
0.0
 11
11.14177456152586
 21
8.399785986990673
 31
0.0
  0
SOLID
  5
690A
330
18
100
AcDbEntity
  8
D1
100
AcDbTrace
 10
11.11177456152586
 20
9.619785986990672
 30
0.0
 11
11.17177456152586
 21
9.619785986990672
 31
0.0
 12
11.14177456152586
 22
9.439785986990672
 32
0.0
 13
11.14177456152586
 23
9.439785986990672
 33
0.0
  0
SOLID
  5
690B
330
18
100
AcDbEntity
  8
D1
100
AcDbTrace
 10
11.11177456152586
 20
8.579785986990673
 30
0.0
 11
11.17177456152586
 21
8.579785986990673
 31
0.0
 12
11.14177456152586
 22
8.759785986990673
 32
0.0
 13
11.14177456152586
 23
8.759785986990673
 33
0.0
  0
MTEXT
  5
690C
330
18
100
AcDbEntity
  8
D1
100
AcDbMText
 10
11.14177456152586
 20
9.099785986990672
 30
0.0
 40
0.1
 41
0.0
 71
     5
 72
     1
  1
%%C0.34"\P(%%C9mm)
1001
ACAD
1000
MTEXTBEGIN
1070
    73
1070
     1
1070
    44
1040
1.0
1070
    74
1070
     0
1000
MTEXTEND
  0
MTEXT
  5
693A
330
18
100
AcDbEntity
  8
D1
100
AcDbMText
 10
13.8058867982714
 20
9.978894744747844
 30
0.0
 40
0.1
 41
2.474207859999999
 71
     4
 72
     1
  1
GaP PHOTODIODE\P(4.8mm^ 2 ACTIVE AREA)
1001
ACAD
1000
MTEXTBEGIN
1070
    73
1070
     1
1070
    44
1040
1.0
1070
    74
1070
     0
1000
MTEXTEND
  0
LEADER
  5
693F
330
18
100
AcDbEntity
  8
D1
100
AcDbLeader
  3
STANDARD
 76
     3
 10
12.22676673136934
 20
9.149774677845787
 30
0.0
 10
13.0558867982714
 20
9.978894744747844
 30
0.0
 10
13.5558867982714
 20
9.978894744747844
 30
0.0
1001
ACAD
1000
DSTYLE
1002
{
1070
     5
1000

1070
    77
1070
     0
1070
   147
1040
0.09
1070
   289
1070
     0
1002
}
1000
LEANOF
1010
0.0
1020
0.0
1030
0.0
  0
CIRCLE
  5
6946
330
18
100
AcDbEntity
  8
S1
100
AcDbCircle
 10
12.17677456152586
 20
4.693623744474098
 30
0.0
 40
0.5350000000000001
  0
CIRCLE
  5
6964
330
18
100
AcDbEntity
  8
S2
100
AcDbCircle
 10
14.71177456152586
 20
4.693623744474097
 30
0.0
 40
0.0425327573730543
  0
INSERT
  5
6967
330
18
100
AcDbEntity
  8
S2
  6
CONTINUOUS
100
AcDbBlockReference
  2
*U29
 10
0.0
 20
0.0
 30
0.0
1001
ACAD
1002
{
1000
R14_HATCH_DATA
1000
6967
1011
1.0
1021
0.0
1031
0.0
1011
0.0
1021
1.0
1031
0.0
1011
0.0
1021
0.0
1031
1.0
1040
0.0
1010
0.0
1020
0.0
1030
1.0
1000
SOLID
1070
     1
1070
     1
1071
        1
1071
        7
1070
     1
1070
     1
1071
        2
1040
14.6692418041528
1040
4.693623744474097
1040
1.0
1040
14.75430731889891
1040
4.693623744474097
1040
1.0
1071
        1
1005
6964
1070
     0
1070
     1
1040
0.001927231907853
1071
        1
1040
14.73805632049273
1040
4.710318642266697
1040
0.0
1002
}
  0
CIRCLE
  5
696A
330
18
100
AcDbEntity
  8
S2
100
AcDbCircle
 10
14.71177456152586
 20
4.693623744474097
 30
0.0
 40
0.0747525953920659
  0
ARC
  5
696E
330
18
100
AcDbEntity
  8
S2
100
AcDbCircle
 10
14.71177456152586
 20
4.693623744474098
 30
0.0
 40
0.2499999999999994
100
AcDbArc
 50
197.398174049753
 51
162.6018259502477
  0
ARC
  5
696F
330
18
100
AcDbEntity
  8
S4
100
AcDbCircle
 10
14.71177456152586
 20
4.693623744474097
 30
0.0
 40
0.25
100
AcDbArc
 50
163.0397726379452
 51
163.0397726379454
  0
LINE
  5
6977
330
18
100
AcDbEntity
  8
S1
100
AcDbLine
 10
10.14177456152586
 20
6.071568724576088
 30
0.0
 11
14.71177456152586
 21
6.071568724576086
 31
0.0
  0
LINE
  5
6983
330
18
100
AcDbEntity
  8
S1
100
AcDbLine
 10
14.71177456152586
 20
4.943623744474098
 30
0.0
 11
14.71177456152586
 21
6.071568724576085
 31
0.0
  0
CIRCLE
  5
699C
330
18
100
AcDbEntity
  8
S1
100
AcDbCircle
 10
14.71177456152586
 20
4.943623744474098
 30
0.0
 40
0.025
  0
INSERT
  5
69A7
330
18
100
AcDbEntity
  8
S1
  6
CONTINUOUS
100
AcDbBlockReference
  2
*U30
 10
0.0
 20
0.0
 30
0.0
1001
ACAD
1002
{
1000
R14_HATCH_DATA
1000
69A7
1011
1.0
1021
0.0
1031
0.0
1011
0.0
1021
1.0
1031
0.0
1011
0.0
1021
0.0
1031
1.0
1040
0.0
1010
0.0
1020
0.0
1030
1.0
1000
SOLID
1070
     1
1070
     0
1071
        3
1071
        7
1070
     1
1070
     1
1071
        4
1040
14.71177456152586
1040
4.968623744474098
1040
0.0
1040
14.71177456152586
1040
4.943623744474098
1040
-0.0250156445618217
1040
14.73674329197016
1040
4.942373744474099
1040
0.0125058660989343
1040
14.73677456152586
1040
4.943623744474098
1040
0.4142135623731034
1071
        0
1071
        7
1070
     1
1070
     1
1071
        4
1040
14.71177456152586
1040
4.968623744474098
1040
0.4142135623731034
1040
14.68677456152586
1040
4.943623744474098
1040
0.0125058660989343
1040
14.68680583108156
1040
4.942373744474099
1040
-0.0250156445618218
1040
14.71177456152586
1040
4.943623744474099
1040
0.0
1071
        0
1071
        7
1070
     1
1070
     1
1071
        2
1040
14.73674329197016
1040
4.942373744474098
1040
0.0500626174321772
1040
14.68680583108156
1040
4.942373744474099
1040
0.9511897312117481
1071
        0
1070
     0
1070
     1
1040
0.0006330533653554
1071
        3
1040
14.72377346458429
1040
4.953339446969671
1040
0.0
1040
14.69654186092732
1040
4.950174184453704
1040
0.0
1040
14.7079411279327
1040
4.930549529341437
1040
0.0
1002
}
  0
MTEXT
  5
69AF
330
18
100
AcDbEntity
  8
D1
100
AcDbMText
 10
12.85638303299234
 20
4.832620723009777
 30
0.0
 40
0.1
 41
0.0
 71
     4
 72
     1
  1
CATHODE
1001
ACAD
1000
MTEXTBEGIN
1070
    73
1070
     1
1070
    44
1040
1.0
1070
    74
1070
     0
1000
MTEXTEND
  0
TEXT
  5
69B6
330
18
100
AcDbEntity
  8
D1
100
AcDbText
 10
11.72352794859905
 20
3.816594211642985
 30
0.0
 40
0.1
  1
PHOTODIODE
 72
     2
 11
12.65686128193239
 21
3.866594211642985
 31
0.0
100
AcDbText
 73
     2
  0
LINE
  5
69C5
330
18
100
AcDbEntity
  8
D1
100
AcDbLine
 39
0.27
 10
10.65720380884233
 20
2.767250067525797
 30
0.0
 11
13.69634531420939
 21
2.767250067525797
 31
0.0
  0
LINE
  5
69C6
330
18
100
AcDbEntity
  8
D1
100
AcDbLine
 39
0.27
 10
13.4813816467566
 20
2.811725309067754
 30
0.0
 11
10.87216747629512
 21
2.811725309067754
 31
0.0
  0
TEXT
  5
69C7
330
18
100
AcDbEntity
  8
D1
100
AcDbText
 10
10.97677456152585
 20
2.859749262967265
 30
0.0
 40
0.12
  1
ELECTRICAL CONNECTION
 72
     1
 11
12.17677456152586
 21
2.919749262967265
 31
0.0
100
AcDbText
 73
     2
  0
LINE
  5
69CF
330
18
100
AcDbEntity
  8
D1
100
AcDbLine
 39
0.27
 10
10.65720380884233
 20
7.070254654303912
 30
0.0
 11
13.69634531420939
 21
7.070254654303912
 31
0.0
  0
LINE
  5
69D0
330
18
100
AcDbEntity
  8
D1
100
AcDbLine
 39
0.27
 10
13.4813816467566
 20
7.11472989584587
 30
0.0
 11
10.87216747629512
 21
7.11472989584587
 31
0.0
  0
TEXT
  5
69D1
330
18
100
AcDbEntity
  8
D1
100
AcDbText
 10
11.57677456152586
 20
7.172056224728481
 30
0.0
 40
0.12
  1
FRONT VIEW
 72
     1
 11
12.17677456152586
 21
7.232056224728481
 31
0.0
100
AcDbText
 73
     2
  0
TEXT
  5
69E1
330
18
100
AcDbEntity
  8
D1
100
AcDbText
 10
15.21177456152586
 20
4.643623744474099
 30
0.0
 40
0.1
  1
SMA CONNECTOR
 11
15.21177456152586
 21
4.693623744474098
 31
0.0
100
AcDbText
 73
     2
  0
MTEXT
  5
69FD
330
18
100
AcDbEntity
  8
D1
100
AcDbMText
 10
11.02266346345849
 20
4.821872851098425
 30
0.0
 40
0.1
 41
0.0
 71
     4
 72
     1
  1
ANODE
1001
ACAD
1000
MTEXTBEGIN
1070
    73
1070
     1
1070
    44
1040
1.0
1070
    74
1070
     0
1000
MTEXTEND
  0
LINE
  5
69FE
330
18
100
AcDbEntity
  8
S1
  6
CONTINUOUS
100
AcDbLine
 10
12.71177456152586
 20
4.693623744474098
 30
0.0
 11
14.71177456152586
 21
4.693623744474098
 31
0.0
  0
LINE
  5
69FF
330
18
100
AcDbEntity
  8
S1
  6
CONTINUOUS
100
AcDbLine
 10
11.64177456152586
 20
4.693623744474098
 30
0.0
 11
10.14177456152586
 21
4.693623744474098
 31
0.0
  0
LINE
  5
6A00
330
18
100
AcDbEntity
  8
S1
  6
CONTINUOUS
100
AcDbLine
 10
10.14177456152586
 20
4.693623744474098
 30
0.0
 11
10.14177456152586
 21
6.071568724576088
 31
0.0
  0
LEADER
  5
6A0F
330
18
100
AcDbEntity
  8
D1
100
AcDbLeader
  3
STANDARD
 76
     3
 10
5.869870671600379
 20
9.409785986990673
 30
0.0
 10
5.339540585710468
 20
9.940116072880584
 30
0.0
 10
4.839540585710468
 20
9.940116072880584
 30
0.0
1001
ACAD
1000
DSTYLE
1002
{
1070
     5
1000

1070
    77
1070
     0
1070
   147
1040
0.09
1070
   289
1070
     0
1002
}
1000
LEANOF
1010
0.0
1020
0.0
1030
0.0
  0
LEADER
  5
6A16
330
18
100
AcDbEntity
  8
D1
100
AcDbLeader
  3
STANDARD
 76
     3
 10
7.084250324507424
 20
8.564785986990672
 30
0.0
 10
6.553920238617514
 20
8.034455901100763
 30
0.0
 10
6.053920238617514
 20
8.034455901100763
 30
0.0
1001
ACAD
1000
DSTYLE
1002
{
1070
     5
1000

1070
    77
1070
     0
1070
   147
1040
0.09
1070
   289
1070
     0
1002
}
1000
LEANOF
1010
0.0
1020
0.0
1030
0.0
  0
LEADER
  5
6A1E
330
18
100
AcDbEntity
  8
D1
  6
CONTINUOUS
100
AcDbLeader
  3
STANDARD
 76
     3
 10
3.996484436544657
 20
5.089623744474097
 30
0.0
 10
3.466154350654745
 20
5.619953830364009
 30
0.0
 10
2.966154350654745
 20
5.619953830364009
 30
0.0
1001
ACAD
1000
DSTYLE
1002
{
1070
     5
1000

1070
    77
1070
     0
1070
   147
1040
0.09
1070
   289
1070
     0
1002
}
1000
LEANOF
1010
0.0
1020
0.0
1030
0.0
  0
LEADER
  5
6A24
330
18
100
AcDbEntity
  8
D1
  6
CONTINUOUS
100
AcDbLeader
  3
STANDARD
 76
     3
 10
5.397610557160824
 20
4.843623744474098
 30
0.0
 10
5.927940643050733
 20
5.373953830364008
 30
0.0
 10
6.427940643050733
 20
5.373953830364008
 30
0.0
1001
ACAD
1000
DSTYLE
1002
{
1070
     5
1000

1070
    77
1070
     0
1070
   147
1040
0.09
1070
   289
1070
     0
1002
}
1000
LEANOF
1010
0.0
1020
0.0
1030
0.0
  0
LEADER
  5
6A29
330
18
100
AcDbEntity
  8
D1
  6
CONTINUOUS
100
AcDbLeader
  3
STANDARD
 76
     3
 10
4.636055392513918
 20
4.30819470044336
 30
0.0
 10
4.105725306624006
 20
3.77786461455345
 30
0.0
 10
3.605725306624006
 20
3.77786461455345
 30
0.0
1001
ACAD
1000
DSTYLE
1002
{
1070
     5
1000

1070
    77
1070
     0
1070
   147
1040
0.09
1070
   289
1070
     0
1002
}
1000
LEANOF
1010
0.0
1020
0.0
1030
0.0
  0
LINE
  5
6A4E
330
18
100
AcDbEntity
  8
D1
  6
HIDDEN
100
AcDbLine
 10
12.17677456152586
 20
9.634785986990673
 30
0.0
 11
12.17677456152586
 21
8.564785986990672
 31
0.0
  0
LINE
  5
6A51
330
18
100
AcDbEntity
  8
D1
  6
CONTINUOUS
100
AcDbLine
 10
12.17677456152586
 20
9.934785986990673
 30
0.0
 11
12.42677456152586
 21
9.934785986990673
 31
0.0
  0
LINE
  5
6A53
330
18
100
AcDbEntity
  8
D1
  6
CONTINUOUS
100
AcDbLine
 10
12.17677456152586
 20
8.264785986990672
 30
0.0
 11
12.42677456152586
 21
8.264785986990672
 31
0.0
  0
INSERT
  5
6A59
330
18
100
AcDbEntity
  8
D1
  6
HIDDEN
100
AcDbBlockReference
  2
A$C536F5B75
 10
12.59884830052853
 20
9.932544167001518
 30
0.0
 50
90.0
  0
INSERT
  5
6A5C
330
18
100
AcDbEntity
  8
D1
  6
HIDDEN
100
AcDbBlockReference
  2
A$C536F5B75
 10
12.59884830052853
 20
8.272946395695349
 30
0.0
 50
90.0
  0
TEXT
  5
6A5D
330
18
100
AcDbEntity
  8
D1
100
AcDbText
 10
12.62847988626472
 20
9.878048924543904
 30
0.0
 40
0.1
  1
X
 11
12.62847988626472
 21
9.928048924543904
 31
0.0
100
AcDbText
 73
     2
  0
TEXT
  5
6A5E
330
18
100
AcDbEntity
  8
D1
100
AcDbText
 10
12.62847988626472
 20
8.21831805501781
 30
0.0
 40
0.1
  1
X
 11
12.62847988626472
 21
8.268318055017811
 31
0.0
100
AcDbText
 73
     2
  0
LINE
  5
6A6C
330
18
100
AcDbEntity
  8
D1
100
AcDbLine
 10
12.17677456152586
 20
9.634785986990673
 30
0.0
 11
12.17677456152586
 21
9.934785986990673
 31
0.0
  0
LINE
  5
6A6E
330
18
100
AcDbEntity
  8
D1
100
AcDbLine
 10
12.17677456152586
 20
8.564785986990672
 30
0.0
 11
12.17677456152586
 21
8.264785986990672
 31
0.0
  0
MTEXT
  5
6A72
330
18
100
AcDbEntity
  8
D1
100
AcDbMText
 10
5.803920238617514
 20
8.034455901100763
 30
0.0
 40
0.1
 41
2.931658969999999
 71
     6
 72
     1
  1
%%C0.535-40 (SM05) THREAD\PMATERIAL: DELRIN{\FCOUR.TTF;® }PLASTIC
1001
ACAD
1000
MTEXTBEGIN
1070
    73
1070
     1
1070
    44
1040
1.0
1070
    74
1070
     0
1000
MTEXTEND
  0
INSERT
  5
6AA2
330
18
100
AcDbEntity
  8
D1
100
AcDbBlockReference
  2
A$C760F02AF
 10
12.71177456152586
 20
4.693623744474098
 30
0.0
 50
180.0
  0
LINE
  5
6B9A
330
18
100
AcDbEntity
  8
S1
100
AcDbLine
 10
12.12677456152586
 20
9.149785986990673
 30
0.0
 11
12.12677456152586
 21
9.049785986990674
 31
0.0
  0
LINE
  5
6B9B
330
18
100
AcDbEntity
  8
S1
100
AcDbLine
 10
12.12677456152586
 20
9.049785986990674
 30
0.0
 11
12.22677456152585
 21
9.049785986990674
 31
0.0
  0
LINE
  5
6B9C
330
18
100
AcDbEntity
  8
S1
100
AcDbLine
 10
12.22677456152585
 20
9.049785986990674
 30
0.0
 11
12.22677456152585
 21
9.149785986990673
 31
0.0
  0
LINE
  5
6B9D
330
18
100
AcDbEntity
  8
S1
100
AcDbLine
 10
12.12677456152586
 20
9.149785986990673
 30
0.0
 11
12.22677456152585
 21
9.149785986990673
 31
0.0
  0
INSERT
  5
6BA6
330
18
100
AcDbEntity
  8
S1
  6
CONTINUOUS
100
AcDbBlockReference
  2
*U31
 10
0.0
 20
0.0
 30
0.0
1001
ACAD
1002
{
1000
R14_HATCH_DATA
1000
6BA6
1011
1.0
1021
0.0
1031
0.0
1011
0.0
1021
1.0
1031
0.0
1011
0.0
1021
0.0
1031
1.0
1040
0.0
1010
0.0
1020
0.0
1030
1.0
1000
SOLID
1070
     1
1070
     1
1071
        2
1071
        7
1070
     0
1070
     1
1071
        4
1040
12.22677456152585
1040
9.149785986990673
1040
12.17677456152586
1040
9.149785986990673
1040
12.17677456152586
1040
9.049785986990672
1040
12.22677456152585
1040
9.049785986990672
1071
        4
1005
6B9D
1005
6A4E
1005
6B9B
1005
6B9C
1071
        7
1070
     0
1070
     1
1071
        4
1040
12.17677456152586
1040
9.149785986990673
1040
12.12677456152586
1040
9.149785986990673
1040
12.12677456152586
1040
9.049785986990674
1040
12.17677456152586
1040
9.049785986990674
1071
        4
1005
6B9D
1005
6B9A
1005
6B9B
1005
6A4E
1070
     0
1070
     1
1040
0.0003796452590134
1071
        2
1040
12.20580771550332
1040
9.119014670808045
1040
0.0
1040
12.16059573019974
1040
9.117116466854245
1040
0.0
1002
}
  0
MTEXT
  5
6BCE
330
18
100
AcDbEntity
  8
BORDER
100
AcDbMText
 10
0.4533186418844295
 20
11.24211162728317
 30
0.0
 40
0.2
 41
5.42947216846935
 71
     1
 72
     1
  1
{\FARIAL.TTF;COPYRIGHT \FSYMBOL.TTF;Ó\FARIAL.TTF; 2004 by THORLABS INC.}
1001
ACAD
1000
MTEXTBEGIN
1070
    73
1070
     1
1070
    44
1040
1.0
1070
    74
1070
     0
1000
MTEXTEND
  0
ENDSEC
  0
SECTION
  2
OBJECTS
  0
DICTIONARY
  5
C
330
0
100
AcDbDictionary
  3
ACAD_GROUP
350
D
  3
ACAD_LAYOUT
350
5DBF
  3
ACAD_MLINESTYLE
350
E
  3
ACAD_PLOTSETTINGS
350
5DC0
  3
ACADDIM
350
6A4F
  3
CONTENTDICTIONARY
350
5903
1001
ACAD
1000
TREAT_AS_HARD
1070
     0
  0
DICTIONARY
  5
6BE0
330
18
100
AcDbDictionary
  3
ACAD_LAYOUTSELFREF
350
6BE1
  0
DICTIONARY
  5
6BDE
330
15
100
AcDbDictionary
  3
ACAD_LAYOUTSELFREF
350
6BDF
  0
DICTIONARY
  5
D
102
{ACAD_REACTORS
330
C
102
}
330
C
100
AcDbDictionary
1001
ACAD
1000
TREAT_AS_HARD
1070
     0
  0
DICTIONARY
  5
5DBF
102
{ACAD_REACTORS
330
C
102
}
330
C
100
AcDbDictionary
1001
ACAD
1000
TREAT_AS_HARD
1070
     0
  0
DICTIONARY
  5
E
102
{ACAD_REACTORS
330
C
102
}
330
C
100
AcDbDictionary
  3
STANDARD
350
1B
1001
ACAD
1000
TREAT_AS_HARD
1070
     0
  0
DICTIONARY
  5
5DC0
102
{ACAD_REACTORS
330
C
102
}
330
C
100
AcDbDictionary
1001
ACAD
1000
TREAT_AS_HARD
1070
     0
  0
XRECORD
  5
6A4F
102
{ACAD_REACTORS
330
C
102
}
330
C
100
AcDbXrecord
 90
   990106
  3

 60
     0
 61
     0
 62
     1
 63
     3
 64
     0
 65
     0
 66
     0
 67
     3
 68
     1
 69
     0
 70
     0
 71
     0
 72
     0
 40
0.0
170
     0
  0
DICTIONARY
  5
5903
102
{ACAD_REACTORS
330
C
102
}
330
C
100
AcDbDictionary
1001
CONTENTTABDATA
1070
     7
1000
English Fasteners
1000
C:\Program Files\AutoCAD LT 97\Symbols\eengfast.dwg
1070
     0
1070
     0
1070
     1
1000
Metric Fasteners
1000
C:\Program Files\AutoCAD LT 97\Symbols\emetfast.dwg
1070
     0
1070
     0
1070
     1
1000
Welding
1000
C:\Program Files\AutoCAD LT 97\Symbols\ewelding.dwg
1070
     0
1070
     0
1070
     1
1000
Hyd-Pneu
1000
C:\Program Files\AutoCAD LT 97\Symbols\ehydpneu.dwg
1070
     0
1070
     0
1070
     1
1000
Pipe Fittings
1000
C:\Program Files\AutoCAD LT 97\Symbols\epipefit.dwg
1070
     0
1070
     0
1070
     1
1000
Plant Process
1000
C:\Program Files\AutoCAD LT 97\Symbols\eplntprc.dwg
1070
     0
1070
     0
1070
     1
1000
BLOCKS
1000
C:\BLOCKS
1070
     1
1070
     0
1070
     1
1001
CONTENTCURRENTTAB
1070
     7
1001
ACAD
1000
TREAT_AS_HARD
1070
     0
  0
XRECORD
  5
6BE1
102
{ACAD_REACTORS
330
6BE0
102
}
330
6BE0
100
AcDbXrecord
340
18
  0
XRECORD
  5
6BDF
102
{ACAD_REACTORS
330
6BDE
102
}
330
6BDE
100
AcDbXrecord
340
15
  0
MLINESTYLE
  5
1B
102
{ACAD_REACTORS
330
E
102
}
330
E
100
AcDbMlineStyle
  2
STANDARD
 70
     0
  3

 62
     0
 51
90.0
 52
90.0
 71
     2
 49
0.5
 62
   256
  6
BYLAYER
 49
-0.5
 62
   256
  6
BYLAYER
  0
ENDSEC
  0
EOF
