ISO-10303-21;
HEADER;
FILE_DESCRIPTION (( 'STEP AP203' ),
    '1' );
FILE_NAME ('20231-E0W.STEP',
    '2009-09-14T20:13:26',
    ( 'Admin' ),
    ( 'Thorlabs, Inc.' ),
    'SwSTEP 2.0',
    'SolidWorks 2007',
    '' );
FILE_SCHEMA (( 'CONFIG_CONTROL_DESIGN' ));
ENDSEC;

DATA;
#1 = MANIFOLD_SOLID_BREP ( 'NONE', #66 ) ;
#2 = VERTEX_POINT ( 'NONE', #72 ) ;
#3 = EDGE_CURVE ( 'NONE', #2, #27, #91, .T. ) ;
#4 = ORIENTED_EDGE ( 'NONE', *, *, #3, .T. ) ;
#5 = EDGE_LOOP ( 'NONE', ( #8, #4, #14 ) ) ;
#6 = VERTEX_POINT ( 'NONE', #86 ) ;
#7 = EDGE_CURVE ( 'NONE', #2, #26, #84, .T. ) ;
#8 = ORIENTED_EDGE ( 'NONE', *, *, #7, .F. ) ;
#9 = ORIENTED_EDGE ( 'NONE', *, *, #51, .T. ) ;
#10 = EDGE_LOOP ( 'NONE', ( #11, #9, #50 ) ) ;
#11 = ORIENTED_EDGE ( 'NONE', *, *, #12, .F. ) ;
#12 = EDGE_CURVE ( 'NONE', #6, #54, #79, .T. ) ;
#13 = ADVANCED_FACE ( 'NONE', ( #75 ), #43, .F. ) ;
#14 = ORIENTED_EDGE ( 'NONE', *, *, #39, .F. ) ;
#15 = ADVANCED_FACE ( 'NONE', ( #198 ), #130, .T. ) ;
#16 = APPROVAL_PERSON_ORGANIZATION ( #22, #17, #21 ) ;
#17 = APPROVAL ( #40, 'UNSPECIFIED' ) ;
#18 = ORIENTED_EDGE ( 'NONE', *, *, #44, .F. ) ;
#19 = PRODUCT_DEFINITION_FORMATION_WITH_SPECIFIED_SOURCE ( 'ANY', '', #154, .NOT_KNOWN. ) ;
#20 = CC_DESIGN_DATE_AND_TIME_ASSIGNMENT ( #28, #32, ( #186 ) ) ;
#21 = APPROVAL_ROLE ( '' ) ;
#22 = PERSON_AND_ORGANIZATION ( #153, #152 ) ;
#23 = CC_DESIGN_APPROVAL ( #17, ( #19 ) ) ;
#24 = CALENDAR_DATE ( 2009, 14, 9 ) ;
#25 = DATE_AND_TIME ( #24, #30 ) ;
#26 = VERTEX_POINT ( 'NONE', #146 ) ;
#27 = VERTEX_POINT ( 'NONE', #101 ) ;
#28 = DATE_AND_TIME ( #29, #158 ) ;
#29 = CALENDAR_DATE ( 2009, 14, 9 ) ;
#30 = LOCAL_TIME ( 16, 13, 26.00000000000000000, #31 ) ;
#31 = COORDINATED_UNIVERSAL_TIME_OFFSET ( 5, 0, .BEHIND. ) ;
#32 = DATE_TIME_ROLE ( 'creation_date' ) ;
#33 = VERTEX_POINT ( 'NONE', #134 ) ;
#34 = ORIENTED_EDGE ( 'NONE', *, *, #35, .F. ) ;
#35 = EDGE_CURVE ( 'NONE', #33, #54, #125, .T. ) ;
#36 = DIRECTION ( 'NONE',  ( -1.000000000000000000, 0.0000000000000000000, 0.0000000000000000000 ) ) ;
#37 = APPROVAL_DATE_TIME ( #25, #17 ) ;
#38 = CARTESIAN_POINT ( 'NONE',  ( 0.0000000000000000000, 0.0000000000000000000, 120.9769999999999900 ) ) ;
#39 = EDGE_CURVE ( 'NONE', #26, #27, #174, .T. ) ;
#40 = APPROVAL_STATUS ( 'not_yet_approved' ) ;
#41 = DIRECTION ( 'NONE',  ( 0.0000000000000000000, 1.000000000000000000, 2.332852199637654100E-016 ) ) ;
#42 = AXIS2_PLACEMENT_3D ( 'NONE', #38, #36, #41 ) ;
#43 = SPHERICAL_SURFACE ( 'NONE', #42, 118.9769999999999900 ) ;
#44 = EDGE_CURVE ( 'NONE', #26, #33, #177, .T. ) ;
#45 = ORIENTED_EDGE ( 'NONE', *, *, #7, .T. ) ;
#46 = ORIENTED_EDGE ( 'NONE', *, *, #51, .F. ) ;
#47 = EDGE_CURVE ( 'NONE', #54, #33, #195, .T. ) ;
#48 = ADVANCED_FACE ( 'NONE', ( #194 ), #129, .T. ) ;
#49 = ORIENTED_EDGE ( 'NONE', *, *, #53, .F. ) ;
#50 = ORIENTED_EDGE ( 'NONE', *, *, #35, .T. ) ;
#51 = EDGE_CURVE ( 'NONE', #6, #33, #145, .T. ) ;
#52 = ORIENTED_EDGE ( 'NONE', *, *, #53, .T. ) ;
#53 = EDGE_CURVE ( 'NONE', #27, #54, #150, .T. ) ;
#54 = VERTEX_POINT ( 'NONE', #180 ) ;
#55 = ORIENTED_EDGE ( 'NONE', *, *, #47, .F. ) ;
#56 = ADVANCED_FACE ( 'NONE', ( #179 ), #96, .F. ) ;
#57 = EDGE_LOOP ( 'NONE', ( #61, #45, #63 ) ) ;
#58 = EDGE_CURVE ( 'NONE', #27, #26, #173, .T. ) ;
#59 = EDGE_LOOP ( 'NONE', ( #49, #65, #64, #55 ) ) ;
#60 = ADVANCED_FACE ( 'NONE', ( #139 ), #138, .T. ) ;
#61 = ORIENTED_EDGE ( 'NONE', *, *, #3, .F. ) ;
#62 = ORIENTED_EDGE ( 'NONE', *, *, #12, .T. ) ;
#63 = ORIENTED_EDGE ( 'NONE', *, *, #58, .F. ) ;
#64 = ORIENTED_EDGE ( 'NONE', *, *, #44, .T. ) ;
#65 = ORIENTED_EDGE ( 'NONE', *, *, #58, .T. ) ;
#66 = CLOSED_SHELL ( 'NONE', ( #69, #15, #13, #56, #60, #48 ) ) ;
#67 = EDGE_LOOP ( 'NONE', ( #46, #62, #68 ) ) ;
#68 = ORIENTED_EDGE ( 'NONE', *, *, #47, .T. ) ;
#69 = ADVANCED_FACE ( 'NONE', ( #123 ), #120, .T. ) ;
#70 = EDGE_LOOP ( 'NONE', ( #71, #52, #34, #18 ) ) ;
#71 = ORIENTED_EDGE ( 'NONE', *, *, #39, .T. ) ;
#72 = CARTESIAN_POINT ( 'NONE',  ( 0.0000000000000000000, 1.789113144743878900E-014, -2.000000000000001800 ) ) ;
#73 = PERSON_AND_ORGANIZATION_ROLE ( 'creator' ) ;
#74 = CC_DESIGN_PERSON_AND_ORGANIZATION_ASSIGNMENT ( #92, #73, ( #19 ) ) ;
#75 = FACE_OUTER_BOUND ( 'NONE', #10, .T. ) ;
#76 = DIRECTION ( 'NONE',  ( 0.0000000000000000000, 0.0000000000000000000, -1.000000000000000000 ) ) ;
#77 = DIRECTION ( 'NONE',  ( 1.000000000000000000, 0.0000000000000000000, 0.0000000000000000000 ) ) ;
#78 = AXIS2_PLACEMENT_3D ( 'NONE', #85, #77, #76 ) ;
#79 = CIRCLE ( 'NONE', #78, 118.9769999999999900 ) ;
#80 = DIRECTION ( 'NONE',  ( 0.0000000000000000000, 0.0000000000000000000, 1.000000000000000000 ) ) ;
#81 = DIRECTION ( 'NONE',  ( -1.000000000000000000, 0.0000000000000000000, 0.0000000000000000000 ) ) ;
#82 = CARTESIAN_POINT ( 'NONE',  ( 0.0000000000000000000, 0.0000000000000000000, 144.0970000000000100 ) ) ;
#83 = AXIS2_PLACEMENT_3D ( 'NONE', #82, #81, #80 ) ;
#84 = CIRCLE ( 'NONE', #83, 146.0970000000000100 ) ;
#85 = CARTESIAN_POINT ( 'NONE',  ( 0.0000000000000000000, 0.0000000000000000000, 120.9769999999999900 ) ) ;
#86 = CARTESIAN_POINT ( 'NONE',  ( 0.0000000000000000000, 2.913999803174499000E-014, 2.000000000000001800 ) ) ;
#87 = DIRECTION ( 'NONE',  ( 1.224606353822377000E-016, 1.000000000000000000, 0.0000000000000000000 ) ) ;
#88 = DIRECTION ( 'NONE',  ( 1.000000000000000000, -1.224606353822377300E-016, -2.249491082733206400E-032 ) ) ;
#89 = CARTESIAN_POINT ( 'NONE',  ( 0.0000000000000000000, 0.0000000000000000000, 144.0970000000000100 ) ) ;
#90 = AXIS2_PLACEMENT_3D ( 'NONE', #89, #88, #87 ) ;
#91 = CIRCLE ( 'NONE', #90, 146.0970000000000100 ) ;
#92 = PERSON_AND_ORGANIZATION ( #153, #152 ) ;
#93 = DIRECTION ( 'NONE',  ( 0.0000000000000000000, 1.000000000000000000, 2.332852199637654100E-016 ) ) ;
#94 = DIRECTION ( 'NONE',  ( -1.000000000000000000, 0.0000000000000000000, 0.0000000000000000000 ) ) ;
#95 = AXIS2_PLACEMENT_3D ( 'NONE', #178, #94, #93 ) ;
#96 = SPHERICAL_SURFACE ( 'NONE', #95, 118.9769999999999900 ) ;
#97 = AXIS2_PLACEMENT_3D ( 'NONE', #193, #192, #113 ) ;
#98 = DIRECTION ( 'NONE',  ( 0.0000000000000000000, -1.836909530733566100E-016, 1.000000000000000000 ) ) ;
#99 = VECTOR ( 'NONE', #98, 1000.000000000000000 ) ;
#100 = CARTESIAN_POINT ( 'NONE',  ( 0.0000000000000000000, -12.69999999999999900, 1.999999999999997800 ) ) ;
#101 = CARTESIAN_POINT ( 'NONE',  ( 1.555250069354421100E-015, 12.70000000000004200, -1.446956964897716500 ) ) ;
#102 = DIRECTION ( 'NONE',  ( 1.000000000000000000, 0.0000000000000000000, 0.0000000000000000000 ) ) ;
#103 = UNCERTAINTY_MEASURE_WITH_UNIT (LENGTH_MEASURE( 1.000000000000000100E-005 ), #108, 'distance_accuracy_value', 'NONE');
#104 =( NAMED_UNIT ( * ) SI_UNIT ( $, .STERADIAN. ) SOLID_ANGLE_UNIT ( ) );
#105 =( NAMED_UNIT ( * ) PLANE_ANGLE_UNIT ( ) SI_UNIT ( $, .RADIAN. ) );
#106 = DIRECTION ( 'NONE',  ( 0.0000000000000000000, 0.0000000000000000000, 1.000000000000000000 ) ) ;
#107 = AXIS2_PLACEMENT_3D ( 'NONE', #121, #106, #102 ) ;
#108 =( LENGTH_UNIT ( ) NAMED_UNIT ( * ) SI_UNIT ( .MILLI., .METRE. ) );
#109 = DIRECTION ( 'NONE',  ( 0.0000000000000000000, -1.000000000000000000, -1.707404996040164500E-016 ) ) ;
#110 = DIRECTION ( 'NONE',  ( 0.0000000000000000000, -1.836909530733566100E-016, 1.000000000000000000 ) ) ;
#111 = CARTESIAN_POINT ( 'NONE',  ( 0.0000000000000000000, 0.0000000000000000000, 2.000000000000000000 ) ) ;
#112 = CARTESIAN_POINT ( 'NONE',  ( 0.0000000000000000000, 0.0000000000000000000, 2.000000000000000000 ) ) ;
#113 = DIRECTION ( 'NONE',  ( 0.0000000000000000000, -1.000000000000000000, -1.707404996040164300E-016 ) ) ;
#114 = CARTESIAN_POINT ( 'NONE',  ( 0.0000000000000000000, 0.0000000000000000000, 144.0970000000000100 ) ) ;
#115 = DIRECTION ( 'NONE',  ( 0.0000000000000000000, -1.000000000000000000, -1.878145495644181100E-016 ) ) ;
#116 = DIRECTION ( 'NONE',  ( 0.0000000000000000000, -1.836909530733566100E-016, 1.000000000000000000 ) ) ;
#117 = CARTESIAN_POINT ( 'NONE',  ( 0.0000000000000000000, 6.331748100849065900E-016, -1.446956964897718700 ) ) ;
#118 = DIRECTION ( 'NONE',  ( 0.0000000000000000000, -1.000000000000000000, -1.707404996040164300E-016 ) ) ;
#119 = DIRECTION ( 'NONE',  ( 0.0000000000000000000, -1.836909530733566100E-016, 1.000000000000000000 ) ) ;
#120 = CYLINDRICAL_SURFACE ( 'NONE', #122, 12.69999999999999900 ) ;
#121 = CARTESIAN_POINT ( 'NONE',  ( 0.0000000000000000000, 0.0000000000000000000, 0.0000000000000000000 ) ) ;
#122 = AXIS2_PLACEMENT_3D ( 'NONE', #111, #110, #109 ) ;
#123 = FACE_OUTER_BOUND ( 'NONE', #70, .T. ) ;
#124 = DIRECTION ( 'NONE',  ( 0.0000000000000000000, -1.000000000000000000, -1.899804624025743900E-016 ) ) ;
#125 = CIRCLE ( 'NONE', #133, 12.70000000000000100 ) ;
#126 = DIRECTION ( 'NONE',  ( 0.0000000000000000000, -1.000000000000000000, -1.707404996040164500E-016 ) ) ;
#127 = DIRECTION ( 'NONE',  ( 0.0000000000000000000, -1.836909530733566100E-016, 1.000000000000000000 ) ) ;
#128 = AXIS2_PLACEMENT_3D ( 'NONE', #112, #127, #126 ) ;
#129 = CYLINDRICAL_SURFACE ( 'NONE', #128, 12.69999999999999900 ) ;
#130 = SPHERICAL_SURFACE ( 'NONE', #175, 146.0970000000000100 ) ;
#131 = DIRECTION ( 'NONE',  ( 0.0000000000000000000, -1.000000000000000000, -1.899804624025743900E-016 ) ) ;
#132 = DIRECTION ( 'NONE',  ( 1.000000000000000000, 0.0000000000000000000, 0.0000000000000000000 ) ) ;
#133 = AXIS2_PLACEMENT_3D ( 'NONE', #144, #119, #118 ) ;
#134 = CARTESIAN_POINT ( 'NONE',  ( -1.555250069354415300E-015, -12.69999999999994800, 2.679761955318658500 ) ) ;
#135 = DIRECTION ( 'NONE',  ( 1.000000000000000000, 0.0000000000000000000, 0.0000000000000000000 ) ) ;
#136 = CARTESIAN_POINT ( 'NONE',  ( 0.0000000000000000000, 0.0000000000000000000, 144.0970000000000100 ) ) ;
#137 = AXIS2_PLACEMENT_3D ( 'NONE', #136, #135, #124 ) ;
#138 = SPHERICAL_SURFACE ( 'NONE', #137, 146.0970000000000100 ) ;
#139 = FACE_OUTER_BOUND ( 'NONE', #57, .T. ) ;
#140 = CARTESIAN_POINT ( 'NONE',  ( 0.0000000000000000000, 0.0000000000000000000, 120.9769999999999900 ) ) ;
#141 = AXIS2_PLACEMENT_3D ( 'NONE', #140, #197, #196 ) ;
#142 = APPLICATION_PROTOCOL_DEFINITION ( 'international standard', 'config_control_design', 1994, #143 ) ;
#143 = APPLICATION_CONTEXT ( 'configuration controlled 3d designs of mechanical parts and assemblies' ) ;
#144 = CARTESIAN_POINT ( 'NONE',  ( 0.0000000000000000000, -1.248661214354930300E-016, 2.679761955318659300 ) ) ;
#145 = CIRCLE ( 'NONE', #141, 118.9769999999999900 ) ;
#146 = CARTESIAN_POINT ( 'NONE',  ( 0.0000000000000000000, -12.70000000000001700, -1.446956964897718700 ) ) ;
#147 = DIRECTION ( 'NONE',  ( 0.0000000000000000000, -1.836909530733566100E-016, 1.000000000000000000 ) ) ;
#148 = VECTOR ( 'NONE', #147, 1000.000000000000000 ) ;
#149 = CARTESIAN_POINT ( 'NONE',  ( 1.555250069354419100E-015, 12.69999999999999900, 2.000000000000002200 ) ) ;
#150 = LINE ( 'NONE', #149, #148 ) ;
#151 = PERSON_AND_ORGANIZATION ( #153, #152 ) ;
#152 = ORGANIZATION ( 'UNSPECIFIED', 'UNSPECIFIED', '' ) ;
#153 = PERSON ( 'UNSPECIFIED', 'UNSPECIFIED', 'UNSPECIFIED', ('UNSPECIFIED'), ('UNSPECIFIED'), ('UNSPECIFIED') ) ;
#154 = PRODUCT ( '20231-E0W', '20231-E0W', '', ( #155 ) ) ;
#155 = MECHANICAL_CONTEXT ( 'NONE', #143, 'mechanical' ) ;
#156 = ADVANCED_BREP_SHAPE_REPRESENTATION ( '20231-E0W', ( #1, #107 ), #157 ) ;
#157 =( GEOMETRIC_REPRESENTATION_CONTEXT ( 3 ) GLOBAL_UNCERTAINTY_ASSIGNED_CONTEXT ( ( #103 ) ) GLOBAL_UNIT_ASSIGNED_CONTEXT ( ( #108, #105, #104 ) ) REPRESENTATION_CONTEXT ( 'NONE', 'WORKASPACE' ) );
#158 = LOCAL_TIME ( 16, 13, 26.00000000000000000, #159 ) ;
#159 = COORDINATED_UNIVERSAL_TIME_OFFSET ( 5, 0, .BEHIND. ) ;
#160 = CC_DESIGN_PERSON_AND_ORGANIZATION_ASSIGNMENT ( #162, #161, ( #186 ) ) ;
#161 = PERSON_AND_ORGANIZATION_ROLE ( 'creator' ) ;
#162 = PERSON_AND_ORGANIZATION ( #153, #152 ) ;
#163 = CC_DESIGN_APPROVAL ( #183, ( #186 ) ) ;
#164 = APPROVAL_DATE_TIME ( #165, #183 ) ;
#165 = DATE_AND_TIME ( #166, #167 ) ;
#166 = CALENDAR_DATE ( 2009, 14, 9 ) ;
#167 = LOCAL_TIME ( 16, 13, 26.00000000000000000, #168 ) ;
#168 = COORDINATED_UNIVERSAL_TIME_OFFSET ( 5, 0, .BEHIND. ) ;
#169 = DIRECTION ( 'NONE',  ( 0.0000000000000000000, -1.000000000000000000, -1.878145495644181100E-016 ) ) ;
#170 = DIRECTION ( 'NONE',  ( 0.0000000000000000000, -1.836909530733566100E-016, 1.000000000000000000 ) ) ;
#171 = CARTESIAN_POINT ( 'NONE',  ( 0.0000000000000000000, 6.331748100849065900E-016, -1.446956964897718700 ) ) ;
#172 = AXIS2_PLACEMENT_3D ( 'NONE', #171, #170, #169 ) ;
#173 = CIRCLE ( 'NONE', #172, 12.69999999999999900 ) ;
#174 = CIRCLE ( 'NONE', #176, 12.69999999999999900 ) ;
#175 = AXIS2_PLACEMENT_3D ( 'NONE', #114, #132, #131 ) ;
#176 = AXIS2_PLACEMENT_3D ( 'NONE', #117, #116, #115 ) ;
#177 = LINE ( 'NONE', #100, #99 ) ;
#178 = CARTESIAN_POINT ( 'NONE',  ( 0.0000000000000000000, 0.0000000000000000000, 120.9769999999999900 ) ) ;
#179 = FACE_OUTER_BOUND ( 'NONE', #67, .T. ) ;
#180 = CARTESIAN_POINT ( 'NONE',  ( 0.0000000000000000000, 12.69999999999997100, 2.679761955318661100 ) ) ;
#181 = APPROVAL_PERSON_ORGANIZATION ( #185, #183, #182 ) ;
#182 = APPROVAL_ROLE ( '' ) ;
#183 = APPROVAL ( #184, 'UNSPECIFIED' ) ;
#184 = APPROVAL_STATUS ( 'not_yet_approved' ) ;
#185 = PERSON_AND_ORGANIZATION ( #153, #152 ) ;
#186 = PRODUCT_DEFINITION ( 'UNKNOWN', '', #19, #187 ) ;
#187 = DESIGN_CONTEXT ( 'detailed design', #189, 'design' ) ;
#188 = APPLICATION_PROTOCOL_DEFINITION ( 'international standard', 'config_control_design', 1994, #189 ) ;
#189 = APPLICATION_CONTEXT ( 'configuration controlled 3d designs of mechanical parts and assemblies' ) ;
#190 = CC_DESIGN_PERSON_AND_ORGANIZATION_ASSIGNMENT ( #151, #191, ( #154 ) ) ;
#191 = PERSON_AND_ORGANIZATION_ROLE ( 'design_owner' ) ;
#192 = DIRECTION ( 'NONE',  ( 0.0000000000000000000, -1.836909530733566100E-016, 1.000000000000000000 ) ) ;
#193 = CARTESIAN_POINT ( 'NONE',  ( 0.0000000000000000000, -1.248661214354930300E-016, 2.679761955318659300 ) ) ;
#194 = FACE_OUTER_BOUND ( 'NONE', #59, .T. ) ;
#195 = CIRCLE ( 'NONE', #97, 12.70000000000000100 ) ;
#196 = DIRECTION ( 'NONE',  ( -1.224606353822377000E-016, -1.000000000000000000, 0.0000000000000000000 ) ) ;
#197 = DIRECTION ( 'NONE',  ( -1.000000000000000000, 1.224606353822377300E-016, 2.249491082733206400E-032 ) ) ;
#198 = FACE_OUTER_BOUND ( 'NONE', #5, .T. ) ;
#199 = PERSON_AND_ORGANIZATION ( #153, #152 ) ;
#200 = LOCAL_TIME ( 16, 13, 26.00000000000000000, #201 ) ;
#201 = COORDINATED_UNIVERSAL_TIME_OFFSET ( 5, 0, .BEHIND. ) ;
#202 = CC_DESIGN_DATE_AND_TIME_ASSIGNMENT ( #204, #203, ( #225 ) ) ;
#203 = DATE_TIME_ROLE ( 'classification_date' ) ;
#204 = DATE_AND_TIME ( #205, #200 ) ;
#205 = CALENDAR_DATE ( 2009, 14, 9 ) ;
#206 = PRODUCT_DEFINITION_SHAPE ( 'NONE', 'NONE',  #186 ) ;
#207 = PRODUCT_RELATED_PRODUCT_CATEGORY ( 'detail', '', ( #154 ) ) ;
#208 = PERSON_AND_ORGANIZATION_ROLE ( 'classification_officer' ) ;
#209 = PERSON_AND_ORGANIZATION ( #153, #152 ) ;
#210 = CC_DESIGN_SECURITY_CLASSIFICATION ( #225, ( #19 ) ) ;
#211 = CC_DESIGN_APPROVAL ( #220, ( #225 ) ) ;
#212 = APPROVAL_DATE_TIME ( #215, #220 ) ;
#213 = APPROVAL_STATUS ( 'not_yet_approved' ) ;
#214 = CC_DESIGN_PERSON_AND_ORGANIZATION_ASSIGNMENT ( #226, #227, ( #19 ) ) ;
#215 = DATE_AND_TIME ( #216, #217 ) ;
#216 = CALENDAR_DATE ( 2009, 14, 9 ) ;
#217 = LOCAL_TIME ( 16, 13, 26.00000000000000000, #221 ) ;
#218 = SECURITY_CLASSIFICATION_LEVEL ( 'unclassified' ) ;
#219 = APPROVAL_ROLE ( '' ) ;
#220 = APPROVAL ( #213, 'UNSPECIFIED' ) ;
#221 = COORDINATED_UNIVERSAL_TIME_OFFSET ( 5, 0, .BEHIND. ) ;
#222 = APPROVAL_PERSON_ORGANIZATION ( #199, #220, #219 ) ;
#223 = SHAPE_DEFINITION_REPRESENTATION ( #206, #156 ) ;
#224 = CC_DESIGN_PERSON_AND_ORGANIZATION_ASSIGNMENT ( #209, #208, ( #225 ) ) ;
#225 = SECURITY_CLASSIFICATION ( '', '', #218 ) ;
#226 = PERSON_AND_ORGANIZATION ( #153, #152 ) ;
#227 = PERSON_AND_ORGANIZATION_ROLE ( 'design_supplier' ) ;
ENDSEC;
END-ISO-10303-21;
