ISO-10303-21;
HEADER;
FILE_DESCRIPTION (( 'STEP AP203' ),
    '1' );
FILE_NAME ('4311-E0W.STEP',
    '2015-06-17T20:43:41',
    ( 'admin' ),
    ( '' ),
    'SwSTEP 2.0',
    'SolidWorks 2014',
    '' );
FILE_SCHEMA (( 'CONFIG_CONTROL_DESIGN' ));
ENDSEC;

DATA;
#1 = ADVANCED_FACE ( 'NONE', ( #219 ), #169, .T. ) ;
#2 = CARTESIAN_POINT ( 'NONE',  ( 0.0000000000000000000, 0.0000000000000000000, 0.6717281178452959600 ) ) ;
#3 = CALENDAR_DATE ( 2015, 17, 6 ) ;
#4 = AXIS2_PLACEMENT_3D ( 'NONE', #181, #331, #195 ) ;
#5 = DATE_AND_TIME ( #340, #95 ) ;
#6 = CARTESIAN_POINT ( 'NONE',  ( 0.0000000000000000000, 0.0000000000000000000, -0.6717281178452994000 ) ) ;
#7 = SECURITY_CLASSIFICATION ( '', '', #316 ) ;
#8 = APPROVAL_PERSON_ORGANIZATION ( #206, #198, #156 ) ;
#9 = DIRECTION ( 'NONE',  ( -0.0000000000000000000, -0.0000000000000000000, 1.000000000000000000 ) ) ;
#10 = DIRECTION ( 'NONE',  ( -1.224646799147353500E-016, -1.000000000000000000, 0.0000000000000000000 ) ) ;
#11 = ORIENTED_EDGE ( 'NONE', *, *, #301, .F. ) ;
#12 = ORIENTED_EDGE ( 'NONE', *, *, #339, .F. ) ;
#13 = CARTESIAN_POINT ( 'NONE',  ( 0.0000000000000000000, 0.0000000000000000000, 1.008898763465753600 ) ) ;
#14 = PRODUCT_DEFINITION ( 'UNKNOWN', '', #283, #147 ) ;
#15 = FACE_OUTER_BOUND ( 'NONE', #249, .T. ) ;
#16 = ORIENTED_EDGE ( 'NONE', *, *, #128, .T. ) ;
#17 = DIRECTION ( 'NONE',  ( 0.0000000000000000000, 1.000000000000000000, 0.0000000000000000000 ) ) ;
#18 = DATE_AND_TIME ( #3, #329 ) ;
#19 =( LENGTH_UNIT ( ) NAMED_UNIT ( * ) SI_UNIT ( .MILLI., .METRE. ) );
#20 = CARTESIAN_POINT ( 'NONE',  ( 0.0000000000000000000, 0.0000000000000000000, -0.6717281178452994000 ) ) ;
#21 = LINE ( 'NONE', #244, #48 ) ;
#22 = DIRECTION ( 'NONE',  ( 1.000000000000000000, 0.0000000000000000000, 0.0000000000000000000 ) ) ;
#23 = CARTESIAN_POINT ( 'NONE',  ( -6.349999999999999600, 7.776507174585692200E-016, -0.6717281178452994000 ) ) ;
#24 = DIRECTION ( 'NONE',  ( 1.000000000000000000, 0.0000000000000000000, 0.0000000000000000000 ) ) ;
#25 = ADVANCED_FACE ( 'NONE', ( #348 ), #332, .T. ) ;
#26 = CIRCLE ( 'NONE', #52, 6.349999999999999600 ) ;
#27 = ORIENTED_EDGE ( 'NONE', *, *, #165, .T. ) ;
#28 = SPHERICAL_SURFACE ( 'NONE', #364, 17.69999999999999900 ) ;
#29 = DIRECTION ( 'NONE',  ( -1.000000000000000000, 0.0000000000000000000, 0.0000000000000000000 ) ) ;
#30 = DIRECTION ( 'NONE',  ( 0.0000000000000000000, 0.0000000000000000000, -1.000000000000000000 ) ) ;
#31 = ORIENTED_EDGE ( 'NONE', *, *, #350, .T. ) ;
#32 = DIRECTION ( 'NONE',  ( -1.000000000000000000, 1.224646799147353200E-016, 0.0000000000000000000 ) ) ;
#33 = AXIS2_PLACEMENT_3D ( 'NONE', #6, #355, #200 ) ;
#34 = DATE_AND_TIME ( #170, #116 ) ;
#35 = CARTESIAN_POINT ( 'NONE',  ( 0.0000000000000000000, 0.0000000000000000000, -15.60000000000000000 ) ) ;
#36 = DIRECTION ( 'NONE',  ( -0.0000000000000000000, -0.0000000000000000000, 1.000000000000000000 ) ) ;
#37 = DIRECTION ( 'NONE',  ( -1.000000000000000000, 0.0000000000000000000, 0.0000000000000000000 ) ) ;
#38 = DIRECTION ( 'NONE',  ( 1.000000000000000000, 0.0000000000000000000, 0.0000000000000000000 ) ) ;
#39 = AXIS2_PLACEMENT_3D ( 'NONE', #58, #70, #264 ) ;
#40 = DATE_AND_TIME ( #282, #269 ) ;
#41 = APPROVAL_ROLE ( '' ) ;
#42 = ORIENTED_EDGE ( 'NONE', *, *, #66, .T. ) ;
#43 = COORDINATED_UNIVERSAL_TIME_OFFSET ( 5, 0, .BEHIND. ) ;
#44 = AXIS2_PLACEMENT_3D ( 'NONE', #125, #61, #10 ) ;
#45 = VERTEX_POINT ( 'NONE', #23 ) ;
#46 = DATE_AND_TIME ( #178, #163 ) ;
#47 = DIRECTION ( 'NONE',  ( -0.0000000000000000000, -0.0000000000000000000, 1.000000000000000000 ) ) ;
#48 = VECTOR ( 'NONE', #279, 1000.000000000000000 ) ;
#49 = CARTESIAN_POINT ( 'NONE',  ( 0.0000000000000000000, 0.0000000000000000000, -1.008898763465746700 ) ) ;
#50 = CIRCLE ( 'NONE', #215, 17.69999999999999600 ) ;
#51 = ORIENTED_EDGE ( 'NONE', *, *, #350, .F. ) ;
#52 = AXIS2_PLACEMENT_3D ( 'NONE', #253, #36, #54 ) ;
#53 = CARTESIAN_POINT ( 'NONE',  ( -6.118372484978821500, 7.634676227153121800E-016, -1.008898763465746700 ) ) ;
#54 = DIRECTION ( 'NONE',  ( 1.000000000000000000, 0.0000000000000000000, 0.0000000000000000000 ) ) ;
#55 = AXIS2_PLACEMENT_3D ( 'NONE', #318, #143, #261 ) ;
#56 = DIRECTION ( 'NONE',  ( -0.0000000000000000000, -0.0000000000000000000, 1.000000000000000000 ) ) ;
#57 = CIRCLE ( 'NONE', #60, 6.118372484978814400 ) ;
#58 = CARTESIAN_POINT ( 'NONE',  ( 0.0000000000000000000, 0.0000000000000000000, 1.008898763465753600 ) ) ;
#59 = ORIENTED_EDGE ( 'NONE', *, *, #284, .F. ) ;
#60 = AXIS2_PLACEMENT_3D ( 'NONE', #84, #56, #207 ) ;
#61 = DIRECTION ( 'NONE',  ( -1.000000000000000000, 1.224646799147353200E-016, 0.0000000000000000000 ) ) ;
#62 = AXIS2_PLACEMENT_3D ( 'NONE', #144, #289, #175 ) ;
#63 = ORIENTED_EDGE ( 'NONE', *, *, #168, .F. ) ;
#64 = CC_DESIGN_APPROVAL ( #190, ( #14 ) ) ;
#65 = ORIENTED_EDGE ( 'NONE', *, *, #158, .T. ) ;
#66 = EDGE_CURVE ( 'NONE', #334, #304, #140, .T. ) ;
#67 = DIRECTION ( 'NONE',  ( -1.224646799147353500E-016, -1.000000000000000000, 0.0000000000000000000 ) ) ;
#68 = CARTESIAN_POINT ( 'NONE',  ( 0.0000000000000000000, 0.0000000000000000000, -1.008898763465746700 ) ) ;
#69 = DIRECTION ( 'NONE',  ( -1.000000000000000000, 0.0000000000000000000, 0.0000000000000000000 ) ) ;
#70 = DIRECTION ( 'NONE',  ( 0.0000000000000000000, 0.0000000000000000000, -1.000000000000000000 ) ) ;
#71 = PERSON_AND_ORGANIZATION ( #129, #313 ) ;
#72 = PERSON_AND_ORGANIZATION_ROLE ( 'design_owner' ) ;
#73 = ADVANCED_FACE ( 'NONE', ( #15 ), #28, .T. ) ;
#74 = CYLINDRICAL_SURFACE ( 'NONE', #62, 6.349999999999999600 ) ;
#75 = PRODUCT ( '4311-E0W', '4311-E0W', '', ( #223 ) ) ;
#76 = SPHERICAL_SURFACE ( 'NONE', #55, 17.69999999999999900 ) ;
#77 = ORIENTED_EDGE ( 'NONE', *, *, #148, .F. ) ;
#78 = EDGE_LOOP ( 'NONE', ( #11, #205, #347, #51, #108 ) ) ;
#79 = AXIS2_PLACEMENT_3D ( 'NONE', #49, #139, #38 ) ;
#80 = DIRECTION ( 'NONE',  ( 0.0000000000000000000, 0.0000000000000000000, -1.000000000000000000 ) ) ;
#81 = FACE_OUTER_BOUND ( 'NONE', #199, .T. ) ;
#82 = ORIENTED_EDGE ( 'NONE', *, *, #233, .T. ) ;
#83 = DIRECTION ( 'NONE',  ( -0.0000000000000000000, -0.0000000000000000000, 1.000000000000000000 ) ) ;
#84 = CARTESIAN_POINT ( 'NONE',  ( 0.0000000000000000000, 0.0000000000000000000, 1.008898763465757100 ) ) ;
#85 = CC_DESIGN_PERSON_AND_ORGANIZATION_ASSIGNMENT ( #349, #72, ( #75 ) ) ;
#86 = LINE ( 'NONE', #274, #270 ) ;
#87 = VERTEX_POINT ( 'NONE', #53 ) ;
#88 = AXIS2_PLACEMENT_3D ( 'NONE', #124, #212, #299 ) ;
#89 = CARTESIAN_POINT ( 'NONE',  ( 6.118372484978821500, 0.0000000000000000000, -1.008898763465746700 ) ) ;
#90 = EDGE_CURVE ( 'NONE', #354, #220, #227, .T. ) ;
#91 = CONICAL_SURFACE ( 'NONE', #39, 6.118372484978814400, 0.6019301772506452400 ) ;
#92 = EDGE_CURVE ( 'NONE', #150, #114, #171, .T. ) ;
#93 = CARTESIAN_POINT ( 'NONE',  ( 6.118372484978814400, 7.634676227153117900E-016, 1.008898763465757100 ) ) ;
#94 = AXIS2_PLACEMENT_3D ( 'NONE', #328, #330, #69 ) ;
#95 = LOCAL_TIME ( 16, 43, 41.00000000000000000, #259 ) ;
#96 = DIRECTION ( 'NONE',  ( 1.000000000000000000, -0.0000000000000000000, 0.0000000000000000000 ) ) ;
#97 = VERTEX_POINT ( 'NONE', #174 ) ;
#98 = ORIENTED_EDGE ( 'NONE', *, *, #110, .F. ) ;
#99 = CARTESIAN_POINT ( 'NONE',  ( 6.118372484978814400, 7.492845279720542600E-016, 1.008898763465753600 ) ) ;
#100 = ADVANCED_FACE ( 'NONE', ( #247 ), #197, .T. ) ;
#101 = VERTEX_POINT ( 'NONE', #185 ) ;
#102 = ORIENTED_EDGE ( 'NONE', *, *, #339, .T. ) ;
#103 = EDGE_CURVE ( 'NONE', #101, #334, #204, .T. ) ;
#104 = LINE ( 'NONE', #322, #154 ) ;
#105 = DIRECTION ( 'NONE',  ( 0.0000000000000000000, 1.000000000000000000, 0.0000000000000000000 ) ) ;
#106 = CARTESIAN_POINT ( 'NONE',  ( -6.118372484978814400, 0.0000000000000000000, 1.008898763465753600 ) ) ;
#107 = FACE_OUTER_BOUND ( 'NONE', #177, .T. ) ;
#108 = ORIENTED_EDGE ( 'NONE', *, *, #226, .F. ) ;
#109 = ORIENTED_EDGE ( 'NONE', *, *, #66, .F. ) ;
#110 = EDGE_CURVE ( 'NONE', #101, #114, #191, .T. ) ;
#111 = CIRCLE ( 'NONE', #88, 6.118372484978821500 ) ;
#112 = ORIENTED_EDGE ( 'NONE', *, *, #148, .T. ) ;
#113 = ORIENTED_EDGE ( 'NONE', *, *, #142, .T. ) ;
#114 = VERTEX_POINT ( 'NONE', #266 ) ;
#115 = CARTESIAN_POINT ( 'NONE',  ( 6.349999999999999600, 0.0000000000000000000, 0.6717281178452959600 ) ) ;
#116 = LOCAL_TIME ( 16, 43, 41.00000000000000000, #255 ) ;
#117 = CARTESIAN_POINT ( 'NONE',  ( 0.0000000000000000000, 0.0000000000000000000, 0.6717281178452959600 ) ) ;
#118 = CC_DESIGN_SECURITY_CLASSIFICATION ( #7, ( #283 ) ) ;
#119 = DIRECTION ( 'NONE',  ( 1.000000000000000000, 0.0000000000000000000, 0.0000000000000000000 ) ) ;
#120 = CIRCLE ( 'NONE', #251, 6.118372484978814400 ) ;
#121 = ORIENTED_EDGE ( 'NONE', *, *, #226, .T. ) ;
#122 = ORIENTED_EDGE ( 'NONE', *, *, #90, .T. ) ;
#123 = AXIS2_PLACEMENT_3D ( 'NONE', #337, #342, #105 ) ;
#124 = CARTESIAN_POINT ( 'NONE',  ( 0.0000000000000000000, 0.0000000000000000000, -1.008898763465746700 ) ) ;
#125 = CARTESIAN_POINT ( 'NONE',  ( 0.0000000000000000000, 0.0000000000000000000, 15.60000000000000000 ) ) ;
#126 = APPLICATION_PROTOCOL_DEFINITION ( 'international standard', 'config_control_design', 1994, #153 ) ;
#127 = ADVANCED_FACE ( 'NONE', ( #358 ), #338, .T. ) ;
#128 = EDGE_CURVE ( 'NONE', #132, #45, #26, .T. ) ;
#129 = PERSON ( 'UNSPECIFIED', 'UNSPECIFIED', 'UNSPECIFIED', ('UNSPECIFIED'), ('UNSPECIFIED'), ('UNSPECIFIED') ) ;
#130 = VECTOR ( 'NONE', #276, 1000.000000000000000 ) ;
#131 = APPLICATION_CONTEXT ( 'configuration controlled 3d designs of mechanical parts and assemblies' ) ;
#132 = VERTEX_POINT ( 'NONE', #202 ) ;
#133 = APPROVAL_DATE_TIME ( #34, #190 ) ;
#134 = AXIS2_PLACEMENT_3D ( 'NONE', #196, #145, #24 ) ;
#135 = CARTESIAN_POINT ( 'NONE',  ( 0.0000000000000000000, 6.118372484978809000, 1.008898763465755400 ) ) ;
#136 = ORIENTED_EDGE ( 'NONE', *, *, #92, .F. ) ;
#137 = DIRECTION ( 'NONE',  ( -1.000000000000000000, 0.0000000000000000000, 0.0000000000000000000 ) ) ;
#138 = EDGE_LOOP ( 'NONE', ( #16, #160, #112, #333 ) ) ;
#139 = DIRECTION ( 'NONE',  ( 0.0000000000000000000, 0.0000000000000000000, -1.000000000000000000 ) ) ;
#140 = CIRCLE ( 'NONE', #213, 17.69999999999999900 ) ;
#141 = PERSON_AND_ORGANIZATION_ROLE ( 'creator' ) ;
#142 = EDGE_CURVE ( 'NONE', #354, #97, #179, .T. ) ;
#143 = DIRECTION ( 'NONE',  ( -1.000000000000000000, 0.0000000000000000000, 0.0000000000000000000 ) ) ;
#144 = CARTESIAN_POINT ( 'NONE',  ( 0.0000000000000000000, 0.0000000000000000000, 2.100000000000000100 ) ) ;
#145 = DIRECTION ( 'NONE',  ( 0.0000000000000000000, 0.0000000000000000000, 1.000000000000000000 ) ) ;
#146 = PERSON_AND_ORGANIZATION ( #129, #313 ) ;
#147 = DESIGN_CONTEXT ( 'detailed design', #153, 'design' ) ;
#148 = EDGE_CURVE ( 'NONE', #114, #150, #208, .T. ) ;
#149 = CLOSED_SHELL ( 'NONE', ( #187, #1, #127, #306, #73, #341, #241, #217, #25, #100 ) ) ;
#150 = VERTEX_POINT ( 'NONE', #115 ) ;
#151 = APPROVAL_PERSON_ORGANIZATION ( #71, #257, #41 ) ;
#152 = DIRECTION ( 'NONE',  ( -1.000000000000000000, 0.0000000000000000000, 0.0000000000000000000 ) ) ;
#153 = APPLICATION_CONTEXT ( 'configuration controlled 3d designs of mechanical parts and assemblies' ) ;
#154 = VECTOR ( 'NONE', #296, 1000.000000000000000 ) ;
#155 = ORIENTED_EDGE ( 'NONE', *, *, #92, .T. ) ;
#156 = APPROVAL_ROLE ( '' ) ;
#157 = CC_DESIGN_PERSON_AND_ORGANIZATION_ASSIGNMENT ( #167, #141, ( #14 ) ) ;
#158 = EDGE_CURVE ( 'NONE', #132, #150, #86, .T. ) ;
#159 = DIRECTION ( 'NONE',  ( 0.0000000000000000000, 0.0000000000000000000, -1.000000000000000000 ) ) ;
#160 = ORIENTED_EDGE ( 'NONE', *, *, #311, .T. ) ;
#161 = ORIENTED_EDGE ( 'NONE', *, *, #301, .T. ) ;
#162 = EDGE_CURVE ( 'NONE', #97, #87, #258, .T. ) ;
#163 = LOCAL_TIME ( 16, 43, 41.00000000000000000, #225 ) ;
#164 = ADVANCED_BREP_SHAPE_REPRESENTATION ( '4311-E0W', ( #216, #134 ), #194 ) ;
#165 = EDGE_CURVE ( 'NONE', #238, #97, #111, .T. ) ;
#166 = ORIENTED_EDGE ( 'NONE', *, *, #168, .T. ) ;
#167 = PERSON_AND_ORGANIZATION ( #129, #313 ) ;
#168 = EDGE_CURVE ( 'NONE', #243, #150, #265, .T. ) ;
#169 = CONICAL_SURFACE ( 'NONE', #363, 6.349999999999999600, 0.6019301772506429100 ) ;
#170 = CALENDAR_DATE ( 2015, 17, 6 ) ;
#171 = CIRCLE ( 'NONE', #281, 6.349999999999999600 ) ;
#172 = PRODUCT_RELATED_PRODUCT_CATEGORY ( 'detail', '', ( #75 ) ) ;
#173 = ORIENTED_EDGE ( 'NONE', *, *, #103, .F. ) ;
#174 = CARTESIAN_POINT ( 'NONE',  ( -7.492845279720557400E-016, -6.118372484978826800, -1.008898763465746700 ) ) ;
#175 = DIRECTION ( 'NONE',  ( 1.000000000000000000, 0.0000000000000000000, 0.0000000000000000000 ) ) ;
#176 = CYLINDRICAL_SURFACE ( 'NONE', #4, 6.349999999999999600 ) ;
#177 = EDGE_LOOP ( 'NONE', ( #182, #82, #65, #155 ) ) ;
#178 = CALENDAR_DATE ( 2015, 17, 6 ) ;
#179 = CIRCLE ( 'NONE', #44, 17.69999999999999900 ) ;
#180 = ORIENTED_EDGE ( 'NONE', *, *, #110, .T. ) ;
#181 = CARTESIAN_POINT ( 'NONE',  ( 0.0000000000000000000, 0.0000000000000000000, 2.100000000000000100 ) ) ;
#182 = ORIENTED_EDGE ( 'NONE', *, *, #311, .F. ) ;
#183 = CARTESIAN_POINT ( 'NONE',  ( 0.0000000000000000000, 0.0000000000000000000, -15.60000000000000000 ) ) ;
#184 = DIRECTION ( 'NONE',  ( -1.000000000000000000, 0.0000000000000000000, 0.0000000000000000000 ) ) ;
#185 = CARTESIAN_POINT ( 'NONE',  ( -6.118372484978814400, 0.0000000000000000000, 1.008898763465757100 ) ) ;
#186 = CIRCLE ( 'NONE', #211, 6.118372484978814400 ) ;
#187 = ADVANCED_FACE ( 'NONE', ( #285 ), #91, .T. ) ;
#188 = ORIENTED_EDGE ( 'NONE', *, *, #221, .T. ) ;
#189 = PERSON_AND_ORGANIZATION ( #129, #313 ) ;
#190 = APPROVAL ( #343, 'UNSPECIFIED' ) ;
#191 = LINE ( 'NONE', #106, #130 ) ;
#192 = APPROVAL_DATE_TIME ( #5, #257 ) ;
#193 = DIRECTION ( 'NONE',  ( -1.000000000000000000, 0.0000000000000000000, 0.0000000000000000000 ) ) ;
#194 =( GEOMETRIC_REPRESENTATION_CONTEXT ( 3 ) GLOBAL_UNCERTAINTY_ASSIGNED_CONTEXT ( ( #323 ) ) GLOBAL_UNIT_ASSIGNED_CONTEXT ( ( #19, #293, #256 ) ) REPRESENTATION_CONTEXT ( 'NONE', 'WORKASPACE' ) );
#195 = DIRECTION ( 'NONE',  ( 1.000000000000000000, 0.0000000000000000000, 0.0000000000000000000 ) ) ;
#196 = CARTESIAN_POINT ( 'NONE',  ( 0.0000000000000000000, 0.0000000000000000000, 0.0000000000000000000 ) ) ;
#197 = CONICAL_SURFACE ( 'NONE', #246, 6.118372484978814400, 0.6019301772506452400 ) ;
#198 = APPROVAL ( #352, 'UNSPECIFIED' ) ;
#199 = EDGE_LOOP ( 'NONE', ( #109, #302, #290, #188 ) ) ;
#200 = DIRECTION ( 'NONE',  ( 1.000000000000000000, 0.0000000000000000000, 0.0000000000000000000 ) ) ;
#201 = DIRECTION ( 'NONE',  ( 0.0000000000000000000, 0.0000000000000000000, -1.000000000000000000 ) ) ;
#202 = CARTESIAN_POINT ( 'NONE',  ( 6.349999999999999600, 0.0000000000000000000, -0.6717281178452994000 ) ) ;
#203 = AXIS2_PLACEMENT_3D ( 'NONE', #237, #305, #272 ) ;
#204 = CIRCLE ( 'NONE', #94, 6.118372484978814400 ) ;
#205 = ORIENTED_EDGE ( 'NONE', *, *, #284, .T. ) ;
#206 = PERSON_AND_ORGANIZATION ( #129, #313 ) ;
#207 = DIRECTION ( 'NONE',  ( -1.000000000000000000, 0.0000000000000000000, 0.0000000000000000000 ) ) ;
#208 = CIRCLE ( 'NONE', #345, 6.349999999999999600 ) ;
#209 = ORIENTED_EDGE ( 'NONE', *, *, #103, .T. ) ;
#210 = EDGE_LOOP ( 'NONE', ( #59, #260, #271, #31, #224 ) ) ;
#211 = AXIS2_PLACEMENT_3D ( 'NONE', #218, #307, #152 ) ;
#212 = DIRECTION ( 'NONE',  ( 0.0000000000000000000, 0.0000000000000000000, -1.000000000000000000 ) ) ;
#213 = AXIS2_PLACEMENT_3D ( 'NONE', #303, #32, #67 ) ;
#214 = CARTESIAN_POINT ( 'NONE',  ( 0.0000000000000000000, 0.0000000000000000000, 1.008898763465757100 ) ) ;
#215 = AXIS2_PLACEMENT_3D ( 'NONE', #183, #96, #159 ) ;
#216 = MANIFOLD_SOLID_BREP ( '4311-001-1-solid1', #149 ) ;
#217 = ADVANCED_FACE ( 'NONE', ( #280 ), #346, .T. ) ;
#218 = CARTESIAN_POINT ( 'NONE',  ( 0.0000000000000000000, 0.0000000000000000000, 1.008898763465757100 ) ) ;
#219 = FACE_OUTER_BOUND ( 'NONE', #78, .T. ) ;
#220 = VERTEX_POINT ( 'NONE', #236 ) ;
#221 = EDGE_CURVE ( 'NONE', #232, #304, #50, .T. ) ;
#222 = ORIENTED_EDGE ( 'NONE', *, *, #90, .F. ) ;
#223 = MECHANICAL_CONTEXT ( 'NONE', #131, 'mechanical' ) ;
#224 = ORIENTED_EDGE ( 'NONE', *, *, #233, .F. ) ;
#225 = COORDINATED_UNIVERSAL_TIME_OFFSET ( 5, 0, .BEHIND. ) ;
#226 = EDGE_CURVE ( 'NONE', #220, #238, #353, .T. ) ;
#227 = CIRCLE ( 'NONE', #361, 17.69999999999999900 ) ;
#228 = DIRECTION ( 'NONE',  ( 1.000000000000000000, 0.0000000000000000000, 0.0000000000000000000 ) ) ;
#229 = COORDINATED_UNIVERSAL_TIME_OFFSET ( 5, 0, .BEHIND. ) ;
#230 = CARTESIAN_POINT ( 'NONE',  ( 0.0000000000000000000, 0.0000000000000000000, 15.60000000000000000 ) ) ;
#231 = VECTOR ( 'NONE', #252, 1000.000000000000000 ) ;
#232 = VERTEX_POINT ( 'NONE', #135 ) ;
#233 = EDGE_CURVE ( 'NONE', #45, #132, #278, .T. ) ;
#234 = CC_DESIGN_APPROVAL ( #198, ( #283 ) ) ;
#235 = LINE ( 'NONE', #298, #242 ) ;
#236 = CARTESIAN_POINT ( 'NONE',  ( 0.0000000000000000000, 6.118372484978826800, -1.008898763465746700 ) ) ;
#237 = CARTESIAN_POINT ( 'NONE',  ( 0.0000000000000000000, 0.0000000000000000000, 15.60000000000000000 ) ) ;
#238 = VERTEX_POINT ( 'NONE', #89 ) ;
#239 = PERSON_AND_ORGANIZATION ( #129, #313 ) ;
#240 = CARTESIAN_POINT ( 'NONE',  ( 0.0000000000000000000, 1.083812417245407700E-015, -2.100000000000001000 ) ) ;
#241 = ADVANCED_FACE ( 'NONE', ( #107 ), #176, .T. ) ;
#242 = VECTOR ( 'NONE', #292, 1000.000000000000000 ) ;
#243 = VERTEX_POINT ( 'NONE', #93 ) ;
#244 = CARTESIAN_POINT ( 'NONE',  ( -6.349999999999999600, 7.776507174585692200E-016, 2.100000000000000100 ) ) ;
#245 = CARTESIAN_POINT ( 'NONE',  ( 0.0000000000000000000, 1.083812417245407700E-015, 2.100000000000001000 ) ) ;
#246 = AXIS2_PLACEMENT_3D ( 'NONE', #13, #80, #37 ) ;
#247 = FACE_OUTER_BOUND ( 'NONE', #273, .T. ) ;
#248 = CC_DESIGN_DATE_AND_TIME_ASSIGNMENT ( #18, #277, ( #14 ) ) ;
#249 = EDGE_LOOP ( 'NONE', ( #102, #209, #42, #365 ) ) ;
#250 = DIRECTION ( 'NONE',  ( 0.0000000000000000000, 0.0000000000000000000, -1.000000000000000000 ) ) ;
#251 = AXIS2_PLACEMENT_3D ( 'NONE', #214, #47, #137 ) ;
#252 = DIRECTION ( 'NONE',  ( 0.5662344646226940000, 6.934372246670974100E-017, -0.8242442181013168700 ) ) ;
#253 = CARTESIAN_POINT ( 'NONE',  ( 0.0000000000000000000, 0.0000000000000000000, -0.6717281178452994000 ) ) ;
#254 = EDGE_LOOP ( 'NONE', ( #222, #113, #362, #161 ) ) ;
#255 = COORDINATED_UNIVERSAL_TIME_OFFSET ( 5, 0, .BEHIND. ) ;
#256 =( NAMED_UNIT ( * ) SI_UNIT ( $, .STERADIAN. ) SOLID_ANGLE_UNIT ( ) );
#257 = APPROVAL ( #314, 'UNSPECIFIED' ) ;
#258 = CIRCLE ( 'NONE', #79, 6.118372484978821500 ) ;
#259 = COORDINATED_UNIVERSAL_TIME_OFFSET ( 5, 0, .BEHIND. ) ;
#260 = ORIENTED_EDGE ( 'NONE', *, *, #162, .F. ) ;
#261 = DIRECTION ( 'NONE',  ( 0.0000000000000000000, 1.000000000000000000, 0.0000000000000000000 ) ) ;
#262 = PERSON_AND_ORGANIZATION_ROLE ( 'classification_officer' ) ;
#263 = APPROVAL_DATE_TIME ( #40, #198 ) ;
#264 = DIRECTION ( 'NONE',  ( -1.000000000000000000, 0.0000000000000000000, 0.0000000000000000000 ) ) ;
#265 = LINE ( 'NONE', #99, #231 ) ;
#266 = CARTESIAN_POINT ( 'NONE',  ( -6.349999999999999600, 7.776507174585692200E-016, 0.6717281178452959600 ) ) ;
#267 = ORIENTED_EDGE ( 'NONE', *, *, #326, .F. ) ;
#268 = AXIS2_PLACEMENT_3D ( 'NONE', #286, #201, #300 ) ;
#269 = LOCAL_TIME ( 16, 43, 41.00000000000000000, #43 ) ;
#270 = VECTOR ( 'NONE', #366, 1000.000000000000000 ) ;
#271 = ORIENTED_EDGE ( 'NONE', *, *, #165, .F. ) ;
#272 = DIRECTION ( 'NONE',  ( 0.0000000000000000000, 1.000000000000000000, 0.0000000000000000000 ) ) ;
#273 = EDGE_LOOP ( 'NONE', ( #63, #312, #173, #180, #136 ) ) ;
#274 = CARTESIAN_POINT ( 'NONE',  ( 6.349999999999999600, 0.0000000000000000000, 2.100000000000000100 ) ) ;
#275 = PERSON_AND_ORGANIZATION ( #129, #313 ) ;
#276 = DIRECTION ( 'NONE',  ( -0.5662344646226940000, 0.0000000000000000000, -0.8242442181013168700 ) ) ;
#277 = DATE_TIME_ROLE ( 'creation_date' ) ;
#278 = CIRCLE ( 'NONE', #33, 6.349999999999999600 ) ;
#279 = DIRECTION ( 'NONE',  ( -0.0000000000000000000, -0.0000000000000000000, 1.000000000000000000 ) ) ;
#280 = FACE_OUTER_BOUND ( 'NONE', #325, .T. ) ;
#281 = AXIS2_PLACEMENT_3D ( 'NONE', #2, #294, #193 ) ;
#282 = CALENDAR_DATE ( 2015, 17, 6 ) ;
#283 = PRODUCT_DEFINITION_FORMATION_WITH_SPECIFIED_SOURCE ( 'ANY', '', #75, .NOT_KNOWN. ) ;
#284 = EDGE_CURVE ( 'NONE', #87, #45, #235, .T. ) ;
#285 = FACE_OUTER_BOUND ( 'NONE', #295, .T. ) ;
#286 = CARTESIAN_POINT ( 'NONE',  ( 0.0000000000000000000, 0.0000000000000000000, -1.008898763465746700 ) ) ;
#287 = EDGE_CURVE ( 'NONE', #334, #243, #120, .T. ) ;
#288 = DIRECTION ( 'NONE',  ( 0.0000000000000000000, 0.0000000000000000000, -1.000000000000000000 ) ) ;
#289 = DIRECTION ( 'NONE',  ( -0.0000000000000000000, -0.0000000000000000000, 1.000000000000000000 ) ) ;
#290 = ORIENTED_EDGE ( 'NONE', *, *, #326, .T. ) ;
#291 = APPROVAL_PERSON_ORGANIZATION ( #275, #190, #351 ) ;
#292 = DIRECTION ( 'NONE',  ( -0.5662344646226921100, 6.934372246670950700E-017, 0.8242442181013180900 ) ) ;
#293 =( NAMED_UNIT ( * ) PLANE_ANGLE_UNIT ( ) SI_UNIT ( $, .RADIAN. ) );
#294 = DIRECTION ( 'NONE',  ( 0.0000000000000000000, 0.0000000000000000000, -1.000000000000000000 ) ) ;
#295 = EDGE_LOOP ( 'NONE', ( #267, #166, #77, #98, #12 ) ) ;
#296 = DIRECTION ( 'NONE',  ( 0.5662344646226921100, 0.0000000000000000000, 0.8242442181013180900 ) ) ;
#297 = CC_DESIGN_APPROVAL ( #257, ( #7 ) ) ;
#298 = CARTESIAN_POINT ( 'NONE',  ( -6.349999999999999600, 7.776507174585692200E-016, -0.6717281178452994000 ) ) ;
#299 = DIRECTION ( 'NONE',  ( 1.000000000000000000, 0.0000000000000000000, 0.0000000000000000000 ) ) ;
#300 = DIRECTION ( 'NONE',  ( 1.000000000000000000, 0.0000000000000000000, 0.0000000000000000000 ) ) ;
#301 = EDGE_CURVE ( 'NONE', #87, #220, #324, .T. ) ;
#302 = ORIENTED_EDGE ( 'NONE', *, *, #287, .T. ) ;
#303 = CARTESIAN_POINT ( 'NONE',  ( 0.0000000000000000000, 0.0000000000000000000, -15.60000000000000000 ) ) ;
#304 = VERTEX_POINT ( 'NONE', #245 ) ;
#305 = DIRECTION ( 'NONE',  ( -1.000000000000000000, 0.0000000000000000000, 0.0000000000000000000 ) ) ;
#306 = ADVANCED_FACE ( 'NONE', ( #310 ), #74, .T. ) ;
#307 = DIRECTION ( 'NONE',  ( -0.0000000000000000000, -0.0000000000000000000, 1.000000000000000000 ) ) ;
#308 = CC_DESIGN_PERSON_AND_ORGANIZATION_ASSIGNMENT ( #189, #319, ( #283 ) ) ;
#309 = ORIENTED_EDGE ( 'NONE', *, *, #142, .F. ) ;
#310 = FACE_OUTER_BOUND ( 'NONE', #138, .T. ) ;
#311 = EDGE_CURVE ( 'NONE', #45, #114, #21, .T. ) ;
#312 = ORIENTED_EDGE ( 'NONE', *, *, #287, .F. ) ;
#313 = ORGANIZATION ( 'UNSPECIFIED', 'UNSPECIFIED', '' ) ;
#314 = APPROVAL_STATUS ( 'not_yet_approved' ) ;
#315 = SHAPE_DEFINITION_REPRESENTATION ( #317, #164 ) ;
#316 = SECURITY_CLASSIFICATION_LEVEL ( 'unclassified' ) ;
#317 = PRODUCT_DEFINITION_SHAPE ( 'NONE', 'NONE',  #14 ) ;
#318 = CARTESIAN_POINT ( 'NONE',  ( 0.0000000000000000000, 0.0000000000000000000, -15.60000000000000000 ) ) ;
#319 = PERSON_AND_ORGANIZATION_ROLE ( 'design_supplier' ) ;
#320 = CC_DESIGN_PERSON_AND_ORGANIZATION_ASSIGNMENT ( #239, #335, ( #283 ) ) ;
#321 = CARTESIAN_POINT ( 'NONE',  ( 0.0000000000000000000, 0.0000000000000000000, -0.6717281178452994000 ) ) ;
#322 = CARTESIAN_POINT ( 'NONE',  ( 6.349999999999999600, 0.0000000000000000000, -0.6717281178452994000 ) ) ;
#323 = UNCERTAINTY_MEASURE_WITH_UNIT (LENGTH_MEASURE( 1.000000000000000100E-005 ), #19, 'distance_accuracy_value', 'NONE');
#324 = CIRCLE ( 'NONE', #268, 6.118372484978821500 ) ;
#325 = EDGE_LOOP ( 'NONE', ( #309, #122, #121, #27 ) ) ;
#326 = EDGE_CURVE ( 'NONE', #243, #232, #186, .T. ) ;
#327 = CARTESIAN_POINT ( 'NONE',  ( -7.492845279720535700E-016, -6.118372484978809000, 1.008898763465755400 ) ) ;
#328 = CARTESIAN_POINT ( 'NONE',  ( 0.0000000000000000000, 0.0000000000000000000, 1.008898763465757100 ) ) ;
#329 = LOCAL_TIME ( 16, 43, 41.00000000000000000, #229 ) ;
#330 = DIRECTION ( 'NONE',  ( -0.0000000000000000000, -0.0000000000000000000, 1.000000000000000000 ) ) ;
#331 = DIRECTION ( 'NONE',  ( -0.0000000000000000000, -0.0000000000000000000, 1.000000000000000000 ) ) ;
#332 = CONICAL_SURFACE ( 'NONE', #357, 6.349999999999999600, 0.6019301772506429100 ) ;
#333 = ORIENTED_EDGE ( 'NONE', *, *, #158, .F. ) ;
#334 = VERTEX_POINT ( 'NONE', #327 ) ;
#335 = PERSON_AND_ORGANIZATION_ROLE ( 'creator' ) ;
#336 = CC_DESIGN_DATE_AND_TIME_ASSIGNMENT ( #46, #356, ( #7 ) ) ;
#337 = CARTESIAN_POINT ( 'NONE',  ( 0.0000000000000000000, 0.0000000000000000000, 15.60000000000000000 ) ) ;
#338 = SPHERICAL_SURFACE ( 'NONE', #123, 17.69999999999999900 ) ;
#339 = EDGE_CURVE ( 'NONE', #232, #101, #57, .T. ) ;
#340 = CALENDAR_DATE ( 2015, 17, 6 ) ;
#341 = ADVANCED_FACE ( 'NONE', ( #81 ), #76, .T. ) ;
#342 = DIRECTION ( 'NONE',  ( -1.000000000000000000, 0.0000000000000000000, 0.0000000000000000000 ) ) ;
#343 = APPROVAL_STATUS ( 'not_yet_approved' ) ;
#344 = DIRECTION ( 'NONE',  ( 1.000000000000000000, 0.0000000000000000000, 0.0000000000000000000 ) ) ;
#345 = AXIS2_PLACEMENT_3D ( 'NONE', #117, #30, #29 ) ;
#346 = SPHERICAL_SURFACE ( 'NONE', #203, 17.69999999999999900 ) ;
#347 = ORIENTED_EDGE ( 'NONE', *, *, #128, .F. ) ;
#348 = FACE_OUTER_BOUND ( 'NONE', #210, .T. ) ;
#349 = PERSON_AND_ORGANIZATION ( #129, #313 ) ;
#350 = EDGE_CURVE ( 'NONE', #238, #132, #104, .T. ) ;
#351 = APPROVAL_ROLE ( '' ) ;
#352 = APPROVAL_STATUS ( 'not_yet_approved' ) ;
#353 = CIRCLE ( 'NONE', #367, 6.118372484978821500 ) ;
#354 = VERTEX_POINT ( 'NONE', #240 ) ;
#355 = DIRECTION ( 'NONE',  ( -0.0000000000000000000, -0.0000000000000000000, 1.000000000000000000 ) ) ;
#356 = DATE_TIME_ROLE ( 'classification_date' ) ;
#357 = AXIS2_PLACEMENT_3D ( 'NONE', #20, #83, #119 ) ;
#358 = FACE_OUTER_BOUND ( 'NONE', #254, .T. ) ;
#359 = CC_DESIGN_PERSON_AND_ORGANIZATION_ASSIGNMENT ( #146, #262, ( #7 ) ) ;
#360 = APPLICATION_PROTOCOL_DEFINITION ( 'international standard', 'config_control_design', 1994, #131 ) ;
#361 = AXIS2_PLACEMENT_3D ( 'NONE', #230, #22, #288 ) ;
#362 = ORIENTED_EDGE ( 'NONE', *, *, #162, .T. ) ;
#363 = AXIS2_PLACEMENT_3D ( 'NONE', #321, #9, #344 ) ;
#364 = AXIS2_PLACEMENT_3D ( 'NONE', #35, #184, #17 ) ;
#365 = ORIENTED_EDGE ( 'NONE', *, *, #221, .F. ) ;
#366 = DIRECTION ( 'NONE',  ( -0.0000000000000000000, -0.0000000000000000000, 1.000000000000000000 ) ) ;
#367 = AXIS2_PLACEMENT_3D ( 'NONE', #68, #250, #228 ) ;
ENDSEC;
END-ISO-10303-21;
