ISO-10303-21;
HEADER;
FILE_DESCRIPTION (( 'STEP AP203' ),
    '1' );
FILE_NAME ('Web Model 84460.STEP',
    '2017-02-01T15:45:20',
    ( '' ),
    ( '' ),
    'SwSTEP 2.0',
    'SolidWorks 2016',
    '' );
FILE_SCHEMA (( 'CONFIG_CONTROL_DESIGN' ));
ENDSEC;

DATA;
#1 = CIRCLE ( 'NONE', #172, 5.000000000000000000 ) ;
#2 = CALENDAR_DATE ( 2017, 1, 2 ) ;
#3 =( NAMED_UNIT ( * ) PLANE_ANGLE_UNIT ( ) SI_UNIT ( $, .RADIAN. ) );
#4 = CARTESIAN_POINT ( 'NONE',  ( 0.0000000000000000000, 0.0000000000000000000, -1.250000000000000000 ) ) ;
#5 = CARTESIAN_POINT ( 'NONE',  ( 0.0000000000000000000, 0.0000000000000000000, -1.250000000000000000 ) ) ;
#6 = AXIS2_PLACEMENT_3D ( 'NONE', #56, #115, #18 ) ;
#7 = LINE ( 'NONE', #174, #36 ) ;
#8 = COORDINATED_UNIVERSAL_TIME_OFFSET ( 5, 0, .BEHIND. ) ;
#9 = PERSON_AND_ORGANIZATION_ROLE ( 'creator' ) ;
#10 = DATE_TIME_ROLE ( 'classification_date' ) ;
#11 = DATE_AND_TIME ( #65, #68 ) ;
#12 = CARTESIAN_POINT ( 'NONE',  ( -5.000000000000000000, 6.123233995736766300E-016, -1.250000000000000000 ) ) ;
#13 = CC_DESIGN_APPROVAL ( #19, ( #168 ) ) ;
#14 = DATE_AND_TIME ( #46, #165 ) ;
#15 = ORIENTED_EDGE ( 'NONE', *, *, #161, .F. ) ;
#16 = APPROVAL_DATE_TIME ( #74, #131 ) ;
#17 = EDGE_LOOP ( 'NONE', ( #134, #82, #155, #137 ) ) ;
#18 = DIRECTION ( 'NONE',  ( 1.000000000000000000, 0.0000000000000000000, -0.0000000000000000000 ) ) ;
#19 = APPROVAL ( #21, 'UNSPECIFIED' ) ;
#20 = APPROVAL_STATUS ( 'not_yet_approved' ) ;
#21 = APPROVAL_STATUS ( 'not_yet_approved' ) ;
#22 = SECURITY_CLASSIFICATION ( '', '', #117 ) ;
#23 = ORIENTED_EDGE ( 'NONE', *, *, #153, .F. ) ;
#24 = VERTEX_POINT ( 'NONE', #12 ) ;
#25 = DATE_AND_TIME ( #97, #52 ) ;
#26 = ORIENTED_EDGE ( 'NONE', *, *, #129, .T. ) ;
#27 = LINE ( 'NONE', #34, #71 ) ;
#28 = VERTEX_POINT ( 'NONE', #175 ) ;
#29 = APPROVAL_DATE_TIME ( #78, #19 ) ;
#30 = APPROVAL_ROLE ( '' ) ;
#31 = FACE_OUTER_BOUND ( 'NONE', #40, .T. ) ;
#32 = DIRECTION ( 'NONE',  ( 1.000000000000000000, 0.0000000000000000000, 0.0000000000000000000 ) ) ;
#33 =( GEOMETRIC_REPRESENTATION_CONTEXT ( 3 ) GLOBAL_UNCERTAINTY_ASSIGNED_CONTEXT ( ( #125 ) ) GLOBAL_UNIT_ASSIGNED_CONTEXT ( ( #75, #3, #167 ) ) REPRESENTATION_CONTEXT ( 'NONE', 'WORKASPACE' ) );
#34 = CARTESIAN_POINT ( 'NONE',  ( 5.000000000000000000, 0.0000000000000000000, -1.250000000000000000 ) ) ;
#35 = DIRECTION ( 'NONE',  ( 1.000000000000000000, 0.0000000000000000000, -0.0000000000000000000 ) ) ;
#36 = VECTOR ( 'NONE', #150, 1000.000000000000000 ) ;
#37 = AXIS2_PLACEMENT_3D ( 'NONE', #4, #45, #114 ) ;
#38 = CYLINDRICAL_SURFACE ( 'NONE', #60, 5.000000000000000000 ) ;
#39 = COORDINATED_UNIVERSAL_TIME_OFFSET ( 5, 0, .BEHIND. ) ;
#40 = EDGE_LOOP ( 'NONE', ( #15, #23 ) ) ;
#41 = PERSON_AND_ORGANIZATION ( #130, #160 ) ;
#42 = DIRECTION ( 'NONE',  ( 0.0000000000000000000, 0.0000000000000000000, 1.000000000000000000 ) ) ;
#43 = CALENDAR_DATE ( 2017, 1, 2 ) ;
#44 = CARTESIAN_POINT ( 'NONE',  ( 0.0000000000000000000, 0.0000000000000000000, 0.0000000000000000000 ) ) ;
#45 = DIRECTION ( 'NONE',  ( 0.0000000000000000000, 0.0000000000000000000, 1.000000000000000000 ) ) ;
#46 = CALENDAR_DATE ( 2017, 1, 2 ) ;
#47 = CC_DESIGN_APPROVAL ( #131, ( #104 ) ) ;
#48 = PERSON_AND_ORGANIZATION_ROLE ( 'design_owner' ) ;
#49 = APPLICATION_CONTEXT ( 'configuration controlled 3d designs of mechanical parts and assemblies' ) ;
#50 = COORDINATED_UNIVERSAL_TIME_OFFSET ( 5, 0, .BEHIND. ) ;
#51 = CC_DESIGN_APPROVAL ( #107, ( #22 ) ) ;
#52 = LOCAL_TIME ( 10, 45, 20.00000000000000000, #58 ) ;
#53 = PRODUCT_DEFINITION_SHAPE ( 'NONE', 'NONE',  #104 ) ;
#54 = CC_DESIGN_PERSON_AND_ORGANIZATION_ASSIGNMENT ( #96, #9, ( #104 ) ) ;
#55 = DIRECTION ( 'NONE',  ( 1.000000000000000000, 0.0000000000000000000, 0.0000000000000000000 ) ) ;
#56 = CARTESIAN_POINT ( 'NONE',  ( 0.0000000000000000000, 0.0000000000000000000, 0.0000000000000000000 ) ) ;
#57 = VERTEX_POINT ( 'NONE', #105 ) ;
#58 = COORDINATED_UNIVERSAL_TIME_OFFSET ( 5, 0, .BEHIND. ) ;
#59 = DIRECTION ( 'NONE',  ( 1.000000000000000000, 0.0000000000000000000, 0.0000000000000000000 ) ) ;
#60 = AXIS2_PLACEMENT_3D ( 'NONE', #66, #120, #32 ) ;
#61 = APPROVAL_ROLE ( '' ) ;
#62 = DIRECTION ( 'NONE',  ( 1.000000000000000000, 0.0000000000000000000, 0.0000000000000000000 ) ) ;
#63 = PERSON_AND_ORGANIZATION ( #130, #160 ) ;
#64 = PERSON_AND_ORGANIZATION_ROLE ( 'classification_officer' ) ;
#65 = CALENDAR_DATE ( 2017, 1, 2 ) ;
#66 = CARTESIAN_POINT ( 'NONE',  ( 0.0000000000000000000, 0.0000000000000000000, -1.250000000000000000 ) ) ;
#67 = FACE_OUTER_BOUND ( 'NONE', #144, .T. ) ;
#68 = LOCAL_TIME ( 10, 45, 20.00000000000000000, #50 ) ;
#69 = ORIENTED_EDGE ( 'NONE', *, *, #129, .F. ) ;
#70 = AXIS2_PLACEMENT_3D ( 'NONE', #86, #145, #59 ) ;
#71 = VECTOR ( 'NONE', #136, 1000.000000000000000 ) ;
#72 = CARTESIAN_POINT ( 'NONE',  ( 0.0000000000000000000, 0.0000000000000000000, 0.0000000000000000000 ) ) ;
#73 = DIRECTION ( 'NONE',  ( 1.000000000000000000, 0.0000000000000000000, 0.0000000000000000000 ) ) ;
#74 = DATE_AND_TIME ( #43, #102 ) ;
#75 =( LENGTH_UNIT ( ) NAMED_UNIT ( * ) SI_UNIT ( .MILLI., .METRE. ) );
#76 = ADVANCED_FACE ( 'NONE', ( #142 ), #38, .T. ) ;
#77 = CIRCLE ( 'NONE', #70, 5.000000000000000000 ) ;
#78 = DATE_AND_TIME ( #2, #141 ) ;
#79 = PLANE ( 'NONE',  #6 ) ;
#80 = APPROVAL_PERSON_ORGANIZATION ( #63, #107, #30 ) ;
#81 = EDGE_CURVE ( 'NONE', #106, #28, #27, .T. ) ;
#82 = ORIENTED_EDGE ( 'NONE', *, *, #153, .T. ) ;
#83 = EDGE_CURVE ( 'NONE', #24, #57, #7, .T. ) ;
#84 = DESIGN_CONTEXT ( 'detailed design', #49, 'design' ) ;
#85 = PERSON_AND_ORGANIZATION ( #130, #160 ) ;
#86 = CARTESIAN_POINT ( 'NONE',  ( 0.0000000000000000000, 0.0000000000000000000, -1.250000000000000000 ) ) ;
#87 = DIRECTION ( 'NONE',  ( 0.0000000000000000000, 0.0000000000000000000, 1.000000000000000000 ) ) ;
#88 = ORIENTED_EDGE ( 'NONE', *, *, #83, .T. ) ;
#89 = MECHANICAL_CONTEXT ( 'NONE', #90, 'mechanical' ) ;
#90 = APPLICATION_CONTEXT ( 'configuration controlled 3d designs of mechanical parts and assemblies' ) ;
#91 = APPROVAL_ROLE ( '' ) ;
#92 = CARTESIAN_POINT ( 'NONE',  ( 0.0000000000000000000, 0.0000000000000000000, -1.250000000000000000 ) ) ;
#93 = PERSON_AND_ORGANIZATION ( #130, #160 ) ;
#94 = CC_DESIGN_PERSON_AND_ORGANIZATION_ASSIGNMENT ( #93, #64, ( #22 ) ) ;
#95 = ORIENTED_EDGE ( 'NONE', *, *, #81, .F. ) ;
#96 = PERSON_AND_ORGANIZATION ( #130, #160 ) ;
#97 = CALENDAR_DATE ( 2017, 1, 2 ) ;
#98 = DIRECTION ( 'NONE',  ( 1.000000000000000000, 0.0000000000000000000, 0.0000000000000000000 ) ) ;
#99 = CC_DESIGN_DATE_AND_TIME_ASSIGNMENT ( #11, #100, ( #104 ) ) ;
#100 = DATE_TIME_ROLE ( 'creation_date' ) ;
#101 = ADVANCED_FACE ( 'NONE', ( #31 ), #163, .F. ) ;
#102 = LOCAL_TIME ( 10, 45, 20.00000000000000000, #108 ) ;
#103 = PERSON_AND_ORGANIZATION_ROLE ( 'creator' ) ;
#104 = PRODUCT_DEFINITION ( 'UNKNOWN', '', #168, #84 ) ;
#105 = CARTESIAN_POINT ( 'NONE',  ( -5.000000000000000000, 6.123233995736766300E-016, 0.0000000000000000000 ) ) ;
#106 = VERTEX_POINT ( 'NONE', #152 ) ;
#107 = APPROVAL ( #20, 'UNSPECIFIED' ) ;
#108 = COORDINATED_UNIVERSAL_TIME_OFFSET ( 5, 0, .BEHIND. ) ;
#109 = PRODUCT ( 'Web Model 84460', 'Web Model 84460', '', ( #89 ) ) ;
#110 = MANIFOLD_SOLID_BREP ( 'Extrude1', #126 ) ;
#111 = FACE_OUTER_BOUND ( 'NONE', #166, .T. ) ;
#112 = PERSON_AND_ORGANIZATION ( #130, #160 ) ;
#113 = AXIS2_PLACEMENT_3D ( 'NONE', #132, #159, #62 ) ;
#114 = DIRECTION ( 'NONE',  ( 1.000000000000000000, 0.0000000000000000000, 0.0000000000000000000 ) ) ;
#115 = DIRECTION ( 'NONE',  ( 0.0000000000000000000, 0.0000000000000000000, 1.000000000000000000 ) ) ;
#116 = PERSON_AND_ORGANIZATION ( #130, #160 ) ;
#117 = SECURITY_CLASSIFICATION_LEVEL ( 'unclassified' ) ;
#118 = EDGE_CURVE ( 'NONE', #57, #28, #1, .T. ) ;
#119 = ADVANCED_FACE ( 'NONE', ( #111 ), #79, .T. ) ;
#120 = DIRECTION ( 'NONE',  ( 0.0000000000000000000, 0.0000000000000000000, 1.000000000000000000 ) ) ;
#121 = ADVANCED_BREP_SHAPE_REPRESENTATION ( 'Web Model 84460', ( #110, #113 ), #33 ) ;
#122 = CC_DESIGN_PERSON_AND_ORGANIZATION_ASSIGNMENT ( #85, #48, ( #109 ) ) ;
#123 = DIRECTION ( 'NONE',  ( 0.0000000000000000000, 0.0000000000000000000, 1.000000000000000000 ) ) ;
#124 = AXIS2_PLACEMENT_3D ( 'NONE', #92, #123, #35 ) ;
#125 = UNCERTAINTY_MEASURE_WITH_UNIT (LENGTH_MEASURE( 1.000000000000000100E-005 ), #75, 'distance_accuracy_value', 'NONE');
#126 = CLOSED_SHELL ( 'NONE', ( #149, #76, #101, #119 ) ) ;
#127 = CC_DESIGN_PERSON_AND_ORGANIZATION_ASSIGNMENT ( #116, #103, ( #168 ) ) ;
#128 = AXIS2_PLACEMENT_3D ( 'NONE', #5, #158, #55 ) ;
#129 = EDGE_CURVE ( 'NONE', #28, #57, #148, .T. ) ;
#130 = PERSON ( 'UNSPECIFIED', 'UNSPECIFIED', 'UNSPECIFIED', ('UNSPECIFIED'), ('UNSPECIFIED'), ('UNSPECIFIED') ) ;
#131 = APPROVAL ( #171, 'UNSPECIFIED' ) ;
#132 = CARTESIAN_POINT ( 'NONE',  ( 0.0000000000000000000, 0.0000000000000000000, 0.0000000000000000000 ) ) ;
#133 = APPLICATION_PROTOCOL_DEFINITION ( 'international standard', 'config_control_design', 1994, #90 ) ;
#134 = ORIENTED_EDGE ( 'NONE', *, *, #83, .F. ) ;
#135 = CC_DESIGN_DATE_AND_TIME_ASSIGNMENT ( #25, #10, ( #22 ) ) ;
#136 = DIRECTION ( 'NONE',  ( 0.0000000000000000000, 0.0000000000000000000, 1.000000000000000000 ) ) ;
#137 = ORIENTED_EDGE ( 'NONE', *, *, #118, .F. ) ;
#138 = PERSON_AND_ORGANIZATION ( #130, #160 ) ;
#139 = CC_DESIGN_PERSON_AND_ORGANIZATION_ASSIGNMENT ( #138, #146, ( #168 ) ) ;
#140 = CYLINDRICAL_SURFACE ( 'NONE', #128, 5.000000000000000000 ) ;
#141 = LOCAL_TIME ( 10, 45, 20.00000000000000000, #8 ) ;
#142 = FACE_OUTER_BOUND ( 'NONE', #17, .T. ) ;
#143 = CC_DESIGN_SECURITY_CLASSIFICATION ( #22, ( #168 ) ) ;
#144 = EDGE_LOOP ( 'NONE', ( #162, #88, #69, #95 ) ) ;
#145 = DIRECTION ( 'NONE',  ( 0.0000000000000000000, 0.0000000000000000000, 1.000000000000000000 ) ) ;
#146 = PERSON_AND_ORGANIZATION_ROLE ( 'design_supplier' ) ;
#147 = AXIS2_PLACEMENT_3D ( 'NONE', #44, #42, #73 ) ;
#148 = CIRCLE ( 'NONE', #147, 5.000000000000000000 ) ;
#149 = ADVANCED_FACE ( 'NONE', ( #67 ), #140, .T. ) ;
#150 = DIRECTION ( 'NONE',  ( 0.0000000000000000000, 0.0000000000000000000, 1.000000000000000000 ) ) ;
#151 = PRODUCT_RELATED_PRODUCT_CATEGORY ( 'detail', '', ( #109 ) ) ;
#152 = CARTESIAN_POINT ( 'NONE',  ( 5.000000000000000000, 0.0000000000000000000, -1.250000000000000000 ) ) ;
#153 = EDGE_CURVE ( 'NONE', #24, #106, #169, .T. ) ;
#154 = SHAPE_DEFINITION_REPRESENTATION ( #53, #121 ) ;
#155 = ORIENTED_EDGE ( 'NONE', *, *, #81, .T. ) ;
#156 = APPROVAL_PERSON_ORGANIZATION ( #41, #131, #91 ) ;
#157 = APPROVAL_DATE_TIME ( #14, #107 ) ;
#158 = DIRECTION ( 'NONE',  ( 0.0000000000000000000, 0.0000000000000000000, 1.000000000000000000 ) ) ;
#159 = DIRECTION ( 'NONE',  ( 0.0000000000000000000, 0.0000000000000000000, 1.000000000000000000 ) ) ;
#160 = ORGANIZATION ( 'UNSPECIFIED', 'UNSPECIFIED', '' ) ;
#161 = EDGE_CURVE ( 'NONE', #106, #24, #77, .T. ) ;
#162 = ORIENTED_EDGE ( 'NONE', *, *, #161, .T. ) ;
#163 = PLANE ( 'NONE',  #124 ) ;
#164 = ORIENTED_EDGE ( 'NONE', *, *, #118, .T. ) ;
#165 = LOCAL_TIME ( 10, 45, 20.00000000000000000, #39 ) ;
#166 = EDGE_LOOP ( 'NONE', ( #26, #164 ) ) ;
#167 =( NAMED_UNIT ( * ) SI_UNIT ( $, .STERADIAN. ) SOLID_ANGLE_UNIT ( ) );
#168 = PRODUCT_DEFINITION_FORMATION_WITH_SPECIFIED_SOURCE ( 'ANY', '', #109, .NOT_KNOWN. ) ;
#169 = CIRCLE ( 'NONE', #37, 5.000000000000000000 ) ;
#170 = APPROVAL_PERSON_ORGANIZATION ( #112, #19, #61 ) ;
#171 = APPROVAL_STATUS ( 'not_yet_approved' ) ;
#172 = AXIS2_PLACEMENT_3D ( 'NONE', #72, #87, #98 ) ;
#173 = APPLICATION_PROTOCOL_DEFINITION ( 'international standard', 'config_control_design', 1994, #49 ) ;
#174 = CARTESIAN_POINT ( 'NONE',  ( -5.000000000000000000, 6.123233995736766300E-016, -1.250000000000000000 ) ) ;
#175 = CARTESIAN_POINT ( 'NONE',  ( 5.000000000000000000, 0.0000000000000000000, 0.0000000000000000000 ) ) ;
ENDSEC;
END-ISO-10303-21;
