ISO-10303-21;
HEADER;
FILE_DESCRIPTION (( 'STEP AP203' ),
    '1' );
FILE_NAME ('Web Model 15404_15419.step',
    '2022-03-11T18:22:23',
    ( '' ),
    ( '' ),
    'SwSTEP 2.0',
    'SolidWorks 2021',
    '' );
FILE_SCHEMA (( 'CONFIG_CONTROL_DESIGN' ));
ENDSEC;

DATA;
#1 = ORIENTED_EDGE ( 'NONE', *, *, #149, .F. ) ;
#2 = LOCAL_TIME ( 13, 22, 23.00000000000000000, #19 ) ;
#3 = DIRECTION ( 'NONE',  ( 1.000000000000000000, 0.000000000000000000, 0.000000000000000000 ) ) ;
#4 = PERSON_AND_ORGANIZATION ( #147, #145 ) ;
#5 = CIRCLE ( 'NONE', #69, 25.39999999999999858 ) ;
#6 = DIRECTION ( 'NONE',  ( 0.000000000000000000, 0.000000000000000000, -1.000000000000000000 ) ) ;
#7 = ADVANCED_FACE ( 'NONE', ( #15 ), #137, .T. ) ;
#8 = CARTESIAN_POINT ( 'NONE',  ( -2.500000000000000000, 0.000000000000000000, 0.000000000000000000 ) ) ;
#9 = CIRCLE ( 'NONE', #44, 25.39999999999999858 ) ;
#10 = FACE_OUTER_BOUND ( 'NONE', #78, .T. ) ;
#11 = APPROVAL_ROLE ( '' ) ;
#12 = ORIENTED_EDGE ( 'NONE', *, *, #76, .F. ) ;
#13 = AXIS2_PLACEMENT_3D ( 'NONE', #34, #83, #129 ) ;
#14 = APPROVAL ( #103, 'UNSPECIFIED' ) ;
#15 = FACE_OUTER_BOUND ( 'NONE', #139, .T. ) ;
#16 = SECURITY_CLASSIFICATION ( '', '', #119 ) ;
#17 = DIRECTION ( 'NONE',  ( 1.000000000000000000, 0.000000000000000000, 0.000000000000000000 ) ) ;
#18 = CYLINDRICAL_SURFACE ( 'NONE', #13, 25.39999999999999858 ) ;
#19 = COORDINATED_UNIVERSAL_TIME_OFFSET ( 5, 0, .BEHIND. ) ;
#20 = LINE ( 'NONE', #111, #171 ) ;
#21 = CC_DESIGN_DATE_AND_TIME_ASSIGNMENT ( #89, #151, ( #16 ) ) ;
#22 = APPROVAL ( #144, 'UNSPECIFIED' ) ;
#23 = APPROVAL_ROLE ( '' ) ;
#24 = DATE_AND_TIME ( #173, #27 ) ;
#25 = DATE_AND_TIME ( #92, #153 ) ;
#26 = APPLICATION_CONTEXT ( 'configuration controlled 3d designs of mechanical parts and assemblies' ) ;
#27 = LOCAL_TIME ( 13, 22, 23.00000000000000000, #120 ) ;
#28 = APPROVAL_ROLE ( '' ) ;
#29 = DESIGN_CONTEXT ( 'detailed design', #133, 'design' ) ;
#30 = DIRECTION ( 'NONE',  ( -1.000000000000000000, -0.000000000000000000, -0.000000000000000000 ) ) ;
#31 = CARTESIAN_POINT ( 'NONE',  ( 2.500000000000000000, 0.000000000000000000, 25.39999999999999858 ) ) ;
#32 = DIRECTION ( 'NONE',  ( 0.000000000000000000, 0.000000000000000000, -1.000000000000000000 ) ) ;
#33 = CARTESIAN_POINT ( 'NONE',  ( -2.500000000000000000, 3.110602869834276865E-15, -25.39999999999999858 ) ) ;
#34 = CARTESIAN_POINT ( 'NONE',  ( 2.500000000000000000, 0.000000000000000000, 0.000000000000000000 ) ) ;
#35 = PERSON_AND_ORGANIZATION_ROLE ( 'design_owner' ) ;
#36 = APPROVAL ( #60, 'UNSPECIFIED' ) ;
#37 = FACE_OUTER_BOUND ( 'NONE', #52, .T. ) ;
#38 = CALENDAR_DATE ( 2022, 11, 3 ) ;
#39 = ORIENTED_EDGE ( 'NONE', *, *, #108, .T. ) ;
#40 = DATE_AND_TIME ( #38, #128 ) ;
#41 = ORIENTED_EDGE ( 'NONE', *, *, #124, .F. ) ;
#42 = COORDINATED_UNIVERSAL_TIME_OFFSET ( 5, 0, .BEHIND. ) ;
#43 = DIRECTION ( 'NONE',  ( 0.000000000000000000, 0.000000000000000000, 1.000000000000000000 ) ) ;
#44 = AXIS2_PLACEMENT_3D ( 'NONE', #8, #169, #143 ) ;
#45 = DIRECTION ( 'NONE',  ( 1.000000000000000000, 0.000000000000000000, 0.000000000000000000 ) ) ;
#46 = CC_DESIGN_PERSON_AND_ORGANIZATION_ASSIGNMENT ( #67, #61, ( #142 ) ) ;
#47 =( NAMED_UNIT ( * ) PLANE_ANGLE_UNIT ( ) SI_UNIT ( $, .RADIAN. ) );
#48 = APPROVAL_PERSON_ORGANIZATION ( #135, #14, #11 ) ;
#49 = ADVANCED_FACE ( 'NONE', ( #10 ), #51, .T. ) ;
#50 = PERSON_AND_ORGANIZATION ( #147, #145 ) ;
#51 = CYLINDRICAL_SURFACE ( 'NONE', #82, 25.39999999999999858 ) ;
#52 = EDGE_LOOP ( 'NONE', ( #125, #156, #91, #12 ) ) ;
#53 = VERTEX_POINT ( 'NONE', #31 ) ;
#54 = ORIENTED_EDGE ( 'NONE', *, *, #124, .T. ) ;
#55 = CARTESIAN_POINT ( 'NONE',  ( 2.500000000000000000, 3.110602869834276865E-15, -25.39999999999999858 ) ) ;
#56 = CARTESIAN_POINT ( 'NONE',  ( 0.000000000000000000, 0.000000000000000000, 0.000000000000000000 ) ) ;
#57 = CC_DESIGN_DATE_AND_TIME_ASSIGNMENT ( #40, #164, ( #150 ) ) ;
#58 = CLOSED_SHELL ( 'NONE', ( #79, #49, #7, #123 ) ) ;
#59 = FACE_OUTER_BOUND ( 'NONE', #167, .T. ) ;
#60 = APPROVAL_STATUS ( 'not_yet_approved' ) ;
#61 = PERSON_AND_ORGANIZATION_ROLE ( 'creator' ) ;
#62 = CC_DESIGN_PERSON_AND_ORGANIZATION_ASSIGNMENT ( #50, #162, ( #16 ) ) ;
#63 = AXIS2_PLACEMENT_3D ( 'NONE', #56, #81, #141 ) ;
#64 = APPROVAL_DATE_TIME ( #25, #14 ) ;
#65 = COORDINATED_UNIVERSAL_TIME_OFFSET ( 5, 0, .BEHIND. ) ;
#66 = DIRECTION ( 'NONE',  ( -1.000000000000000000, -0.000000000000000000, -0.000000000000000000 ) ) ;
#67 = PERSON_AND_ORGANIZATION ( #147, #145 ) ;
#68 = CARTESIAN_POINT ( 'NONE',  ( 2.500000000000000000, 0.000000000000000000, 0.000000000000000000 ) ) ;
#69 = AXIS2_PLACEMENT_3D ( 'NONE', #113, #98, #6 ) ;
#70 = CC_DESIGN_APPROVAL ( #14, ( #142 ) ) ;
#71 = DIRECTION ( 'NONE',  ( -1.000000000000000000, -0.000000000000000000, -0.000000000000000000 ) ) ;
#72 = DATE_AND_TIME ( #75, #2 ) ;
#73 = CC_DESIGN_APPROVAL ( #36, ( #16 ) ) ;
#74 = MECHANICAL_CONTEXT ( 'NONE', #26, 'mechanical' ) ;
#75 = CALENDAR_DATE ( 2022, 11, 3 ) ;
#76 = EDGE_CURVE ( 'NONE', #53, #93, #126, .T. ) ;
#77 = PERSON_AND_ORGANIZATION ( #147, #145 ) ;
#78 = EDGE_LOOP ( 'NONE', ( #165, #175, #166, #54 ) ) ;
#79 = ADVANCED_FACE ( 'NONE', ( #37 ), #18, .T. ) ;
#80 = ADVANCED_BREP_SHAPE_REPRESENTATION ( 'Web Model 15404_15419', ( #99, #63 ), #105 ) ;
#81 = DIRECTION ( 'NONE',  ( 0.000000000000000000, 0.000000000000000000, 1.000000000000000000 ) ) ;
#82 = AXIS2_PLACEMENT_3D ( 'NONE', #68, #66, #43 ) ;
#83 = DIRECTION ( 'NONE',  ( -1.000000000000000000, -0.000000000000000000, -0.000000000000000000 ) ) ;
#84 = PERSON_AND_ORGANIZATION ( #147, #145 ) ;
#85 = DIRECTION ( 'NONE',  ( 0.000000000000000000, 0.000000000000000000, -1.000000000000000000 ) ) ;
#86 = AXIS2_PLACEMENT_3D ( 'NONE', #117, #17, #112 ) ;
#87 = APPLICATION_PROTOCOL_DEFINITION ( 'international standard', 'config_control_design', 1994, #133 ) ;
#88 = CC_DESIGN_PERSON_AND_ORGANIZATION_ASSIGNMENT ( #77, #161, ( #142 ) ) ;
#89 = DATE_AND_TIME ( #152, #118 ) ;
#90 = COORDINATED_UNIVERSAL_TIME_OFFSET ( 5, 0, .BEHIND. ) ;
#91 = ORIENTED_EDGE ( 'NONE', *, *, #149, .T. ) ;
#92 = CALENDAR_DATE ( 2022, 11, 3 ) ;
#93 = VERTEX_POINT ( 'NONE', #97 ) ;
#94 = EDGE_CURVE ( 'NONE', #154, #53, #5, .T. ) ;
#95 = CC_DESIGN_PERSON_AND_ORGANIZATION_ASSIGNMENT ( #4, #134, ( #150 ) ) ;
#96 = VERTEX_POINT ( 'NONE', #33 ) ;
#97 = CARTESIAN_POINT ( 'NONE',  ( -2.500000000000000000, 0.000000000000000000, 25.39999999999999858 ) ) ;
#98 = DIRECTION ( 'NONE',  ( 1.000000000000000000, 0.000000000000000000, 0.000000000000000000 ) ) ;
#99 = MANIFOLD_SOLID_BREP ( 'Boss-Extrude1', #58 ) ;
#100 =( LENGTH_UNIT ( ) NAMED_UNIT ( * ) SI_UNIT ( .MILLI., .METRE. ) );
#101 = APPLICATION_PROTOCOL_DEFINITION ( 'international standard', 'config_control_design', 1994, #26 ) ;
#102 = CIRCLE ( 'NONE', #86, 25.39999999999999858 ) ;
#103 = APPROVAL_STATUS ( 'not_yet_approved' ) ;
#104 = PRODUCT ( 'Web Model 15404_15419', 'Web Model 15404_15419', '', ( #74 ) ) ;
#105 =( GEOMETRIC_REPRESENTATION_CONTEXT ( 3 ) GLOBAL_UNCERTAINTY_ASSIGNED_CONTEXT ( ( #170 ) ) GLOBAL_UNIT_ASSIGNED_CONTEXT ( ( #100, #47, #168 ) ) REPRESENTATION_CONTEXT ( 'NONE', 'WORKASPACE' ) );
#106 = ORIENTED_EDGE ( 'NONE', *, *, #94, .T. ) ;
#107 = APPROVAL_PERSON_ORGANIZATION ( #148, #36, #28 ) ;
#108 = EDGE_CURVE ( 'NONE', #53, #154, #102, .T. ) ;
#109 = DIRECTION ( 'NONE',  ( 1.000000000000000000, 0.000000000000000000, 0.000000000000000000 ) ) ;
#110 = CIRCLE ( 'NONE', #114, 25.39999999999999858 ) ;
#111 = CARTESIAN_POINT ( 'NONE',  ( 2.500000000000000000, 3.110602869834276865E-15, -25.39999999999999858 ) ) ;
#112 = DIRECTION ( 'NONE',  ( 0.000000000000000000, 0.000000000000000000, -1.000000000000000000 ) ) ;
#113 = CARTESIAN_POINT ( 'NONE',  ( 2.500000000000000000, 0.000000000000000000, 0.000000000000000000 ) ) ;
#114 = AXIS2_PLACEMENT_3D ( 'NONE', #157, #3, #158 ) ;
#115 = PLANE ( 'NONE',  #131 ) ;
#116 = PRODUCT_RELATED_PRODUCT_CATEGORY ( 'detail', '', ( #104 ) ) ;
#117 = CARTESIAN_POINT ( 'NONE',  ( 2.500000000000000000, 0.000000000000000000, 0.000000000000000000 ) ) ;
#118 = LOCAL_TIME ( 13, 22, 23.00000000000000000, #42 ) ;
#119 = SECURITY_CLASSIFICATION_LEVEL ( 'unclassified' ) ;
#120 = COORDINATED_UNIVERSAL_TIME_OFFSET ( 5, 0, .BEHIND. ) ;
#121 = SHAPE_DEFINITION_REPRESENTATION ( #174, #80 ) ;
#122 = AXIS2_PLACEMENT_3D ( 'NONE', #155, #109, #32 ) ;
#123 = ADVANCED_FACE ( 'NONE', ( #59 ), #115, .F. ) ;
#124 = EDGE_CURVE ( 'NONE', #93, #96, #9, .T. ) ;
#125 = ORIENTED_EDGE ( 'NONE', *, *, #94, .F. ) ;
#126 = LINE ( 'NONE', #163, #127 ) ;
#127 = VECTOR ( 'NONE', #30, 1000.000000000000000 ) ;
#128 = LOCAL_TIME ( 13, 22, 23.00000000000000000, #65 ) ;
#129 = DIRECTION ( 'NONE',  ( 0.000000000000000000, 0.000000000000000000, 1.000000000000000000 ) ) ;
#130 = APPROVAL_DATE_TIME ( #72, #22 ) ;
#131 = AXIS2_PLACEMENT_3D ( 'NONE', #132, #45, #85 ) ;
#132 = CARTESIAN_POINT ( 'NONE',  ( -2.500000000000000000, 0.000000000000000000, 0.000000000000000000 ) ) ;
#133 = APPLICATION_CONTEXT ( 'configuration controlled 3d designs of mechanical parts and assemblies' ) ;
#134 = PERSON_AND_ORGANIZATION_ROLE ( 'creator' ) ;
#135 = PERSON_AND_ORGANIZATION ( #147, #145 ) ;
#136 = EDGE_CURVE ( 'NONE', #154, #96, #20, .T. ) ;
#137 = PLANE ( 'NONE',  #122 ) ;
#138 = CC_DESIGN_APPROVAL ( #22, ( #150 ) ) ;
#139 = EDGE_LOOP ( 'NONE', ( #39, #106 ) ) ;
#140 = CC_DESIGN_PERSON_AND_ORGANIZATION_ASSIGNMENT ( #159, #35, ( #104 ) ) ;
#141 = DIRECTION ( 'NONE',  ( 1.000000000000000000, 0.000000000000000000, 0.000000000000000000 ) ) ;
#142 = PRODUCT_DEFINITION_FORMATION_WITH_SPECIFIED_SOURCE ( 'ANY', '', #104, .NOT_KNOWN. ) ;
#143 = DIRECTION ( 'NONE',  ( 0.000000000000000000, 0.000000000000000000, -1.000000000000000000 ) ) ;
#144 = APPROVAL_STATUS ( 'not_yet_approved' ) ;
#145 = ORGANIZATION ( 'UNSPECIFIED', 'UNSPECIFIED', '' ) ;
#146 = CC_DESIGN_SECURITY_CLASSIFICATION ( #16, ( #142 ) ) ;
#147 = PERSON ( 'UNSPECIFIED', 'UNSPECIFIED', 'UNSPECIFIED', ('UNSPECIFIED'), ('UNSPECIFIED'), ('UNSPECIFIED') ) ;
#148 = PERSON_AND_ORGANIZATION ( #147, #145 ) ;
#149 = EDGE_CURVE ( 'NONE', #96, #93, #110, .T. ) ;
#150 = PRODUCT_DEFINITION ( 'UNKNOWN', '', #142, #29 ) ;
#151 = DATE_TIME_ROLE ( 'classification_date' ) ;
#152 = CALENDAR_DATE ( 2022, 11, 3 ) ;
#153 = LOCAL_TIME ( 13, 22, 23.00000000000000000, #90 ) ;
#154 = VERTEX_POINT ( 'NONE', #55 ) ;
#155 = CARTESIAN_POINT ( 'NONE',  ( 2.500000000000000000, 0.000000000000000000, 0.000000000000000000 ) ) ;
#156 = ORIENTED_EDGE ( 'NONE', *, *, #136, .T. ) ;
#157 = CARTESIAN_POINT ( 'NONE',  ( -2.500000000000000000, 0.000000000000000000, 0.000000000000000000 ) ) ;
#158 = DIRECTION ( 'NONE',  ( 0.000000000000000000, 0.000000000000000000, -1.000000000000000000 ) ) ;
#159 = PERSON_AND_ORGANIZATION ( #147, #145 ) ;
#160 = APPROVAL_PERSON_ORGANIZATION ( #84, #22, #23 ) ;
#161 = PERSON_AND_ORGANIZATION_ROLE ( 'design_supplier' ) ;
#162 = PERSON_AND_ORGANIZATION_ROLE ( 'classification_officer' ) ;
#163 = CARTESIAN_POINT ( 'NONE',  ( 2.500000000000000000, 0.000000000000000000, 25.39999999999999858 ) ) ;
#164 = DATE_TIME_ROLE ( 'creation_date' ) ;
#165 = ORIENTED_EDGE ( 'NONE', *, *, #136, .F. ) ;
#166 = ORIENTED_EDGE ( 'NONE', *, *, #76, .T. ) ;
#167 = EDGE_LOOP ( 'NONE', ( #41, #1 ) ) ;
#168 =( NAMED_UNIT ( * ) SI_UNIT ( $, .STERADIAN. ) SOLID_ANGLE_UNIT ( ) );
#169 = DIRECTION ( 'NONE',  ( 1.000000000000000000, 0.000000000000000000, 0.000000000000000000 ) ) ;
#170 = UNCERTAINTY_MEASURE_WITH_UNIT (LENGTH_MEASURE( 1.000000000000000082E-05 ), #100, 'distance_accuracy_value', 'NONE');
#171 = VECTOR ( 'NONE', #71, 1000.000000000000000 ) ;
#172 = APPROVAL_DATE_TIME ( #24, #36 ) ;
#173 = CALENDAR_DATE ( 2022, 11, 3 ) ;
#174 = PRODUCT_DEFINITION_SHAPE ( 'NONE', 'NONE',  #150 ) ;
#175 = ORIENTED_EDGE ( 'NONE', *, *, #108, .F. ) ;
ENDSEC;
END-ISO-10303-21;
