ISO-10303-21;
HEADER;
FILE_DESCRIPTION (( 'STEP AP214' ),
    '1' );
FILE_NAME ('21234.step',
    '2022-06-17T16:46:57',
    ( '' ),
    ( '' ),
    'SwSTEP 2.0',
    'SolidWorks 2021',
    '' );
FILE_SCHEMA (( 'AUTOMOTIVE_DESIGN' ));
ENDSEC;

DATA;
#1 = CIRCLE ( 'NONE', #26, 12.49999999999999645 ) ;
#2 = ADVANCED_BREP_SHAPE_REPRESENTATION ( '21234', ( #73, #14 ), #32 ) ;
#3 = VERTEX_POINT ( 'NONE', #123 ) ;
#4 = FILL_AREA_STYLE ('',( #76 ) ) ;
#5 = CYLINDRICAL_SURFACE ( 'NONE', #83, 12.49999999999999645 ) ;
#6 = FACE_OUTER_BOUND ( 'NONE', #72, .T. ) ;
#7 = FACE_OUTER_BOUND ( 'NONE', #28, .T. ) ;
#8 = SURFACE_SIDE_STYLE ('',( #61 ) ) ;
#9 = DIRECTION ( 'NONE',  ( 1.000000000000000000, 0.000000000000000000, -0.000000000000000000 ) ) ;
#10 = LINE ( 'NONE', #39, #82 ) ;
#11 = EDGE_CURVE ( 'NONE', #3, #36, #53, .T. ) ;
#12 = CIRCLE ( 'NONE', #62, 12.49999999999999645 ) ;
#13 = COLOUR_RGB ( '',0.7921568627450980005, 0.8196078431372548767, 0.9333333333333333481 ) ;
#14 = AXIS2_PLACEMENT_3D ( 'NONE', #92, #114, #70 ) ;
#15 = CARTESIAN_POINT ( 'NONE',  ( 12.49999999999999645, 1.530808498934191127E-15, 0.8000000000000000444 ) ) ;
#16 = DIRECTION ( 'NONE',  ( 0.000000000000000000, 0.000000000000000000, 1.000000000000000000 ) ) ;
#17 = DIRECTION ( 'NONE',  ( 0.000000000000000000, 0.000000000000000000, 1.000000000000000000 ) ) ;
#18 = CARTESIAN_POINT ( 'NONE',  ( 0.000000000000000000, 0.000000000000000000, 0.000000000000000000 ) ) ;
#19 = EDGE_CURVE ( 'NONE', #46, #45, #12, .T. ) ;
#20 = FACE_OUTER_BOUND ( 'NONE', #37, .T. ) ;
#21 = AXIS2_PLACEMENT_3D ( 'NONE', #51, #69, #48 ) ;
#22 = DIRECTION ( 'NONE',  ( 1.000000000000000000, 0.000000000000000000, 0.000000000000000000 ) ) ;
#23 = APPLICATION_PROTOCOL_DEFINITION ( 'draft international standard', 'automotive_design', 1998, #112 ) ;
#24 =( NAMED_UNIT ( * ) PLANE_ANGLE_UNIT ( ) SI_UNIT ( $, .RADIAN. ) );
#25 = ORIENTED_EDGE ( 'NONE', *, *, #137, .F. ) ;
#26 = AXIS2_PLACEMENT_3D ( 'NONE', #135, #42, #22 ) ;
#27 = ORIENTED_EDGE ( 'NONE', *, *, #19, .T. ) ;
#28 = EDGE_LOOP ( 'NONE', ( #64, #96, #75, #100 ) ) ;
#29 = SURFACE_STYLE_USAGE ( .BOTH. , #8 ) ;
#30 = ORIENTED_EDGE ( 'NONE', *, *, #19, .F. ) ;
#31 =( LENGTH_UNIT ( ) NAMED_UNIT ( * ) SI_UNIT ( .MILLI., .METRE. ) );
#32 =( GEOMETRIC_REPRESENTATION_CONTEXT ( 3 ) GLOBAL_UNCERTAINTY_ASSIGNED_CONTEXT ( ( #121 ) ) GLOBAL_UNIT_ASSIGNED_CONTEXT ( ( #31, #139, #60 ) ) REPRESENTATION_CONTEXT ( 'NONE', 'WORKASPACE' ) );
#33 =( NAMED_UNIT ( * ) PLANE_ANGLE_UNIT ( ) SI_UNIT ( $, .RADIAN. ) );
#34 = PRODUCT_DEFINITION ( 'UNKNOWN', '', #52, #50 ) ;
#35 = MECHANICAL_DESIGN_GEOMETRIC_PRESENTATION_REPRESENTATION (  '', ( #104 ), #95 ) ;
#36 = VERTEX_POINT ( 'NONE', #131 ) ;
#37 = EDGE_LOOP ( 'NONE', ( #111, #27 ) ) ;
#38 = SURFACE_STYLE_USAGE ( .BOTH. , #132 ) ;
#39 = CARTESIAN_POINT ( 'NONE',  ( -12.49999999999999645, 0.000000000000000000, 0.8000000000000000444 ) ) ;
#40 = FACE_OUTER_BOUND ( 'NONE', #65, .T. ) ;
#41 = VECTOR ( 'NONE', #136, 1000.000000000000000 ) ;
#42 = DIRECTION ( 'NONE',  ( 0.000000000000000000, 0.000000000000000000, 1.000000000000000000 ) ) ;
#43 = APPLICATION_PROTOCOL_DEFINITION ( 'draft international standard', 'automotive_design', 1998, #108 ) ;
#44 = DIRECTION ( 'NONE',  ( 0.000000000000000000, 0.000000000000000000, 1.000000000000000000 ) ) ;
#45 = VERTEX_POINT ( 'NONE', #109 ) ;
#46 = VERTEX_POINT ( 'NONE', #15 ) ;
#47 =( LENGTH_UNIT ( ) NAMED_UNIT ( * ) SI_UNIT ( .MILLI., .METRE. ) );
#48 = DIRECTION ( 'NONE',  ( -1.000000000000000000, 0.000000000000000000, 0.000000000000000000 ) ) ;
#49 =( NAMED_UNIT ( * ) SI_UNIT ( $, .STERADIAN. ) SOLID_ANGLE_UNIT ( ) );
#50 = PRODUCT_DEFINITION_CONTEXT ( 'detailed design', #112, 'design' ) ;
#51 = CARTESIAN_POINT ( 'NONE',  ( 0.000000000000000000, 0.000000000000000000, 0.8000000000000000444 ) ) ;
#52 = PRODUCT_DEFINITION_FORMATION_WITH_SPECIFIED_SOURCE ( 'ANY', '', #117, .NOT_KNOWN. ) ;
#53 = CIRCLE ( 'NONE', #134, 12.49999999999999645 ) ;
#54 = PRODUCT_DEFINITION_SHAPE ( 'NONE', 'NONE',  #34 ) ;
#55 = ORIENTED_EDGE ( 'NONE', *, *, #11, .T. ) ;
#56 = DIRECTION ( 'NONE',  ( 1.000000000000000000, 0.000000000000000000, 0.000000000000000000 ) ) ;
#57 = ADVANCED_FACE ( 'NONE', ( #6 ), #5, .T. ) ;
#58 = AXIS2_PLACEMENT_3D ( 'NONE', #89, #103, #9 ) ;
#59 = FILL_AREA_STYLE_COLOUR ( '', #127 ) ;
#60 =( NAMED_UNIT ( * ) SI_UNIT ( $, .STERADIAN. ) SOLID_ANGLE_UNIT ( ) );
#61 = SURFACE_STYLE_FILL_AREA ( #102 ) ;
#62 = AXIS2_PLACEMENT_3D ( 'NONE', #133, #17, #56 ) ;
#63 = MECHANICAL_DESIGN_GEOMETRIC_PRESENTATION_REPRESENTATION (  '', ( #98 ), #81 ) ;
#64 = ORIENTED_EDGE ( 'NONE', *, *, #91, .F. ) ;
#65 = EDGE_LOOP ( 'NONE', ( #67, #84 ) ) ;
#66 = AXIS2_PLACEMENT_3D ( 'NONE', #77, #44, #101 ) ;
#67 = ORIENTED_EDGE ( 'NONE', *, *, #106, .F. ) ;
#68 = UNCERTAINTY_MEASURE_WITH_UNIT (LENGTH_MEASURE( 1.000000000000000082E-05 ), #140, 'distance_accuracy_value', 'NONE');
#69 = DIRECTION ( 'NONE',  ( -0.000000000000000000, -0.000000000000000000, -1.000000000000000000 ) ) ;
#70 = DIRECTION ( 'NONE',  ( 1.000000000000000000, 0.000000000000000000, 0.000000000000000000 ) ) ;
#71 = SHAPE_DEFINITION_REPRESENTATION ( #54, #2 ) ;
#72 = EDGE_LOOP ( 'NONE', ( #30, #130, #55, #25 ) ) ;
#73 = MANIFOLD_SOLID_BREP ( 'Boss-Extrude1', #94 ) ;
#74 = CARTESIAN_POINT ( 'NONE',  ( 0.000000000000000000, 0.000000000000000000, 0.8000000000000000444 ) ) ;
#75 = ORIENTED_EDGE ( 'NONE', *, *, #137, .T. ) ;
#76 = FILL_AREA_STYLE_COLOUR ( '', #13 ) ;
#77 = CARTESIAN_POINT ( 'NONE',  ( 0.000000000000000000, 0.000000000000000000, 0.000000000000000000 ) ) ;
#78 = CYLINDRICAL_SURFACE ( 'NONE', #21, 12.49999999999999645 ) ;
#79 = DIRECTION ( 'NONE',  ( 1.000000000000000000, 0.000000000000000000, 0.000000000000000000 ) ) ;
#80 = PRODUCT_CONTEXT ( 'NONE', #108, 'mechanical' ) ;
#81 =( GEOMETRIC_REPRESENTATION_CONTEXT ( 3 ) GLOBAL_UNCERTAINTY_ASSIGNED_CONTEXT ( ( #118 ) ) GLOBAL_UNIT_ASSIGNED_CONTEXT ( ( #47, #33, #49 ) ) REPRESENTATION_CONTEXT ( 'NONE', 'WORKASPACE' ) );
#82 = VECTOR ( 'NONE', #124, 1000.000000000000000 ) ;
#83 = AXIS2_PLACEMENT_3D ( 'NONE', #74, #97, #85 ) ;
#84 = ORIENTED_EDGE ( 'NONE', *, *, #11, .F. ) ;
#85 = DIRECTION ( 'NONE',  ( -1.000000000000000000, 0.000000000000000000, 0.000000000000000000 ) ) ;
#86 = ADVANCED_FACE ( 'NONE', ( #20 ), #113, .T. ) ;
#87 = PRESENTATION_LAYER_ASSIGNMENT (  '', '', ( #98 ) ) ;
#88 = CARTESIAN_POINT ( 'NONE',  ( 0.000000000000000000, 0.000000000000000000, 0.8000000000000000444 ) ) ;
#89 = CARTESIAN_POINT ( 'NONE',  ( 0.000000000000000000, 0.000000000000000000, 0.8000000000000000444 ) ) ;
#90 = LINE ( 'NONE', #115, #41 ) ;
#91 = EDGE_CURVE ( 'NONE', #46, #3, #90, .T. ) ;
#92 = CARTESIAN_POINT ( 'NONE',  ( 0.000000000000000000, 0.000000000000000000, 0.000000000000000000 ) ) ;
#93 = ADVANCED_FACE ( 'NONE', ( #40 ), #128, .F. ) ;
#94 = CLOSED_SHELL ( 'NONE', ( #57, #119, #86, #93 ) ) ;
#95 =( GEOMETRIC_REPRESENTATION_CONTEXT ( 3 ) GLOBAL_UNCERTAINTY_ASSIGNED_CONTEXT ( ( #68 ) ) GLOBAL_UNIT_ASSIGNED_CONTEXT ( ( #140, #24, #138 ) ) REPRESENTATION_CONTEXT ( 'NONE', 'WORKASPACE' ) );
#96 = ORIENTED_EDGE ( 'NONE', *, *, #129, .F. ) ;
#97 = DIRECTION ( 'NONE',  ( -0.000000000000000000, -0.000000000000000000, -1.000000000000000000 ) ) ;
#98 = STYLED_ITEM ( 'NONE', ( #122 ), #73 ) ;
#99 = AXIS2_PLACEMENT_3D ( 'NONE', #88, #126, #79 ) ;
#100 = ORIENTED_EDGE ( 'NONE', *, *, #106, .T. ) ;
#101 = DIRECTION ( 'NONE',  ( 1.000000000000000000, 0.000000000000000000, -0.000000000000000000 ) ) ;
#102 = FILL_AREA_STYLE ('',( #59 ) ) ;
#103 = DIRECTION ( 'NONE',  ( 0.000000000000000000, 0.000000000000000000, 1.000000000000000000 ) ) ;
#104 = STYLED_ITEM ( 'NONE', ( #105 ), #2 ) ;
#105 = PRESENTATION_STYLE_ASSIGNMENT (( #29 ) ) ;
#106 = EDGE_CURVE ( 'NONE', #36, #3, #1, .T. ) ;
#107 = PRESENTATION_LAYER_ASSIGNMENT (  '', '', ( #104 ) ) ;
#108 = APPLICATION_CONTEXT ( 'automotive_design' ) ;
#109 = CARTESIAN_POINT ( 'NONE',  ( -12.49999999999999645, 0.000000000000000000, 0.8000000000000000444 ) ) ;
#110 = DIRECTION ( 'NONE',  ( 1.000000000000000000, 0.000000000000000000, 0.000000000000000000 ) ) ;
#111 = ORIENTED_EDGE ( 'NONE', *, *, #129, .T. ) ;
#112 = APPLICATION_CONTEXT ( 'automotive_design' ) ;
#113 = PLANE ( 'NONE',  #58 ) ;
#114 = DIRECTION ( 'NONE',  ( 0.000000000000000000, 0.000000000000000000, 1.000000000000000000 ) ) ;
#115 = CARTESIAN_POINT ( 'NONE',  ( 12.49999999999999645, 1.530808498934191127E-15, 0.8000000000000000444 ) ) ;
#116 = CIRCLE ( 'NONE', #99, 12.49999999999999645 ) ;
#117 = PRODUCT ( '21234', '21234', '', ( #80 ) ) ;
#118 = UNCERTAINTY_MEASURE_WITH_UNIT (LENGTH_MEASURE( 1.000000000000000082E-05 ), #47, 'distance_accuracy_value', 'NONE');
#119 = ADVANCED_FACE ( 'NONE', ( #7 ), #78, .T. ) ;
#120 = SURFACE_STYLE_FILL_AREA ( #4 ) ;
#121 = UNCERTAINTY_MEASURE_WITH_UNIT (LENGTH_MEASURE( 1.000000000000000082E-05 ), #31, 'distance_accuracy_value', 'NONE');
#122 = PRESENTATION_STYLE_ASSIGNMENT (( #38 ) ) ;
#123 = CARTESIAN_POINT ( 'NONE',  ( 12.49999999999999645, 1.530808498934191127E-15, 0.000000000000000000 ) ) ;
#124 = DIRECTION ( 'NONE',  ( -0.000000000000000000, -0.000000000000000000, -1.000000000000000000 ) ) ;
#125 = PRODUCT_RELATED_PRODUCT_CATEGORY ( 'part', '', ( #117 ) ) ;
#126 = DIRECTION ( 'NONE',  ( 0.000000000000000000, 0.000000000000000000, 1.000000000000000000 ) ) ;
#127 = COLOUR_RGB ( '',0.7921568627450980005, 0.8196078431372548767, 0.9333333333333333481 ) ;
#128 = PLANE ( 'NONE',  #66 ) ;
#129 = EDGE_CURVE ( 'NONE', #45, #46, #116, .T. ) ;
#130 = ORIENTED_EDGE ( 'NONE', *, *, #91, .T. ) ;
#131 = CARTESIAN_POINT ( 'NONE',  ( -12.49999999999999645, 0.000000000000000000, 0.000000000000000000 ) ) ;
#132 = SURFACE_SIDE_STYLE ('',( #120 ) ) ;
#133 = CARTESIAN_POINT ( 'NONE',  ( 0.000000000000000000, 0.000000000000000000, 0.8000000000000000444 ) ) ;
#134 = AXIS2_PLACEMENT_3D ( 'NONE', #18, #16, #110 ) ;
#135 = CARTESIAN_POINT ( 'NONE',  ( 0.000000000000000000, 0.000000000000000000, 0.000000000000000000 ) ) ;
#136 = DIRECTION ( 'NONE',  ( -0.000000000000000000, -0.000000000000000000, -1.000000000000000000 ) ) ;
#137 = EDGE_CURVE ( 'NONE', #45, #36, #10, .T. ) ;
#138 =( NAMED_UNIT ( * ) SI_UNIT ( $, .STERADIAN. ) SOLID_ANGLE_UNIT ( ) );
#139 =( NAMED_UNIT ( * ) PLANE_ANGLE_UNIT ( ) SI_UNIT ( $, .RADIAN. ) );
#140 =( LENGTH_UNIT ( ) NAMED_UNIT ( * ) SI_UNIT ( .MILLI., .METRE. ) );
ENDSEC;
END-ISO-10303-21;
