ISO-10303-21;
HEADER;
FILE_DESCRIPTION (( 'STEP AP214' ),
    '1' );
FILE_NAME ('4784-E0W.STEP',
    '2009-12-21T17:04:51',
    ( ' ' ),
    ( ' ' ),
    'SwSTEP 2.0',
    'SolidWorks 2009',
    '' );
FILE_SCHEMA (( 'AUTOMOTIVE_DESIGN' ));
ENDSEC;

DATA;
#1 = VERTEX_POINT ( 'NONE', #127 ) ;
#2 = ORIENTED_EDGE ( 'NONE', *, *, #3, .F. ) ;
#3 = EDGE_CURVE ( 'NONE', #1, #17, #154, .T. ) ;
#4 = ORIENTED_EDGE ( 'NONE', *, *, #9, .T. ) ;
#5 = VERTEX_POINT ( 'NONE', #125 ) ;
#6 =( GEOMETRIC_REPRESENTATION_CONTEXT ( 3 ) GLOBAL_UNCERTAINTY_ASSIGNED_CONTEXT ( ( #158 ) ) GLOBAL_UNIT_ASSIGNED_CONTEXT ( ( #117, #116, #131 ) ) REPRESENTATION_CONTEXT ( 'NONE', 'WORKASPACE' ) );
#7 = VERTEX_POINT ( 'NONE', #126 ) ;
#8 = ORIENTED_EDGE ( 'NONE', *, *, #12, .T. ) ;
#9 = EDGE_CURVE ( 'NONE', #7, #17, #115, .T. ) ;
#10 = STYLED_ITEM ( 'NONE', ( #18 ), #93 ) ;
#11 = ORIENTED_EDGE ( 'NONE', *, *, #12, .F. ) ;
#12 = EDGE_CURVE ( 'NONE', #7, #19, #122, .T. ) ;
#13 = ORIENTED_EDGE ( 'NONE', *, *, #24, .F. ) ;
#14 = CARTESIAN_POINT ( 'NONE',  ( 0.0000000000000000000, 0.0000000000000000000, 5.664438628577664200 ) ) ;
#15 = MECHANICAL_DESIGN_GEOMETRIC_PRESENTATION_REPRESENTATION (  '', ( #10 ), #47 ) ;
#16 = ORIENTED_EDGE ( 'NONE', *, *, #3, .T. ) ;
#17 = VERTEX_POINT ( 'NONE', #123 ) ;
#18 = PRESENTATION_STYLE_ASSIGNMENT (( #188 ) ) ;
#19 = VERTEX_POINT ( 'NONE', #139 ) ;
#20 = EDGE_CURVE ( 'NONE', #19, #1, #114, .T. ) ;
#21 = EDGE_CURVE ( 'NONE', #5, #29, #153, .T. ) ;
#22 = EDGE_LOOP ( 'NONE', ( #11, #4, #94, #109 ) ) ;
#23 = ORIENTED_EDGE ( 'NONE', *, *, #20, .T. ) ;
#24 = EDGE_CURVE ( 'NONE', #17, #29, #128, .T. ) ;
#25 = DIRECTION ( 'NONE',  ( 1.000000000000000000, 0.0000000000000000000, 0.0000000000000000000 ) ) ;
#26 = PRESENTATION_LAYER_ASSIGNMENT (  '', '', ( #10 ) ) ;
#27 = ADVANCED_FACE ( 'NONE', ( #129 ), #180, .F. ) ;
#28 = DIRECTION ( 'NONE',  ( -0.0000000000000000000, -0.0000000000000000000, 1.000000000000000000 ) ) ;
#29 = VERTEX_POINT ( 'NONE', #174 ) ;
#30 = ORIENTED_EDGE ( 'NONE', *, *, #21, .T. ) ;
#31 =( NAMED_UNIT ( * ) SI_UNIT ( $, .STERADIAN. ) SOLID_ANGLE_UNIT ( ) );
#32 =( LENGTH_UNIT ( ) NAMED_UNIT ( * ) SI_UNIT ( .MILLI., .METRE. ) );
#33 = STYLED_ITEM ( 'NONE', ( #38 ), #97 ) ;
#34 = SURFACE_STYLE_FILL_AREA ( #195 ) ;
#35 =( LENGTH_UNIT ( ) NAMED_UNIT ( * ) SI_UNIT ( .MILLI., .METRE. ) );
#36 =( NAMED_UNIT ( * ) SI_UNIT ( $, .STERADIAN. ) SOLID_ANGLE_UNIT ( ) );
#37 = SURFACE_STYLE_USAGE ( .BOTH. , #42 ) ;
#38 = PRESENTATION_STYLE_ASSIGNMENT (( #37 ) ) ;
#39 = PRESENTATION_LAYER_ASSIGNMENT (  '', '', ( #33 ) ) ;
#40 =( NAMED_UNIT ( * ) PLANE_ANGLE_UNIT ( ) SI_UNIT ( $, .RADIAN. ) );
#41 = MECHANICAL_DESIGN_GEOMETRIC_PRESENTATION_REPRESENTATION (  '', ( #33 ), #51 ) ;
#42 = SURFACE_SIDE_STYLE ('',( #34 ) ) ;
#43 = DIRECTION ( 'NONE',  ( -0.0000000000000000000, -0.0000000000000000000, 1.000000000000000000 ) ) ;
#44 = VECTOR ( 'NONE', #43, 1000.000000000000000 ) ;
#45 = CARTESIAN_POINT ( 'NONE',  ( 25.39999999999999900, 0.0000000000000000000, 5.664438628577664200 ) ) ;
#46 = LINE ( 'NONE', #45, #44 ) ;
#47 =( GEOMETRIC_REPRESENTATION_CONTEXT ( 3 ) GLOBAL_UNCERTAINTY_ASSIGNED_CONTEXT ( ( #48 ) ) GLOBAL_UNIT_ASSIGNED_CONTEXT ( ( #32, #40, #31 ) ) REPRESENTATION_CONTEXT ( 'NONE', 'WORKASPACE' ) );
#48 = UNCERTAINTY_MEASURE_WITH_UNIT (LENGTH_MEASURE( 1.000000000000000100E-005 ), #32, 'distance_accuracy_value', 'NONE');
#49 =( NAMED_UNIT ( * ) PLANE_ANGLE_UNIT ( ) SI_UNIT ( $, .RADIAN. ) );
#50 =( GEOMETRIC_REPRESENTATION_CONTEXT ( 3 ) GLOBAL_UNCERTAINTY_ASSIGNED_CONTEXT ( ( #217 ) ) GLOBAL_UNIT_ASSIGNED_CONTEXT ( ( #216, #204, #218 ) ) REPRESENTATION_CONTEXT ( 'NONE', 'WORKASPACE' ) );
#51 =( GEOMETRIC_REPRESENTATION_CONTEXT ( 3 ) GLOBAL_UNCERTAINTY_ASSIGNED_CONTEXT ( ( #64 ) ) GLOBAL_UNIT_ASSIGNED_CONTEXT ( ( #35, #49, #36 ) ) REPRESENTATION_CONTEXT ( 'NONE', 'WORKASPACE' ) );
#52 =( LENGTH_UNIT ( ) NAMED_UNIT ( * ) SI_UNIT ( .MILLI., .METRE. ) );
#53 = SURFACE_STYLE_USAGE ( .BOTH. , #55 ) ;
#54 =( NAMED_UNIT ( * ) PLANE_ANGLE_UNIT ( ) SI_UNIT ( $, .RADIAN. ) );
#55 = SURFACE_SIDE_STYLE ('',( #56 ) ) ;
#56 = SURFACE_STYLE_FILL_AREA ( #57 ) ;
#57 = FILL_AREA_STYLE ('',( #61 ) ) ;
#58 = MECHANICAL_DESIGN_GEOMETRIC_PRESENTATION_REPRESENTATION (  '', ( #59 ), #69 ) ;
#59 = STYLED_ITEM ( 'NONE', ( #60 ), #241 ) ;
#60 = PRESENTATION_STYLE_ASSIGNMENT (( #53 ) ) ;
#61 = FILL_AREA_STYLE_COLOUR ( '', #63 ) ;
#62 = PRESENTATION_LAYER_ASSIGNMENT (  '', '', ( #59 ) ) ;
#63 = COLOUR_RGB ( '',0.7960784313725489700, 0.8235294117647058400, 0.9372549019607843100 ) ;
#64 = UNCERTAINTY_MEASURE_WITH_UNIT (LENGTH_MEASURE( 1.000000000000000100E-005 ), #35, 'distance_accuracy_value', 'NONE');
#65 =( NAMED_UNIT ( * ) SI_UNIT ( $, .STERADIAN. ) SOLID_ANGLE_UNIT ( ) );
#66 = DIRECTION ( 'NONE',  ( 0.0000000000000000000, -0.0000000000000000000, 1.000000000000000000 ) ) ;
#67 = AXIS2_PLACEMENT_3D ( 'NONE', #68, #66, #70 ) ;
#68 = CARTESIAN_POINT ( 'NONE',  ( 0.0000000000000000000, 7.347880794884119700E-016, -5.352714641851661300 ) ) ;
#69 =( GEOMETRIC_REPRESENTATION_CONTEXT ( 3 ) GLOBAL_UNCERTAINTY_ASSIGNED_CONTEXT ( ( #71 ) ) GLOBAL_UNIT_ASSIGNED_CONTEXT ( ( #52, #54, #65 ) ) REPRESENTATION_CONTEXT ( 'NONE', 'WORKASPACE' ) );
#70 = DIRECTION ( 'NONE',  ( 1.000000000000000000, 0.0000000000000000000, 0.0000000000000000000 ) ) ;
#71 = UNCERTAINTY_MEASURE_WITH_UNIT (LENGTH_MEASURE( 1.000000000000000100E-005 ), #52, 'distance_accuracy_value', 'NONE');
#72 = PLANE ( 'NONE',  #67 ) ;
#73 = APPLICATION_PROTOCOL_DEFINITION ( 'draft international standard', 'automotive_design', 1998, #75 ) ;
#74 = PRODUCT_CONTEXT ( 'NONE', #75, 'mechanical' ) ;
#75 = APPLICATION_CONTEXT ( 'automotive_design' ) ;
#76 = PRODUCT_RELATED_PRODUCT_CATEGORY ( 'part', '', ( #79 ) ) ;
#77 = APPLICATION_PROTOCOL_DEFINITION ( 'draft international standard', 'automotive_design', 1998, #78 ) ;
#78 = APPLICATION_CONTEXT ( 'automotive_design' ) ;
#79 = PRODUCT ( '4784-E0W', '4784-E0W', '', ( #74 ) ) ;
#80 = PRODUCT_DEFINITION_CONTEXT ( 'detailed design', #78, 'design' ) ;
#81 = PRODUCT_DEFINITION ( 'UNKNOWN', '', #82, #80 ) ;
#82 = PRODUCT_DEFINITION_FORMATION_WITH_SPECIFIED_SOURCE ( 'ANY', '', #79, .NOT_KNOWN. ) ;
#83 = ADVANCED_FACE ( 'NONE', ( #167 ), #161, .T. ) ;
#84 = EDGE_LOOP ( 'NONE', ( #85, #30, #13, #2, #95 ) ) ;
#85 = ORIENTED_EDGE ( 'NONE', *, *, #86, .T. ) ;
#86 = EDGE_CURVE ( 'NONE', #87, #5, #187, .T. ) ;
#87 = VERTEX_POINT ( 'NONE', #184 ) ;
#88 = CLOSED_SHELL ( 'NONE', ( #83, #97, #27, #99, #102 ) ) ;
#89 = ORIENTED_EDGE ( 'NONE', *, *, #101, .F. ) ;
#90 = ORIENTED_EDGE ( 'NONE', *, *, #20, .F. ) ;
#91 = ORIENTED_EDGE ( 'NONE', *, *, #96, .T. ) ;
#92 = ORIENTED_EDGE ( 'NONE', *, *, #9, .F. ) ;
#93 = MANIFOLD_SOLID_BREP ( 'NONE', #88 ) ;
#94 = ORIENTED_EDGE ( 'NONE', *, *, #24, .T. ) ;
#95 = ORIENTED_EDGE ( 'NONE', *, *, #96, .F. ) ;
#96 = EDGE_CURVE ( 'NONE', #87, #1, #46, .T. ) ;
#97 = ADVANCED_FACE ( 'NONE', ( #198 ), #205, .F. ) ;
#98 = EDGE_LOOP ( 'NONE', ( #92, #8, #23, #16 ) ) ;
#99 = ADVANCED_FACE ( 'NONE', ( #203 ), #72, .F. ) ;
#100 = EDGE_LOOP ( 'NONE', ( #105, #104, #91, #90, #89 ) ) ;
#101 = EDGE_CURVE ( 'NONE', #29, #19, #231, .T. ) ;
#102 = ADVANCED_FACE ( 'NONE', ( #220 ), #244, .T. ) ;
#103 = EDGE_LOOP ( 'NONE', ( #106, #107 ) ) ;
#104 = ORIENTED_EDGE ( 'NONE', *, *, #108, .T. ) ;
#105 = ORIENTED_EDGE ( 'NONE', *, *, #21, .F. ) ;
#106 = ORIENTED_EDGE ( 'NONE', *, *, #86, .F. ) ;
#107 = ORIENTED_EDGE ( 'NONE', *, *, #108, .F. ) ;
#108 = EDGE_CURVE ( 'NONE', #5, #87, #248, .T. ) ;
#109 = ORIENTED_EDGE ( 'NONE', *, *, #101, .T. ) ;
#110 = DIRECTION ( 'NONE',  ( 1.000000000000000000, 0.0000000000000000000, 0.0000000000000000000 ) ) ;
#111 = DIRECTION ( 'NONE',  ( -0.0000000000000000000, -0.0000000000000000000, 1.000000000000000000 ) ) ;
#112 = CARTESIAN_POINT ( 'NONE',  ( 0.0000000000000000000, 0.0000000000000000000, 5.352714641851661300 ) ) ;
#113 = AXIS2_PLACEMENT_3D ( 'NONE', #112, #111, #110 ) ;
#114 = CIRCLE ( 'NONE', #113, 25.39999999999999900 ) ;
#115 = CIRCLE ( 'NONE', #120, 51.46000000000000800 ) ;
#116 =( NAMED_UNIT ( * ) PLANE_ANGLE_UNIT ( ) SI_UNIT ( $, .RADIAN. ) );
#117 =( LENGTH_UNIT ( ) NAMED_UNIT ( * ) SI_UNIT ( .MILLI., .METRE. ) );
#118 = AXIS2_PLACEMENT_3D ( 'NONE', #119, #124, #121 ) ;
#119 = CARTESIAN_POINT ( 'NONE',  ( 0.0000000000000000000, 0.0000000000000000000, 5.352714641851661300 ) ) ;
#120 = AXIS2_PLACEMENT_3D ( 'NONE', #130, #138, #137 ) ;
#121 = DIRECTION ( 'NONE',  ( 1.000000000000000000, 0.0000000000000000000, 0.0000000000000000000 ) ) ;
#122 = CIRCLE ( 'NONE', #143, 51.46000000000000800 ) ;
#123 = CARTESIAN_POINT ( 'NONE',  ( 0.0000000000000000000, 25.40000000000000600, 5.352714641851658700 ) ) ;
#124 = DIRECTION ( 'NONE',  ( -0.0000000000000000000, -0.0000000000000000000, 1.000000000000000000 ) ) ;
#125 = CARTESIAN_POINT ( 'NONE',  ( -25.39999999999999900, 3.110500138708838200E-015, -5.352714641851661300 ) ) ;
#126 = CARTESIAN_POINT ( 'NONE',  ( 0.0000000000000000000, 3.150912148384976700E-015, -1.352714641851666900 ) ) ;
#127 = CARTESIAN_POINT ( 'NONE',  ( 25.39999999999999900, 0.0000000000000000000, 5.352714641851661300 ) ) ;
#128 = CIRCLE ( 'NONE', #149, 25.39999999999999900 ) ;
#129 = FACE_OUTER_BOUND ( 'NONE', #22, .T. ) ;
#130 = CARTESIAN_POINT ( 'NONE',  ( 0.0000000000000000000, 0.0000000000000000000, 50.10728535814833900 ) ) ;
#131 =( NAMED_UNIT ( * ) SI_UNIT ( $, .STERADIAN. ) SOLID_ANGLE_UNIT ( ) );
#132 = MECHANICAL_DESIGN_GEOMETRIC_PRESENTATION_REPRESENTATION (  '', ( #134 ), #6 ) ;
#133 = PRESENTATION_LAYER_ASSIGNMENT (  '', '', ( #134 ) ) ;
#134 = STYLED_ITEM ( 'NONE', ( #135 ), #27 ) ;
#135 = PRESENTATION_STYLE_ASSIGNMENT (( #136 ) ) ;
#136 = SURFACE_STYLE_USAGE ( .BOTH. , #155 ) ;
#137 = DIRECTION ( 'NONE',  ( 0.0000000000000000000, 0.0000000000000000000, -1.000000000000000000 ) ) ;
#138 = DIRECTION ( 'NONE',  ( 1.000000000000000000, 0.0000000000000000000, 0.0000000000000000000 ) ) ;
#139 = CARTESIAN_POINT ( 'NONE',  ( -3.110500138708838900E-015, -25.40000000000000600, 5.352714641851658700 ) ) ;
#140 = DIRECTION ( 'NONE',  ( -1.224606353822377000E-016, -1.000000000000000000, 0.0000000000000000000 ) ) ;
#141 = DIRECTION ( 'NONE',  ( -1.000000000000000000, 1.224606353822377300E-016, 0.0000000000000000000 ) ) ;
#142 = CARTESIAN_POINT ( 'NONE',  ( 0.0000000000000000000, 0.0000000000000000000, 50.10728535814833900 ) ) ;
#143 = AXIS2_PLACEMENT_3D ( 'NONE', #142, #141, #140 ) ;
#144 = FILL_AREA_STYLE_COLOUR ( '', #145 ) ;
#145 = COLOUR_RGB ( '',0.9568627450980391500, 0.9490196078431372100, 0.9607843137254902200 ) ;
#146 = DIRECTION ( 'NONE',  ( 1.000000000000000000, 0.0000000000000000000, 0.0000000000000000000 ) ) ;
#147 = DIRECTION ( 'NONE',  ( -0.0000000000000000000, -0.0000000000000000000, 1.000000000000000000 ) ) ;
#148 = CARTESIAN_POINT ( 'NONE',  ( 0.0000000000000000000, 0.0000000000000000000, 5.352714641851661300 ) ) ;
#149 = AXIS2_PLACEMENT_3D ( 'NONE', #148, #147, #146 ) ;
#150 = DIRECTION ( 'NONE',  ( -0.0000000000000000000, -0.0000000000000000000, 1.000000000000000000 ) ) ;
#151 = VECTOR ( 'NONE', #150, 1000.000000000000000 ) ;
#152 = CARTESIAN_POINT ( 'NONE',  ( -25.39999999999999900, 3.110500138708838200E-015, 5.664438628577664200 ) ) ;
#153 = LINE ( 'NONE', #152, #151 ) ;
#154 = CIRCLE ( 'NONE', #118, 25.39999999999999900 ) ;
#155 = SURFACE_SIDE_STYLE ('',( #156 ) ) ;
#156 = SURFACE_STYLE_FILL_AREA ( #157 ) ;
#157 = FILL_AREA_STYLE ('',( #144 ) ) ;
#158 = UNCERTAINTY_MEASURE_WITH_UNIT (LENGTH_MEASURE( 1.000000000000000100E-005 ), #117, 'distance_accuracy_value', 'NONE');
#159 = UNCERTAINTY_MEASURE_WITH_UNIT (LENGTH_MEASURE( 1.000000000000000100E-005 ), #166, 'distance_accuracy_value', 'NONE');
#160 = AXIS2_PLACEMENT_3D ( 'NONE', #14, #28, #25 ) ;
#161 = CYLINDRICAL_SURFACE ( 'NONE', #160, 25.39999999999999900 ) ;
#162 = FILL_AREA_STYLE_COLOUR ( '', #172 ) ;
#163 =( GEOMETRIC_REPRESENTATION_CONTEXT ( 3 ) GLOBAL_UNCERTAINTY_ASSIGNED_CONTEXT ( ( #159 ) ) GLOBAL_UNIT_ASSIGNED_CONTEXT ( ( #166, #177, #168 ) ) REPRESENTATION_CONTEXT ( 'NONE', 'WORKASPACE' ) );
#164 = CARTESIAN_POINT ( 'NONE',  ( 0.0000000000000000000, 0.0000000000000000000, 50.10728535814833900 ) ) ;
#165 = DIRECTION ( 'NONE',  ( 0.0000000000000000000, 1.000000000000000000, 0.0000000000000000000 ) ) ;
#166 =( LENGTH_UNIT ( ) NAMED_UNIT ( * ) SI_UNIT ( .MILLI., .METRE. ) );
#167 = FACE_OUTER_BOUND ( 'NONE', #84, .T. ) ;
#168 =( NAMED_UNIT ( * ) SI_UNIT ( $, .STERADIAN. ) SOLID_ANGLE_UNIT ( ) );
#169 = PRESENTATION_STYLE_ASSIGNMENT (( #170 ) ) ;
#170 = SURFACE_STYLE_USAGE ( .BOTH. , #176 ) ;
#171 = STYLED_ITEM ( 'NONE', ( #169 ), #83 ) ;
#172 = COLOUR_RGB ( '',0.9568627450980391500, 0.9490196078431372100, 0.9607843137254902200 ) ;
#173 = DIRECTION ( 'NONE',  ( -1.000000000000000000, 0.0000000000000000000, 0.0000000000000000000 ) ) ;
#174 = CARTESIAN_POINT ( 'NONE',  ( -25.39999999999999900, 3.110500138708838200E-015, 5.352714641851661300 ) ) ;
#175 = FILL_AREA_STYLE ('',( #162 ) ) ;
#176 = SURFACE_SIDE_STYLE ('',( #178 ) ) ;
#177 =( NAMED_UNIT ( * ) PLANE_ANGLE_UNIT ( ) SI_UNIT ( $, .RADIAN. ) );
#178 = SURFACE_STYLE_FILL_AREA ( #175 ) ;
#179 = AXIS2_PLACEMENT_3D ( 'NONE', #164, #173, #165 ) ;
#180 = SPHERICAL_SURFACE ( 'NONE', #179, 51.46000000000000800 ) ;
#181 = MECHANICAL_DESIGN_GEOMETRIC_PRESENTATION_REPRESENTATION (  '', ( #171 ), #163 ) ;
#182 = PRESENTATION_LAYER_ASSIGNMENT (  '', '', ( #171 ) ) ;
#183 = CARTESIAN_POINT ( 'NONE',  ( 0.0000000000000000000, 0.0000000000000000000, -5.352714641851661300 ) ) ;
#184 = CARTESIAN_POINT ( 'NONE',  ( 25.39999999999999900, 0.0000000000000000000, -5.352714641851661300 ) ) ;
#185 = DIRECTION ( 'NONE',  ( -0.0000000000000000000, -0.0000000000000000000, 1.000000000000000000 ) ) ;
#186 = AXIS2_PLACEMENT_3D ( 'NONE', #183, #185, #192 ) ;
#187 = CIRCLE ( 'NONE', #186, 25.39999999999999900 ) ;
#188 = SURFACE_STYLE_USAGE ( .BOTH. , #189 ) ;
#189 = SURFACE_SIDE_STYLE ('',( #190 ) ) ;
#190 = SURFACE_STYLE_FILL_AREA ( #191 ) ;
#191 = FILL_AREA_STYLE ('',( #193 ) ) ;
#192 = DIRECTION ( 'NONE',  ( 1.000000000000000000, 0.0000000000000000000, 0.0000000000000000000 ) ) ;
#193 = FILL_AREA_STYLE_COLOUR ( '', #194 ) ;
#194 = COLOUR_RGB ( '',0.7960784313725489700, 0.8235294117647058400, 0.9372549019607843100 ) ;
#195 = FILL_AREA_STYLE ('',( #196 ) ) ;
#196 = FILL_AREA_STYLE_COLOUR ( '', #197 ) ;
#197 = COLOUR_RGB ( '',0.9568627450980391500, 0.9490196078431372100, 0.9607843137254902200 ) ;
#198 = FACE_OUTER_BOUND ( 'NONE', #98, .T. ) ;
#199 = PRESENTATION_STYLE_ASSIGNMENT (( #200 ) ) ;
#200 = SURFACE_STYLE_USAGE ( .BOTH. , #212 ) ;
#201 = DIRECTION ( 'NONE',  ( 0.0000000000000000000, 1.000000000000000000, 0.0000000000000000000 ) ) ;
#202 = CARTESIAN_POINT ( 'NONE',  ( 0.0000000000000000000, 0.0000000000000000000, 50.10728535814833900 ) ) ;
#203 = FACE_OUTER_BOUND ( 'NONE', #103, .T. ) ;
#204 =( NAMED_UNIT ( * ) PLANE_ANGLE_UNIT ( ) SI_UNIT ( $, .RADIAN. ) );
#205 = SPHERICAL_SURFACE ( 'NONE', #210, 51.46000000000000800 ) ;
#206 = PRESENTATION_LAYER_ASSIGNMENT (  '', '', ( #207 ) ) ;
#207 = STYLED_ITEM ( 'NONE', ( #199 ), #99 ) ;
#208 = FILL_AREA_STYLE_COLOUR ( '', #215 ) ;
#209 = DIRECTION ( 'NONE',  ( -1.000000000000000000, 0.0000000000000000000, 0.0000000000000000000 ) ) ;
#210 = AXIS2_PLACEMENT_3D ( 'NONE', #202, #209, #201 ) ;
#211 = MECHANICAL_DESIGN_GEOMETRIC_PRESENTATION_REPRESENTATION (  '', ( #207 ), #50 ) ;
#212 = SURFACE_SIDE_STYLE ('',( #213 ) ) ;
#213 = SURFACE_STYLE_FILL_AREA ( #214 ) ;
#214 = FILL_AREA_STYLE ('',( #208 ) ) ;
#215 = COLOUR_RGB ( '',0.9568627450980391500, 0.9490196078431372100, 0.9607843137254902200 ) ;
#216 =( LENGTH_UNIT ( ) NAMED_UNIT ( * ) SI_UNIT ( .MILLI., .METRE. ) );
#217 = UNCERTAINTY_MEASURE_WITH_UNIT (LENGTH_MEASURE( 1.000000000000000100E-005 ), #216, 'distance_accuracy_value', 'NONE');
#218 =( NAMED_UNIT ( * ) SI_UNIT ( $, .STERADIAN. ) SOLID_ANGLE_UNIT ( ) );
#219 =( NAMED_UNIT ( * ) PLANE_ANGLE_UNIT ( ) SI_UNIT ( $, .RADIAN. ) );
#220 = FACE_OUTER_BOUND ( 'NONE', #100, .T. ) ;
#221 = DIRECTION ( 'NONE',  ( 1.000000000000000000, 0.0000000000000000000, 0.0000000000000000000 ) ) ;
#222 = COLOUR_RGB ( '',0.9568627450980391500, 0.9490196078431372100, 0.9607843137254902200 ) ;
#223 = DIRECTION ( 'NONE',  ( -0.0000000000000000000, -0.0000000000000000000, 1.000000000000000000 ) ) ;
#224 =( NAMED_UNIT ( * ) SI_UNIT ( $, .STERADIAN. ) SOLID_ANGLE_UNIT ( ) );
#225 = UNCERTAINTY_MEASURE_WITH_UNIT (LENGTH_MEASURE( 1.000000000000000100E-005 ), #228, 'distance_accuracy_value', 'NONE');
#226 = SURFACE_STYLE_FILL_AREA ( #227 ) ;
#227 = FILL_AREA_STYLE ('',( #255 ) ) ;
#228 =( LENGTH_UNIT ( ) NAMED_UNIT ( * ) SI_UNIT ( .MILLI., .METRE. ) );
#229 = CARTESIAN_POINT ( 'NONE',  ( 0.0000000000000000000, 0.0000000000000000000, 5.352714641851661300 ) ) ;
#230 = UNCERTAINTY_MEASURE_WITH_UNIT (LENGTH_MEASURE( 1.000000000000000100E-005 ), #236, 'distance_accuracy_value', 'NONE');
#231 = CIRCLE ( 'NONE', #237, 25.39999999999999900 ) ;
#232 = CARTESIAN_POINT ( 'NONE',  ( 0.0000000000000000000, 0.0000000000000000000, 5.664438628577664200 ) ) ;
#233 = DIRECTION ( 'NONE',  ( 1.000000000000000000, 0.0000000000000000000, 0.0000000000000000000 ) ) ;
#234 = DIRECTION ( 'NONE',  ( -0.0000000000000000000, -0.0000000000000000000, 1.000000000000000000 ) ) ;
#235 = AXIS2_PLACEMENT_3D ( 'NONE', #247, #234, #233 ) ;
#236 =( LENGTH_UNIT ( ) NAMED_UNIT ( * ) SI_UNIT ( .MILLI., .METRE. ) );
#237 = AXIS2_PLACEMENT_3D ( 'NONE', #229, #223, #221 ) ;
#238 =( NAMED_UNIT ( * ) PLANE_ANGLE_UNIT ( ) SI_UNIT ( $, .RADIAN. ) );
#239 = SURFACE_STYLE_USAGE ( .BOTH. , #240 ) ;
#240 = SURFACE_SIDE_STYLE ('',( #226 ) ) ;
#241 = ADVANCED_BREP_SHAPE_REPRESENTATION ( '4784-E0W', ( #93, #256 ), #242 ) ;
#242 =( GEOMETRIC_REPRESENTATION_CONTEXT ( 3 ) GLOBAL_UNCERTAINTY_ASSIGNED_CONTEXT ( ( #225 ) ) GLOBAL_UNIT_ASSIGNED_CONTEXT ( ( #228, #219, #224 ) ) REPRESENTATION_CONTEXT ( 'NONE', 'WORKASPACE' ) );
#243 = AXIS2_PLACEMENT_3D ( 'NONE', #232, #250, #249 ) ;
#244 = CYLINDRICAL_SURFACE ( 'NONE', #243, 25.39999999999999900 ) ;
#245 = MECHANICAL_DESIGN_GEOMETRIC_PRESENTATION_REPRESENTATION (  '', ( #251 ), #253 ) ;
#246 = PRESENTATION_LAYER_ASSIGNMENT (  '', '', ( #251 ) ) ;
#247 = CARTESIAN_POINT ( 'NONE',  ( 0.0000000000000000000, 0.0000000000000000000, -5.352714641851661300 ) ) ;
#248 = CIRCLE ( 'NONE', #235, 25.39999999999999900 ) ;
#249 = DIRECTION ( 'NONE',  ( 1.000000000000000000, 0.0000000000000000000, 0.0000000000000000000 ) ) ;
#250 = DIRECTION ( 'NONE',  ( -0.0000000000000000000, -0.0000000000000000000, 1.000000000000000000 ) ) ;
#251 = STYLED_ITEM ( 'NONE', ( #252 ), #102 ) ;
#252 = PRESENTATION_STYLE_ASSIGNMENT (( #239 ) ) ;
#253 =( GEOMETRIC_REPRESENTATION_CONTEXT ( 3 ) GLOBAL_UNCERTAINTY_ASSIGNED_CONTEXT ( ( #230 ) ) GLOBAL_UNIT_ASSIGNED_CONTEXT ( ( #236, #238, #254 ) ) REPRESENTATION_CONTEXT ( 'NONE', 'WORKASPACE' ) );
#254 =( NAMED_UNIT ( * ) SI_UNIT ( $, .STERADIAN. ) SOLID_ANGLE_UNIT ( ) );
#255 = FILL_AREA_STYLE_COLOUR ( '', #222 ) ;
#256 = AXIS2_PLACEMENT_3D ( 'NONE', #258, #259, #257 ) ;
#257 = DIRECTION ( 'NONE',  ( 1.000000000000000000, 0.0000000000000000000, 0.0000000000000000000 ) ) ;
#258 = CARTESIAN_POINT ( 'NONE',  ( 0.0000000000000000000, 0.0000000000000000000, 0.0000000000000000000 ) ) ;
#259 = DIRECTION ( 'NONE',  ( 0.0000000000000000000, 0.0000000000000000000, 1.000000000000000000 ) ) ;
#260 = SHAPE_DEFINITION_REPRESENTATION ( #261, #241 ) ;
#261 = PRODUCT_DEFINITION_SHAPE ( 'NONE', 'NONE',  #81 ) ;
ENDSEC;
END-ISO-10303-21;
