ISO-10303-21;
HEADER;
FILE_DESCRIPTION (( 'STEP AP203' ),
    '1' );
FILE_NAME ('Web Model 15423_15435.step',
    '2020-07-31T18:42:23',
    ( '' ),
    ( '' ),
    'SwSTEP 2.0',
    'SolidWorks 2018',
    '' );
FILE_SCHEMA (( 'CONFIG_CONTROL_DESIGN' ));
ENDSEC;

DATA;
#1 = CALENDAR_DATE ( 2020, 31, 7 ) ;
#2 = AXIS2_PLACEMENT_3D ( 'NONE', #96, #73, #130 ) ;
#3 = ORIENTED_EDGE ( 'NONE', *, *, #36, .T. ) ;
#4 = LINE ( 'NONE', #7, #127 ) ;
#5 = APPROVAL_ROLE ( '' ) ;
#6 = CC_DESIGN_DATE_AND_TIME_ASSIGNMENT ( #140, #103, ( #95 ) ) ;
#7 = CARTESIAN_POINT ( 'NONE',  ( -6.349999999999999645, 0.0000000000000000000, 1.500000000000000000 ) ) ;
#8 = ORIENTED_EDGE ( 'NONE', *, *, #149, .T. ) ;
#9 = FACE_OUTER_BOUND ( 'NONE', #116, .T. ) ;
#10 = APPLICATION_PROTOCOL_DEFINITION ( 'international standard', 'config_control_design', 1994, #157 ) ;
#11 = MANIFOLD_SOLID_BREP ( 'Boss-Extrude1', #92 ) ;
#12 =( LENGTH_UNIT ( ) NAMED_UNIT ( * ) SI_UNIT ( .MILLI., .METRE. ) );
#13 = APPROVAL ( #169, 'UNSPECIFIED' ) ;
#14 = PERSON_AND_ORGANIZATION_ROLE ( 'creator' ) ;
#15 = PERSON_AND_ORGANIZATION_ROLE ( 'classification_officer' ) ;
#16 = DATE_AND_TIME ( #49, #108 ) ;
#17 = PERSON_AND_ORGANIZATION ( #132, #152 ) ;
#18 = EDGE_CURVE ( 'NONE', #66, #91, #55, .T. ) ;
#19 = VECTOR ( 'NONE', #172, 1000.000000000000000 ) ;
#20 = EDGE_CURVE ( 'NONE', #134, #91, #67, .T. ) ;
#21 =( GEOMETRIC_REPRESENTATION_CONTEXT ( 3 ) GLOBAL_UNCERTAINTY_ASSIGNED_CONTEXT ( ( #70 ) ) GLOBAL_UNIT_ASSIGNED_CONTEXT ( ( #12, #44, #71 ) ) REPRESENTATION_CONTEXT ( 'NONE', 'WORKASPACE' ) );
#22 = EDGE_LOOP ( 'NONE', ( #50, #80 ) ) ;
#23 = CC_DESIGN_APPROVAL ( #13, ( #83 ) ) ;
#24 = CC_DESIGN_PERSON_AND_ORGANIZATION_ASSIGNMENT ( #45, #25, ( #35 ) ) ;
#25 = PERSON_AND_ORGANIZATION_ROLE ( 'design_owner' ) ;
#26 = CARTESIAN_POINT ( 'NONE',  ( -6.349999999999999645, 0.0000000000000000000, -1.500000000000000000 ) ) ;
#27 = ORIENTED_EDGE ( 'NONE', *, *, #81, .T. ) ;
#28 = ADVANCED_FACE ( 'NONE', ( #111 ), #88, .F. ) ;
#29 = CARTESIAN_POINT ( 'NONE',  ( 0.0000000000000000000, 0.0000000000000000000, -1.500000000000000000 ) ) ;
#30 = ORIENTED_EDGE ( 'NONE', *, *, #20, .T. ) ;
#31 = EDGE_CURVE ( 'NONE', #134, #160, #119, .T. ) ;
#32 = COORDINATED_UNIVERSAL_TIME_OFFSET ( 5, 0, .BEHIND. ) ;
#33 = CIRCLE ( 'NONE', #115, 6.349999999999999645 ) ;
#34 = LOCAL_TIME ( 14, 42, 23.00000000000000000, #43 ) ;
#35 = PRODUCT ( 'Web Model 15423_15435', 'Web Model 15423_15435', '', ( #74 ) ) ;
#36 = EDGE_CURVE ( 'NONE', #91, #66, #162, .T. ) ;
#37 = CC_DESIGN_PERSON_AND_ORGANIZATION_ASSIGNMENT ( #110, #15, ( #95 ) ) ;
#38 = DIRECTION ( 'NONE',  ( -0.0000000000000000000, -0.0000000000000000000, -1.000000000000000000 ) ) ;
#39 = CARTESIAN_POINT ( 'NONE',  ( 0.0000000000000000000, 0.0000000000000000000, -1.500000000000000000 ) ) ;
#40 = CARTESIAN_POINT ( 'NONE',  ( 0.0000000000000000000, 0.0000000000000000000, 1.500000000000000000 ) ) ;
#41 = ORIENTED_EDGE ( 'NONE', *, *, #31, .F. ) ;
#42 = PERSON_AND_ORGANIZATION ( #132, #152 ) ;
#43 = COORDINATED_UNIVERSAL_TIME_OFFSET ( 5, 0, .BEHIND. ) ;
#44 =( NAMED_UNIT ( * ) PLANE_ANGLE_UNIT ( ) SI_UNIT ( $, .RADIAN. ) );
#45 = PERSON_AND_ORGANIZATION ( #132, #152 ) ;
#46 = APPROVAL_ROLE ( '' ) ;
#47 = LOCAL_TIME ( 14, 42, 23.00000000000000000, #118 ) ;
#48 = ORIENTED_EDGE ( 'NONE', *, *, #31, .T. ) ;
#49 = CALENDAR_DATE ( 2020, 31, 7 ) ;
#50 = ORIENTED_EDGE ( 'NONE', *, *, #18, .F. ) ;
#51 = CARTESIAN_POINT ( 'NONE',  ( 6.349999999999999645, 7.776507174585692163E-16, 1.500000000000000000 ) ) ;
#52 = DIRECTION ( 'NONE',  ( 0.0000000000000000000, 0.0000000000000000000, 1.000000000000000000 ) ) ;
#53 = PLANE ( 'NONE',  #136 ) ;
#54 = PERSON_AND_ORGANIZATION ( #132, #152 ) ;
#55 = CIRCLE ( 'NONE', #99, 6.349999999999999645 ) ;
#56 = DIRECTION ( 'NONE',  ( 1.000000000000000000, 0.0000000000000000000, 0.0000000000000000000 ) ) ;
#57 = AXIS2_PLACEMENT_3D ( 'NONE', #131, #170, #56 ) ;
#58 = DIRECTION ( 'NONE',  ( 1.000000000000000000, 0.0000000000000000000, -0.0000000000000000000 ) ) ;
#59 = CARTESIAN_POINT ( 'NONE',  ( -6.349999999999999645, 0.0000000000000000000, 1.500000000000000000 ) ) ;
#60 = DATE_AND_TIME ( #98, #47 ) ;
#61 = EDGE_LOOP ( 'NONE', ( #41, #30, #3, #82 ) ) ;
#62 = APPROVAL_ROLE ( '' ) ;
#63 = CC_DESIGN_PERSON_AND_ORGANIZATION_ASSIGNMENT ( #54, #146, ( #150 ) ) ;
#64 = CYLINDRICAL_SURFACE ( 'NONE', #89, 6.349999999999999645 ) ;
#65 = CC_DESIGN_DATE_AND_TIME_ASSIGNMENT ( #16, #86, ( #83 ) ) ;
#66 = VERTEX_POINT ( 'NONE', #26 ) ;
#67 = LINE ( 'NONE', #72, #19 ) ;
#68 = AXIS2_PLACEMENT_3D ( 'NONE', #29, #123, #58 ) ;
#69 = DATE_AND_TIME ( #107, #165 ) ;
#70 = UNCERTAINTY_MEASURE_WITH_UNIT (LENGTH_MEASURE( 1.000000000000000082E-05 ), #12, 'distance_accuracy_value', 'NONE');
#71 =( NAMED_UNIT ( * ) SI_UNIT ( $, .STERADIAN. ) SOLID_ANGLE_UNIT ( ) );
#72 = CARTESIAN_POINT ( 'NONE',  ( 6.349999999999999645, 7.776507174585692163E-16, 1.500000000000000000 ) ) ;
#73 = DIRECTION ( 'NONE',  ( 0.0000000000000000000, 0.0000000000000000000, 1.000000000000000000 ) ) ;
#74 = MECHANICAL_CONTEXT ( 'NONE', #143, 'mechanical' ) ;
#75 = CARTESIAN_POINT ( 'NONE',  ( 0.0000000000000000000, 0.0000000000000000000, 1.500000000000000000 ) ) ;
#76 = SECURITY_CLASSIFICATION_LEVEL ( 'unclassified' ) ;
#77 = APPROVAL ( #105, 'UNSPECIFIED' ) ;
#78 = APPROVAL_PERSON_ORGANIZATION ( #79, #104, #62 ) ;
#79 = PERSON_AND_ORGANIZATION ( #132, #152 ) ;
#80 = ORIENTED_EDGE ( 'NONE', *, *, #36, .F. ) ;
#81 = EDGE_CURVE ( 'NONE', #160, #134, #33, .T. ) ;
#82 = ORIENTED_EDGE ( 'NONE', *, *, #149, .F. ) ;
#83 = PRODUCT_DEFINITION ( 'UNKNOWN', '', #150, #137 ) ;
#84 = ORIENTED_EDGE ( 'NONE', *, *, #18, .T. ) ;
#85 = LOCAL_TIME ( 14, 42, 23.00000000000000000, #163 ) ;
#86 = DATE_TIME_ROLE ( 'creation_date' ) ;
#87 = ADVANCED_FACE ( 'NONE', ( #9 ), #53, .T. ) ;
#88 = PLANE ( 'NONE',  #68 ) ;
#89 = AXIS2_PLACEMENT_3D ( 'NONE', #121, #153, #142 ) ;
#90 = DIRECTION ( 'NONE',  ( 1.000000000000000000, 0.0000000000000000000, 0.0000000000000000000 ) ) ;
#91 = VERTEX_POINT ( 'NONE', #159 ) ;
#92 = CLOSED_SHELL ( 'NONE', ( #122, #158, #87, #28 ) ) ;
#93 = CC_DESIGN_PERSON_AND_ORGANIZATION_ASSIGNMENT ( #94, #14, ( #150 ) ) ;
#94 = PERSON_AND_ORGANIZATION ( #132, #152 ) ;
#95 = SECURITY_CLASSIFICATION ( '', '', #76 ) ;
#96 = CARTESIAN_POINT ( 'NONE',  ( 0.0000000000000000000, 0.0000000000000000000, 0.0000000000000000000 ) ) ;
#97 = DIRECTION ( 'NONE',  ( 0.0000000000000000000, 0.0000000000000000000, 1.000000000000000000 ) ) ;
#98 = CALENDAR_DATE ( 2020, 31, 7 ) ;
#99 = AXIS2_PLACEMENT_3D ( 'NONE', #39, #52, #114 ) ;
#100 = CC_DESIGN_APPROVAL ( #77, ( #150 ) ) ;
#101 = ORIENTED_EDGE ( 'NONE', *, *, #20, .F. ) ;
#102 = DIRECTION ( 'NONE',  ( 1.000000000000000000, 0.0000000000000000000, -0.0000000000000000000 ) ) ;
#103 = DATE_TIME_ROLE ( 'classification_date' ) ;
#104 = APPROVAL ( #124, 'UNSPECIFIED' ) ;
#105 = APPROVAL_STATUS ( 'not_yet_approved' ) ;
#106 = SHAPE_DEFINITION_REPRESENTATION ( #168, #117 ) ;
#107 = CALENDAR_DATE ( 2020, 31, 7 ) ;
#108 = LOCAL_TIME ( 14, 42, 23.00000000000000000, #151 ) ;
#109 = FACE_OUTER_BOUND ( 'NONE', #61, .T. ) ;
#110 = PERSON_AND_ORGANIZATION ( #132, #152 ) ;
#111 = FACE_OUTER_BOUND ( 'NONE', #22, .T. ) ;
#112 = DIRECTION ( 'NONE',  ( 0.0000000000000000000, 0.0000000000000000000, 1.000000000000000000 ) ) ;
#113 = DIRECTION ( 'NONE',  ( 1.000000000000000000, 0.0000000000000000000, 0.0000000000000000000 ) ) ;
#114 = DIRECTION ( 'NONE',  ( 1.000000000000000000, 0.0000000000000000000, 0.0000000000000000000 ) ) ;
#115 = AXIS2_PLACEMENT_3D ( 'NONE', #75, #112, #90 ) ;
#116 = EDGE_LOOP ( 'NONE', ( #27, #48 ) ) ;
#117 = ADVANCED_BREP_SHAPE_REPRESENTATION ( 'Web Model 15423_15435', ( #11, #2 ), #21 ) ;
#118 = COORDINATED_UNIVERSAL_TIME_OFFSET ( 5, 0, .BEHIND. ) ;
#119 = CIRCLE ( 'NONE', #57, 6.349999999999999645 ) ;
#120 = PERSON_AND_ORGANIZATION_ROLE ( 'creator' ) ;
#121 = CARTESIAN_POINT ( 'NONE',  ( 0.0000000000000000000, 0.0000000000000000000, 1.500000000000000000 ) ) ;
#122 = ADVANCED_FACE ( 'NONE', ( #109 ), #64, .T. ) ;
#123 = DIRECTION ( 'NONE',  ( 0.0000000000000000000, 0.0000000000000000000, 1.000000000000000000 ) ) ;
#124 = APPROVAL_STATUS ( 'not_yet_approved' ) ;
#125 = APPROVAL_PERSON_ORGANIZATION ( #148, #77, #46 ) ;
#126 = AXIS2_PLACEMENT_3D ( 'NONE', #129, #97, #113 ) ;
#127 = VECTOR ( 'NONE', #38, 1000.000000000000000 ) ;
#128 = CC_DESIGN_SECURITY_CLASSIFICATION ( #95, ( #150 ) ) ;
#129 = CARTESIAN_POINT ( 'NONE',  ( 0.0000000000000000000, 0.0000000000000000000, -1.500000000000000000 ) ) ;
#130 = DIRECTION ( 'NONE',  ( 1.000000000000000000, 0.0000000000000000000, 0.0000000000000000000 ) ) ;
#131 = CARTESIAN_POINT ( 'NONE',  ( 0.0000000000000000000, 0.0000000000000000000, 1.500000000000000000 ) ) ;
#132 = PERSON ( 'UNSPECIFIED', 'UNSPECIFIED', 'UNSPECIFIED', ('UNSPECIFIED'), ('UNSPECIFIED'), ('UNSPECIFIED') ) ;
#133 = APPROVAL_DATE_TIME ( #156, #13 ) ;
#134 = VERTEX_POINT ( 'NONE', #51 ) ;
#135 = CC_DESIGN_PERSON_AND_ORGANIZATION_ASSIGNMENT ( #17, #120, ( #83 ) ) ;
#136 = AXIS2_PLACEMENT_3D ( 'NONE', #40, #171, #102 ) ;
#137 = DESIGN_CONTEXT ( 'detailed design', #157, 'design' ) ;
#138 = ORIENTED_EDGE ( 'NONE', *, *, #81, .F. ) ;
#139 = CC_DESIGN_APPROVAL ( #104, ( #95 ) ) ;
#140 = DATE_AND_TIME ( #1, #34 ) ;
#141 = APPLICATION_PROTOCOL_DEFINITION ( 'international standard', 'config_control_design', 1994, #143 ) ;
#142 = DIRECTION ( 'NONE',  ( -1.000000000000000000, 0.0000000000000000000, 0.0000000000000000000 ) ) ;
#143 = APPLICATION_CONTEXT ( 'configuration controlled 3d designs of mechanical parts and assemblies' ) ;
#144 = CYLINDRICAL_SURFACE ( 'NONE', #174, 6.349999999999999645 ) ;
#145 = DIRECTION ( 'NONE',  ( -1.000000000000000000, 0.0000000000000000000, 0.0000000000000000000 ) ) ;
#146 = PERSON_AND_ORGANIZATION_ROLE ( 'design_supplier' ) ;
#147 = FACE_OUTER_BOUND ( 'NONE', #175, .T. ) ;
#148 = PERSON_AND_ORGANIZATION ( #132, #152 ) ;
#149 = EDGE_CURVE ( 'NONE', #160, #66, #4, .T. ) ;
#150 = PRODUCT_DEFINITION_FORMATION_WITH_SPECIFIED_SOURCE ( 'ANY', '', #35, .NOT_KNOWN. ) ;
#151 = COORDINATED_UNIVERSAL_TIME_OFFSET ( 5, 0, .BEHIND. ) ;
#152 = ORGANIZATION ( 'UNSPECIFIED', 'UNSPECIFIED', '' ) ;
#153 = DIRECTION ( 'NONE',  ( -0.0000000000000000000, -0.0000000000000000000, -1.000000000000000000 ) ) ;
#154 = APPROVAL_DATE_TIME ( #60, #77 ) ;
#155 = DIRECTION ( 'NONE',  ( -0.0000000000000000000, -0.0000000000000000000, -1.000000000000000000 ) ) ;
#156 = DATE_AND_TIME ( #166, #85 ) ;
#157 = APPLICATION_CONTEXT ( 'configuration controlled 3d designs of mechanical parts and assemblies' ) ;
#158 = ADVANCED_FACE ( 'NONE', ( #147 ), #144, .T. ) ;
#159 = CARTESIAN_POINT ( 'NONE',  ( 6.349999999999999645, 7.776507174585692163E-16, -1.500000000000000000 ) ) ;
#160 = VERTEX_POINT ( 'NONE', #59 ) ;
#161 = PRODUCT_RELATED_PRODUCT_CATEGORY ( 'detail', '', ( #35 ) ) ;
#162 = CIRCLE ( 'NONE', #126, 6.349999999999999645 ) ;
#163 = COORDINATED_UNIVERSAL_TIME_OFFSET ( 5, 0, .BEHIND. ) ;
#164 = APPROVAL_DATE_TIME ( #69, #104 ) ;
#165 = LOCAL_TIME ( 14, 42, 23.00000000000000000, #32 ) ;
#166 = CALENDAR_DATE ( 2020, 31, 7 ) ;
#167 = APPROVAL_PERSON_ORGANIZATION ( #42, #13, #5 ) ;
#168 = PRODUCT_DEFINITION_SHAPE ( 'NONE', 'NONE',  #83 ) ;
#169 = APPROVAL_STATUS ( 'not_yet_approved' ) ;
#170 = DIRECTION ( 'NONE',  ( 0.0000000000000000000, 0.0000000000000000000, 1.000000000000000000 ) ) ;
#171 = DIRECTION ( 'NONE',  ( 0.0000000000000000000, 0.0000000000000000000, 1.000000000000000000 ) ) ;
#172 = DIRECTION ( 'NONE',  ( -0.0000000000000000000, -0.0000000000000000000, -1.000000000000000000 ) ) ;
#173 = CARTESIAN_POINT ( 'NONE',  ( 0.0000000000000000000, 0.0000000000000000000, 1.500000000000000000 ) ) ;
#174 = AXIS2_PLACEMENT_3D ( 'NONE', #173, #155, #145 ) ;
#175 = EDGE_LOOP ( 'NONE', ( #101, #138, #8, #84 ) ) ;
ENDSEC;
END-ISO-10303-21;
