ISO-10303-21;
HEADER;
FILE_DESCRIPTION (( 'STEP AP203' ),
    '1' );
FILE_NAME ('4320-E0W.STEP',
    '2015-06-17T20:45:08',
    ( 'admin' ),
    ( '' ),
    'SwSTEP 2.0',
    'SolidWorks 2014',
    '' );
FILE_SCHEMA (( 'CONFIG_CONTROL_DESIGN' ));
ENDSEC;

DATA;
#1 = CALENDAR_DATE ( 2015, 17, 6 ) ;
#2 = EDGE_CURVE ( 'NONE', #357, #129, #224, .T. ) ;
#3 = ORIENTED_EDGE ( 'NONE', *, *, #268, .T. ) ;
#4 = FACE_OUTER_BOUND ( 'NONE', #26, .T. ) ;
#5 = UNCERTAINTY_MEASURE_WITH_UNIT (LENGTH_MEASURE( 1.000000000000000100E-005 ), #158, 'distance_accuracy_value', 'NONE');
#6 = SPHERICAL_SURFACE ( 'NONE', #249, 68.29999999999999700 ) ;
#7 = DIRECTION ( 'NONE',  ( 0.0000000000000000000, 0.0000000000000000000, -1.000000000000000000 ) ) ;
#8 = DIRECTION ( 'NONE',  ( -0.0000000000000000000, -0.0000000000000000000, 1.000000000000000000 ) ) ;
#9 = APPROVAL ( #160, 'UNSPECIFIED' ) ;
#10 = ORIENTED_EDGE ( 'NONE', *, *, #334, .T. ) ;
#11 = CARTESIAN_POINT ( 'NONE',  ( 0.0000000000000000000, 0.0000000000000000000, -66.10000000000002300 ) ) ;
#12 = CARTESIAN_POINT ( 'NONE',  ( 12.45481546273636100, 1.525274989041104400E-015, 1.054803043335481100 ) ) ;
#13 = CYLINDRICAL_SURFACE ( 'NONE', #261, 12.69999999999999900 ) ;
#14 = EDGE_CURVE ( 'NONE', #267, #280, #156, .T. ) ;
#15 = DIRECTION ( 'NONE',  ( -1.000000000000000000, 0.0000000000000000000, 0.0000000000000000000 ) ) ;
#16 = CALENDAR_DATE ( 2015, 17, 6 ) ;
#17 = ORIENTED_EDGE ( 'NONE', *, *, #257, .F. ) ;
#18 = DIRECTION ( 'NONE',  ( 0.0000000000000000000, 0.0000000000000000000, -1.000000000000000000 ) ) ;
#19 = EDGE_CURVE ( 'NONE', #265, #174, #273, .T. ) ;
#20 = PRODUCT_RELATED_PRODUCT_CATEGORY ( 'detail', '', ( #214 ) ) ;
#21 = ORIENTED_EDGE ( 'NONE', *, *, #42, .F. ) ;
#22 = ADVANCED_FACE ( 'NONE', ( #351 ), #6, .T. ) ;
#23 = CIRCLE ( 'NONE', #318, 12.45481546273634900 ) ;
#24 = EDGE_CURVE ( 'NONE', #349, #47, #23, .T. ) ;
#25 = COORDINATED_UNIVERSAL_TIME_OFFSET ( 5, 0, .BEHIND. ) ;
#26 = EDGE_LOOP ( 'NONE', ( #287, #207, #290, #202 ) ) ;
#27 = DIRECTION ( 'NONE',  ( -1.000000000000000000, 0.0000000000000000000, 0.0000000000000000000 ) ) ;
#28 = DIRECTION ( 'NONE',  ( -0.0000000000000000000, -0.0000000000000000000, 1.000000000000000000 ) ) ;
#29 = DIRECTION ( 'NONE',  ( 1.000000000000000000, 0.0000000000000000000, 0.0000000000000000000 ) ) ;
#30 = CARTESIAN_POINT ( 'NONE',  ( -12.69999999999999900, 1.555301434917138400E-015, 2.200000000000000200 ) ) ;
#31 = CARTESIAN_POINT ( 'NONE',  ( 12.45481546273634900, 0.0000000000000000000, -1.054803043335481100 ) ) ;
#32 = VERTEX_POINT ( 'NONE', #180 ) ;
#33 = PERSON_AND_ORGANIZATION_ROLE ( 'creator' ) ;
#34 = CC_DESIGN_APPROVAL ( #9, ( #89 ) ) ;
#35 = APPROVAL_ROLE ( '' ) ;
#36 = LOCAL_TIME ( 16, 45, 8.000000000000000000, #96 ) ;
#37 = VERTEX_POINT ( 'NONE', #108 ) ;
#38 = PERSON_AND_ORGANIZATION ( #109, #366 ) ;
#39 = CARTESIAN_POINT ( 'NONE',  ( 12.45481546273635900, 1.540288211979121200E-015, 1.054803043335481100 ) ) ;
#40 = CC_DESIGN_DATE_AND_TIME_ASSIGNMENT ( #243, #172, ( #89 ) ) ;
#41 = ORIENTED_EDGE ( 'NONE', *, *, #138, .F. ) ;
#42 = EDGE_CURVE ( 'NONE', #357, #236, #285, .T. ) ;
#43 = VECTOR ( 'NONE', #148, 1000.000000000000000 ) ;
#44 = CC_DESIGN_SECURITY_CLASSIFICATION ( #89, ( #157 ) ) ;
#45 = DIRECTION ( 'NONE',  ( 0.0000000000000000000, 0.0000000000000000000, -1.000000000000000000 ) ) ;
#46 = LOCAL_TIME ( 16, 45, 8.000000000000000000, #364 ) ;
#47 = VERTEX_POINT ( 'NONE', #135 ) ;
#48 = DIRECTION ( 'NONE',  ( 0.0000000000000000000, 1.000000000000000000, 0.0000000000000000000 ) ) ;
#49 = CARTESIAN_POINT ( 'NONE',  ( 0.0000000000000000000, 0.0000000000000000000, -0.7588667763060719100 ) ) ;
#50 = CC_DESIGN_PERSON_AND_ORGANIZATION_ASSIGNMENT ( #179, #183, ( #89 ) ) ;
#51 = AXIS2_PLACEMENT_3D ( 'NONE', #341, #254, #270 ) ;
#52 = ORIENTED_EDGE ( 'NONE', *, *, #252, .F. ) ;
#53 = LINE ( 'NONE', #30, #187 ) ;
#54 = ADVANCED_FACE ( 'NONE', ( #305 ), #171, .T. ) ;
#55 = PERSON_AND_ORGANIZATION_ROLE ( 'creator' ) ;
#56 = CALENDAR_DATE ( 2015, 17, 6 ) ;
#57 = FACE_OUTER_BOUND ( 'NONE', #115, .T. ) ;
#58 =( GEOMETRIC_REPRESENTATION_CONTEXT ( 3 ) GLOBAL_UNCERTAINTY_ASSIGNED_CONTEXT ( ( #5 ) ) GLOBAL_UNIT_ASSIGNED_CONTEXT ( ( #158, #337, #264 ) ) REPRESENTATION_CONTEXT ( 'NONE', 'WORKASPACE' ) );
#59 = FACE_OUTER_BOUND ( 'NONE', #162, .T. ) ;
#60 = CARTESIAN_POINT ( 'NONE',  ( 0.0000000000000000000, 0.0000000000000000000, -66.10000000000002300 ) ) ;
#61 = DIRECTION ( 'NONE',  ( -0.0000000000000000000, -0.0000000000000000000, 1.000000000000000000 ) ) ;
#62 = ORIENTED_EDGE ( 'NONE', *, *, #42, .T. ) ;
#63 = CIRCLE ( 'NONE', #228, 12.45481546273634900 ) ;
#64 = EDGE_CURVE ( 'NONE', #236, #267, #330, .T. ) ;
#65 = EDGE_LOOP ( 'NONE', ( #345, #353, #339, #343, #21 ) ) ;
#66 = ORIENTED_EDGE ( 'NONE', *, *, #268, .F. ) ;
#67 = CIRCLE ( 'NONE', #70, 12.69999999999999900 ) ;
#68 = CARTESIAN_POINT ( 'NONE',  ( 0.0000000000000000000, 0.0000000000000000000, -0.7588667763060719100 ) ) ;
#69 = EDGE_CURVE ( 'NONE', #280, #357, #93, .T. ) ;
#70 = AXIS2_PLACEMENT_3D ( 'NONE', #68, #286, #203 ) ;
#71 = COORDINATED_UNIVERSAL_TIME_OFFSET ( 5, 0, .BEHIND. ) ;
#72 = ORIENTED_EDGE ( 'NONE', *, *, #95, .F. ) ;
#73 = ORIENTED_EDGE ( 'NONE', *, *, #64, .T. ) ;
#74 = DIRECTION ( 'NONE',  ( -1.000000000000000000, 0.0000000000000000000, 0.0000000000000000000 ) ) ;
#75 = EDGE_CURVE ( 'NONE', #37, #227, #53, .T. ) ;
#76 = DIRECTION ( 'NONE',  ( 0.0000000000000000000, 0.0000000000000000000, 1.000000000000000000 ) ) ;
#77 = FACE_OUTER_BOUND ( 'NONE', #328, .T. ) ;
#78 = CARTESIAN_POINT ( 'NONE',  ( 0.0000000000000000000, 0.0000000000000000000, -0.7588667763060719100 ) ) ;
#79 = CARTESIAN_POINT ( 'NONE',  ( 0.0000000000000000000, 0.0000000000000000000, 66.10000000000002300 ) ) ;
#80 = ADVANCED_FACE ( 'NONE', ( #336 ), #166, .T. ) ;
#81 = CARTESIAN_POINT ( 'NONE',  ( 0.0000000000000000000, 12.45481546273635200, 1.054803043335481100 ) ) ;
#82 = AXIS2_PLACEMENT_3D ( 'NONE', #49, #127, #222 ) ;
#83 = EDGE_LOOP ( 'NONE', ( #92, #194, #98, #331 ) ) ;
#84 = DIRECTION ( 'NONE',  ( 1.000000000000000000, 0.0000000000000000000, 0.0000000000000000000 ) ) ;
#85 = EDGE_CURVE ( 'NONE', #265, #37, #262, .T. ) ;
#86 = AXIS2_PLACEMENT_3D ( 'NONE', #78, #269, #356 ) ;
#87 = CARTESIAN_POINT ( 'NONE',  ( 0.0000000000000000000, 12.45481546273634700, -1.054803043335481100 ) ) ;
#88 = CARTESIAN_POINT ( 'NONE',  ( 0.0000000000000000000, 0.0000000000000000000, -1.054803043335481100 ) ) ;
#89 = SECURITY_CLASSIFICATION ( '', '', #105 ) ;
#90 = CARTESIAN_POINT ( 'NONE',  ( -12.45481546273635900, 0.0000000000000000000, 1.054803043335481100 ) ) ;
#91 = APPROVAL_DATE_TIME ( #182, #9 ) ;
#92 = ORIENTED_EDGE ( 'NONE', *, *, #152, .F. ) ;
#93 = CIRCLE ( 'NONE', #272, 12.45481546273635900 ) ;
#94 = DIRECTION ( 'NONE',  ( 1.000000000000000000, 0.0000000000000000000, 0.0000000000000000000 ) ) ;
#95 = EDGE_CURVE ( 'NONE', #280, #121, #294, .T. ) ;
#96 = COORDINATED_UNIVERSAL_TIME_OFFSET ( 5, 0, .BEHIND. ) ;
#97 = CARTESIAN_POINT ( 'NONE',  ( 12.69999999999999900, 0.0000000000000000000, 0.7588667763060857900 ) ) ;
#98 = ORIENTED_EDGE ( 'NONE', *, *, #365, .T. ) ;
#99 = ORIENTED_EDGE ( 'NONE', *, *, #365, .F. ) ;
#100 = EDGE_CURVE ( 'NONE', #349, #32, #190, .T. ) ;
#101 = APPROVAL_PERSON_ORGANIZATION ( #113, #9, #322 ) ;
#102 = ORIENTED_EDGE ( 'NONE', *, *, #2, .F. ) ;
#103 = ORIENTED_EDGE ( 'NONE', *, *, #212, .T. ) ;
#104 = DIRECTION ( 'NONE',  ( 0.0000000000000000000, 0.0000000000000000000, -1.000000000000000000 ) ) ;
#105 = SECURITY_CLASSIFICATION_LEVEL ( 'unclassified' ) ;
#106 = CALENDAR_DATE ( 2015, 17, 6 ) ;
#107 = ORIENTED_EDGE ( 'NONE', *, *, #138, .T. ) ;
#108 = CARTESIAN_POINT ( 'NONE',  ( -12.69999999999999900, 1.555301434917138400E-015, -0.7588667763060719100 ) ) ;
#109 = PERSON ( 'UNSPECIFIED', 'UNSPECIFIED', 'UNSPECIFIED', ('UNSPECIFIED'), ('UNSPECIFIED'), ('UNSPECIFIED') ) ;
#110 = CARTESIAN_POINT ( 'NONE',  ( 0.0000000000000000000, 0.0000000000000000000, 66.10000000000002300 ) ) ;
#111 = DIRECTION ( 'NONE',  ( -0.0000000000000000000, -0.0000000000000000000, 1.000000000000000000 ) ) ;
#112 = DIRECTION ( 'NONE',  ( 1.000000000000000000, 0.0000000000000000000, 0.0000000000000000000 ) ) ;
#113 = PERSON_AND_ORGANIZATION ( #109, #366 ) ;
#114 = CC_DESIGN_PERSON_AND_ORGANIZATION_ASSIGNMENT ( #308, #327, ( #157 ) ) ;
#115 = EDGE_LOOP ( 'NONE', ( #107, #310, #10, #150 ) ) ;
#116 = DIRECTION ( 'NONE',  ( -1.000000000000000000, 1.224646799147353200E-016, 0.0000000000000000000 ) ) ;
#117 = ADVANCED_FACE ( 'NONE', ( #77 ), #246, .T. ) ;
#118 = CC_DESIGN_PERSON_AND_ORGANIZATION_ASSIGNMENT ( #326, #55, ( #157 ) ) ;
#119 = DIRECTION ( 'NONE',  ( -1.000000000000000000, 1.224646799147353200E-016, 0.0000000000000000000 ) ) ;
#120 = DIRECTION ( 'NONE',  ( 0.0000000000000000000, 1.000000000000000000, 0.0000000000000000000 ) ) ;
#121 = VERTEX_POINT ( 'NONE', #97 ) ;
#122 = CC_DESIGN_APPROVAL ( #176, ( #157 ) ) ;
#123 = CARTESIAN_POINT ( 'NONE',  ( 0.0000000000000000000, 0.0000000000000000000, 1.054803043335481100 ) ) ;
#124 = DIRECTION ( 'NONE',  ( -1.000000000000000000, 0.0000000000000000000, 0.0000000000000000000 ) ) ;
#125 = AXIS2_PLACEMENT_3D ( 'NONE', #229, #143, #112 ) ;
#126 = ORIENTED_EDGE ( 'NONE', *, *, #14, .T. ) ;
#127 = DIRECTION ( 'NONE',  ( -0.0000000000000000000, -0.0000000000000000000, 1.000000000000000000 ) ) ;
#128 = LOCAL_TIME ( 16, 45, 8.000000000000000000, #159 ) ;
#129 = VERTEX_POINT ( 'NONE', #359 ) ;
#130 = EDGE_LOOP ( 'NONE', ( #250, #99, #220, #206, #52 ) ) ;
#131 = CARTESIAN_POINT ( 'NONE',  ( 0.0000000000000000000, 0.0000000000000000000, 1.054803043335481100 ) ) ;
#132 = EDGE_CURVE ( 'NONE', #154, #47, #241, .T. ) ;
#133 = ORIENTED_EDGE ( 'NONE', *, *, #2, .T. ) ;
#134 = CARTESIAN_POINT ( 'NONE',  ( 0.0000000000000000000, 4.182168819088211000E-015, -2.199999999999979700 ) ) ;
#135 = CARTESIAN_POINT ( 'NONE',  ( -1.525274989041102800E-015, -12.45481546273634700, -1.054803043335481100 ) ) ;
#136 = EDGE_LOOP ( 'NONE', ( #213, #126, #317, #133 ) ) ;
#137 = AXIS2_PLACEMENT_3D ( 'NONE', #248, #271, #27 ) ;
#138 = EDGE_CURVE ( 'NONE', #32, #37, #197, .T. ) ;
#139 = DESIGN_CONTEXT ( 'detailed design', #367, 'design' ) ;
#140 = ORIENTED_EDGE ( 'NONE', *, *, #100, .F. ) ;
#141 = APPROVAL_DATE_TIME ( #277, #242 ) ;
#142 = CALENDAR_DATE ( 2015, 17, 6 ) ;
#143 = DIRECTION ( 'NONE',  ( 0.0000000000000000000, 0.0000000000000000000, -1.000000000000000000 ) ) ;
#144 = CONICAL_SURFACE ( 'NONE', #86, 12.69999999999999900, 0.6918817134257251300 ) ;
#145 = AXIS2_PLACEMENT_3D ( 'NONE', #292, #205, #251 ) ;
#146 = DATE_AND_TIME ( #16, #181 ) ;
#147 = ORIENTED_EDGE ( 'NONE', *, *, #152, .T. ) ;
#148 = DIRECTION ( 'NONE',  ( 0.6379873184069296800, 7.813091273836496800E-017, -0.7700468697111462200 ) ) ;
#149 = DIRECTION ( 'NONE',  ( -1.000000000000000000, 0.0000000000000000000, 0.0000000000000000000 ) ) ;
#150 = ORIENTED_EDGE ( 'NONE', *, *, #358, .F. ) ;
#151 = CARTESIAN_POINT ( 'NONE',  ( 0.0000000000000000000, 0.0000000000000000000, -1.054803043335481100 ) ) ;
#152 = EDGE_CURVE ( 'NONE', #154, #174, #321, .T. ) ;
#153 = PRODUCT_DEFINITION_SHAPE ( 'NONE', 'NONE',  #291 ) ;
#154 = VERTEX_POINT ( 'NONE', #134 ) ;
#155 = CIRCLE ( 'NONE', #125, 12.45481546273634900 ) ;
#156 = CIRCLE ( 'NONE', #361, 12.45481546273635900 ) ;
#157 = PRODUCT_DEFINITION_FORMATION_WITH_SPECIFIED_SOURCE ( 'ANY', '', #214, .NOT_KNOWN. ) ;
#158 =( LENGTH_UNIT ( ) NAMED_UNIT ( * ) SI_UNIT ( .MILLI., .METRE. ) );
#159 = COORDINATED_UNIVERSAL_TIME_OFFSET ( 5, 0, .BEHIND. ) ;
#160 = APPROVAL_STATUS ( 'not_yet_approved' ) ;
#161 = DIRECTION ( 'NONE',  ( -0.0000000000000000000, -0.0000000000000000000, 1.000000000000000000 ) ) ;
#162 = EDGE_LOOP ( 'NONE', ( #72, #300, #175, #323, #17 ) ) ;
#163 = AXIS2_PLACEMENT_3D ( 'NONE', #226, #29, #18 ) ;
#164 = CIRCLE ( 'NONE', #51, 12.69999999999999900 ) ;
#165 = LINE ( 'NONE', #232, #320 ) ;
#166 = SPHERICAL_SURFACE ( 'NONE', #189, 68.29999999999999700 ) ;
#167 = CARTESIAN_POINT ( 'NONE',  ( 0.0000000000000000000, 0.0000000000000000000, -1.054803043335481100 ) ) ;
#168 = AXIS2_PLACEMENT_3D ( 'NONE', #110, #119, #282 ) ;
#169 = DIRECTION ( 'NONE',  ( 0.0000000000000000000, 1.000000000000000000, 0.0000000000000000000 ) ) ;
#170 = ADVANCED_FACE ( 'NONE', ( #57 ), #13, .T. ) ;
#171 = CONICAL_SURFACE ( 'NONE', #193, 12.45481546273636100, 0.6918817134257306800 ) ;
#172 = DATE_TIME_ROLE ( 'classification_date' ) ;
#173 = PERSON_AND_ORGANIZATION ( #109, #366 ) ;
#174 = VERTEX_POINT ( 'NONE', #87 ) ;
#175 = ORIENTED_EDGE ( 'NONE', *, *, #64, .F. ) ;
#176 = APPROVAL ( #209, 'UNSPECIFIED' ) ;
#177 = DIRECTION ( 'NONE',  ( -1.224646799147353200E-016, -1.000000000000000000, 0.0000000000000000000 ) ) ;
#178 = CARTESIAN_POINT ( 'NONE',  ( 0.0000000000000000000, 0.0000000000000000000, 2.200000000000000200 ) ) ;
#179 = PERSON_AND_ORGANIZATION ( #109, #366 ) ;
#180 = CARTESIAN_POINT ( 'NONE',  ( 12.69999999999999900, 0.0000000000000000000, -0.7588667763060719100 ) ) ;
#181 = LOCAL_TIME ( 16, 45, 8.000000000000000000, #25 ) ;
#182 = DATE_AND_TIME ( #142, #128 ) ;
#183 = PERSON_AND_ORGANIZATION_ROLE ( 'classification_officer' ) ;
#184 = LINE ( 'NONE', #307, #199 ) ;
#185 = CARTESIAN_POINT ( 'NONE',  ( 0.0000000000000000000, 0.0000000000000000000, 1.054803043335481100 ) ) ;
#186 = AXIS2_PLACEMENT_3D ( 'NONE', #332, #223, #94 ) ;
#187 = VECTOR ( 'NONE', #61, 1000.000000000000000 ) ;
#188 = APPROVAL_PERSON_ORGANIZATION ( #173, #242, #35 ) ;
#189 = AXIS2_PLACEMENT_3D ( 'NONE', #11, #149, #355 ) ;
#190 = LINE ( 'NONE', #342, #275 ) ;
#191 = APPROVAL_PERSON_ORGANIZATION ( #255, #176, #362 ) ;
#192 = CARTESIAN_POINT ( 'NONE',  ( 0.0000000000000000000, 0.0000000000000000000, 1.054803043335481100 ) ) ;
#193 = AXIS2_PLACEMENT_3D ( 'NONE', #192, #104, #348 ) ;
#194 = ORIENTED_EDGE ( 'NONE', *, *, #132, .T. ) ;
#195 = FACE_OUTER_BOUND ( 'NONE', #198, .T. ) ;
#196 = DIRECTION ( 'NONE',  ( -0.6379873184069253500, 7.813091273836443800E-017, 0.7700468697111497700 ) ) ;
#197 = CIRCLE ( 'NONE', #82, 12.69999999999999900 ) ;
#198 = EDGE_LOOP ( 'NONE', ( #62, #73, #103, #102 ) ) ;
#199 = VECTOR ( 'NONE', #288, 1000.000000000000000 ) ;
#200 = DIRECTION ( 'NONE',  ( -1.000000000000000000, 0.0000000000000000000, 0.0000000000000000000 ) ) ;
#201 = ADVANCED_FACE ( 'NONE', ( #59 ), #333, .T. ) ;
#202 = ORIENTED_EDGE ( 'NONE', *, *, #257, .T. ) ;
#203 = DIRECTION ( 'NONE',  ( 1.000000000000000000, 0.0000000000000000000, 0.0000000000000000000 ) ) ;
#204 = VECTOR ( 'NONE', #196, 1000.000000000000000 ) ;
#205 = DIRECTION ( 'NONE',  ( 0.0000000000000000000, 0.0000000000000000000, -1.000000000000000000 ) ) ;
#206 = ORIENTED_EDGE ( 'NONE', *, *, #100, .T. ) ;
#207 = ORIENTED_EDGE ( 'NONE', *, *, #252, .T. ) ;
#208 = SPHERICAL_SURFACE ( 'NONE', #314, 68.29999999999999700 ) ;
#209 = APPROVAL_STATUS ( 'not_yet_approved' ) ;
#210 = CIRCLE ( 'NONE', #253, 68.29999999999999700 ) ;
#211 = ORIENTED_EDGE ( 'NONE', *, *, #132, .F. ) ;
#212 = EDGE_CURVE ( 'NONE', #267, #129, #210, .T. ) ;
#213 = ORIENTED_EDGE ( 'NONE', *, *, #212, .F. ) ;
#214 = PRODUCT ( '4320-E0W', '4320-E0W', '', ( #259 ) ) ;
#215 = AXIS2_PLACEMENT_3D ( 'NONE', #123, #234, #256 ) ;
#216 = DIRECTION ( 'NONE',  ( 0.0000000000000000000, 0.0000000000000000000, -1.000000000000000000 ) ) ;
#217 = LOCAL_TIME ( 16, 45, 8.000000000000000000, #71 ) ;
#218 = ORIENTED_EDGE ( 'NONE', *, *, #24, .T. ) ;
#219 = SPHERICAL_SURFACE ( 'NONE', #278, 68.29999999999999700 ) ;
#220 = ORIENTED_EDGE ( 'NONE', *, *, #24, .F. ) ;
#221 = ADVANCED_FACE ( 'NONE', ( #279 ), #144, .T. ) ;
#222 = DIRECTION ( 'NONE',  ( 1.000000000000000000, 0.0000000000000000000, 0.0000000000000000000 ) ) ;
#223 = DIRECTION ( 'NONE',  ( -0.0000000000000000000, -0.0000000000000000000, 1.000000000000000000 ) ) ;
#224 = CIRCLE ( 'NONE', #344, 68.29999999999999700 ) ;
#225 = DIRECTION ( 'NONE',  ( -1.000000000000000000, 0.0000000000000000000, 0.0000000000000000000 ) ) ;
#226 = CARTESIAN_POINT ( 'NONE',  ( 0.0000000000000000000, 0.0000000000000000000, 66.10000000000002300 ) ) ;
#227 = VERTEX_POINT ( 'NONE', #298 ) ;
#228 = AXIS2_PLACEMENT_3D ( 'NONE', #151, #7, #338 ) ;
#229 = CARTESIAN_POINT ( 'NONE',  ( 0.0000000000000000000, 0.0000000000000000000, -1.054803043335481100 ) ) ;
#230 = CC_DESIGN_DATE_AND_TIME_ASSIGNMENT ( #296, #306, ( #291 ) ) ;
#231 = PERSON_AND_ORGANIZATION ( #109, #366 ) ;
#232 = CARTESIAN_POINT ( 'NONE',  ( -12.45481546273636100, 0.0000000000000000000, 1.054803043335481100 ) ) ;
#233 = CC_DESIGN_PERSON_AND_ORGANIZATION_ASSIGNMENT ( #231, #33, ( #291 ) ) ;
#234 = DIRECTION ( 'NONE',  ( -0.0000000000000000000, -0.0000000000000000000, 1.000000000000000000 ) ) ;
#235 = CARTESIAN_POINT ( 'NONE',  ( -1.525274989041103200E-015, -12.45481546273635200, 1.054803043335481100 ) ) ;
#236 = VERTEX_POINT ( 'NONE', #90 ) ;
#237 = CC_DESIGN_APPROVAL ( #242, ( #291 ) ) ;
#238 = CARTESIAN_POINT ( 'NONE',  ( 0.0000000000000000000, 0.0000000000000000000, 66.10000000000002300 ) ) ;
#239 = CLOSED_SHELL ( 'NONE', ( #54, #117, #329, #170, #276, #80, #304, #22, #221, #201 ) ) ;
#240 = DIRECTION ( 'NONE',  ( 1.000000000000000000, 0.0000000000000000000, 0.0000000000000000000 ) ) ;
#241 = CIRCLE ( 'NONE', #168, 68.29999999999999700 ) ;
#242 = APPROVAL ( #297, 'UNSPECIFIED' ) ;
#243 = DATE_AND_TIME ( #1, #46 ) ;
#244 = EDGE_LOOP ( 'NONE', ( #211, #147, #3, #218 ) ) ;
#245 = DIRECTION ( 'NONE',  ( 1.000000000000000000, 0.0000000000000000000, 0.0000000000000000000 ) ) ;
#246 = CONICAL_SURFACE ( 'NONE', #186, 12.69999999999999900, 0.6918817134257251300 ) ;
#247 = CARTESIAN_POINT ( 'NONE',  ( -12.69999999999999900, 1.555301434917138400E-015, -0.7588667763060719100 ) ) ;
#248 = CARTESIAN_POINT ( 'NONE',  ( 0.0000000000000000000, 0.0000000000000000000, 1.054803043335481100 ) ) ;
#249 = AXIS2_PLACEMENT_3D ( 'NONE', #79, #124, #120 ) ;
#250 = ORIENTED_EDGE ( 'NONE', *, *, #85, .F. ) ;
#251 = DIRECTION ( 'NONE',  ( -1.000000000000000000, 0.0000000000000000000, 0.0000000000000000000 ) ) ;
#252 = EDGE_CURVE ( 'NONE', #37, #32, #67, .T. ) ;
#253 = AXIS2_PLACEMENT_3D ( 'NONE', #319, #116, #177 ) ;
#254 = DIRECTION ( 'NONE',  ( 0.0000000000000000000, 0.0000000000000000000, -1.000000000000000000 ) ) ;
#255 = PERSON_AND_ORGANIZATION ( #109, #366 ) ;
#256 = DIRECTION ( 'NONE',  ( -1.000000000000000000, 0.0000000000000000000, 0.0000000000000000000 ) ) ;
#257 = EDGE_CURVE ( 'NONE', #121, #227, #164, .T. ) ;
#258 = CIRCLE ( 'NONE', #145, 12.69999999999999900 ) ;
#259 = MECHANICAL_CONTEXT ( 'NONE', #354, 'mechanical' ) ;
#260 = CARTESIAN_POINT ( 'NONE',  ( 0.0000000000000000000, 0.0000000000000000000, 1.054803043335481100 ) ) ;
#261 = AXIS2_PLACEMENT_3D ( 'NONE', #178, #28, #84 ) ;
#262 = LINE ( 'NONE', #247, #204 ) ;
#263 = DIRECTION ( 'NONE',  ( 1.000000000000000000, 0.0000000000000000000, 0.0000000000000000000 ) ) ;
#264 =( NAMED_UNIT ( * ) SI_UNIT ( $, .STERADIAN. ) SOLID_ANGLE_UNIT ( ) );
#265 = VERTEX_POINT ( 'NONE', #313 ) ;
#266 = AXIS2_PLACEMENT_3D ( 'NONE', #316, #347, #263 ) ;
#267 = VERTEX_POINT ( 'NONE', #235 ) ;
#268 = EDGE_CURVE ( 'NONE', #174, #349, #63, .T. ) ;
#269 = DIRECTION ( 'NONE',  ( -0.0000000000000000000, -0.0000000000000000000, 1.000000000000000000 ) ) ;
#270 = DIRECTION ( 'NONE',  ( -1.000000000000000000, 0.0000000000000000000, 0.0000000000000000000 ) ) ;
#271 = DIRECTION ( 'NONE',  ( 0.0000000000000000000, 0.0000000000000000000, -1.000000000000000000 ) ) ;
#272 = AXIS2_PLACEMENT_3D ( 'NONE', #185, #111, #225 ) ;
#273 = CIRCLE ( 'NONE', #325, 12.45481546273634900 ) ;
#274 = ORIENTED_EDGE ( 'NONE', *, *, #85, .T. ) ;
#275 = VECTOR ( 'NONE', #281, 1000.000000000000000 ) ;
#276 = ADVANCED_FACE ( 'NONE', ( #195 ), #219, .T. ) ;
#277 = DATE_AND_TIME ( #56, #36 ) ;
#278 = AXIS2_PLACEMENT_3D ( 'NONE', #60, #15, #48 ) ;
#279 = FACE_OUTER_BOUND ( 'NONE', #130, .T. ) ;
#280 = VERTEX_POINT ( 'NONE', #39 ) ;
#281 = DIRECTION ( 'NONE',  ( 0.6379873184069253500, 0.0000000000000000000, 0.7700468697111497700 ) ) ;
#282 = DIRECTION ( 'NONE',  ( -1.224646799147353200E-016, -1.000000000000000000, 0.0000000000000000000 ) ) ;
#283 = DIRECTION ( 'NONE',  ( 1.000000000000000000, -0.0000000000000000000, 0.0000000000000000000 ) ) ;
#284 = DIRECTION ( 'NONE',  ( 0.0000000000000000000, 0.0000000000000000000, -1.000000000000000000 ) ) ;
#285 = CIRCLE ( 'NONE', #312, 12.45481546273635900 ) ;
#286 = DIRECTION ( 'NONE',  ( -0.0000000000000000000, -0.0000000000000000000, 1.000000000000000000 ) ) ;
#287 = ORIENTED_EDGE ( 'NONE', *, *, #75, .F. ) ;
#288 = DIRECTION ( 'NONE',  ( -0.0000000000000000000, -0.0000000000000000000, 1.000000000000000000 ) ) ;
#289 = PERSON_AND_ORGANIZATION_ROLE ( 'design_owner' ) ;
#290 = ORIENTED_EDGE ( 'NONE', *, *, #358, .T. ) ;
#291 = PRODUCT_DEFINITION ( 'UNKNOWN', '', #157, #139 ) ;
#292 = CARTESIAN_POINT ( 'NONE',  ( 0.0000000000000000000, 0.0000000000000000000, 0.7588667763060857900 ) ) ;
#293 = APPLICATION_PROTOCOL_DEFINITION ( 'international standard', 'config_control_design', 1994, #367 ) ;
#294 = LINE ( 'NONE', #12, #43 ) ;
#295 = CC_DESIGN_PERSON_AND_ORGANIZATION_ASSIGNMENT ( #38, #289, ( #214 ) ) ;
#296 = DATE_AND_TIME ( #106, #217 ) ;
#297 = APPROVAL_STATUS ( 'not_yet_approved' ) ;
#298 = CARTESIAN_POINT ( 'NONE',  ( -12.69999999999999900, 1.555301434917138400E-015, 0.7588667763060857900 ) ) ;
#299 = AXIS2_PLACEMENT_3D ( 'NONE', #309, #76, #360 ) ;
#300 = ORIENTED_EDGE ( 'NONE', *, *, #14, .F. ) ;
#301 = CYLINDRICAL_SURFACE ( 'NONE', #266, 12.69999999999999900 ) ;
#302 = FACE_OUTER_BOUND ( 'NONE', #83, .T. ) ;
#303 = MANIFOLD_SOLID_BREP ( '4320-001-1-solid1', #239 ) ;
#304 = ADVANCED_FACE ( 'NONE', ( #4 ), #301, .T. ) ;
#305 = FACE_OUTER_BOUND ( 'NONE', #65, .T. ) ;
#306 = DATE_TIME_ROLE ( 'creation_date' ) ;
#307 = CARTESIAN_POINT ( 'NONE',  ( 12.69999999999999900, 0.0000000000000000000, 2.200000000000000200 ) ) ;
#308 = PERSON_AND_ORGANIZATION ( #109, #366 ) ;
#309 = CARTESIAN_POINT ( 'NONE',  ( 0.0000000000000000000, 0.0000000000000000000, 0.0000000000000000000 ) ) ;
#310 = ORIENTED_EDGE ( 'NONE', *, *, #75, .T. ) ;
#311 = APPLICATION_PROTOCOL_DEFINITION ( 'international standard', 'config_control_design', 1994, #354 ) ;
#312 = AXIS2_PLACEMENT_3D ( 'NONE', #260, #161, #74 ) ;
#313 = CARTESIAN_POINT ( 'NONE',  ( -12.45481546273634900, 1.540288211979120600E-015, -1.054803043335481100 ) ) ;
#314 = AXIS2_PLACEMENT_3D ( 'NONE', #238, #335, #169 ) ;
#315 = ORIENTED_EDGE ( 'NONE', *, *, #19, .F. ) ;
#316 = CARTESIAN_POINT ( 'NONE',  ( 0.0000000000000000000, 0.0000000000000000000, 2.200000000000000200 ) ) ;
#317 = ORIENTED_EDGE ( 'NONE', *, *, #69, .T. ) ;
#318 = AXIS2_PLACEMENT_3D ( 'NONE', #88, #216, #245 ) ;
#319 = CARTESIAN_POINT ( 'NONE',  ( 0.0000000000000000000, 0.0000000000000000000, -66.10000000000002300 ) ) ;
#320 = VECTOR ( 'NONE', #346, 1000.000000000000000 ) ;
#321 = CIRCLE ( 'NONE', #163, 68.29999999999999700 ) ;
#322 = APPROVAL_ROLE ( '' ) ;
#323 = ORIENTED_EDGE ( 'NONE', *, *, #340, .T. ) ;
#324 = SHAPE_DEFINITION_REPRESENTATION ( #153, #350 ) ;
#325 = AXIS2_PLACEMENT_3D ( 'NONE', #167, #284, #240 ) ;
#326 = PERSON_AND_ORGANIZATION ( #109, #366 ) ;
#327 = PERSON_AND_ORGANIZATION_ROLE ( 'design_supplier' ) ;
#328 = EDGE_LOOP ( 'NONE', ( #315, #274, #41, #140, #66 ) ) ;
#329 = ADVANCED_FACE ( 'NONE', ( #302 ), #208, .T. ) ;
#330 = CIRCLE ( 'NONE', #215, 12.45481546273635900 ) ;
#331 = ORIENTED_EDGE ( 'NONE', *, *, #19, .T. ) ;
#332 = CARTESIAN_POINT ( 'NONE',  ( 0.0000000000000000000, 0.0000000000000000000, -0.7588667763060719100 ) ) ;
#333 = CONICAL_SURFACE ( 'NONE', #137, 12.45481546273636100, 0.6918817134257306800 ) ;
#334 = EDGE_CURVE ( 'NONE', #227, #121, #258, .T. ) ;
#335 = DIRECTION ( 'NONE',  ( -1.000000000000000000, 0.0000000000000000000, 0.0000000000000000000 ) ) ;
#336 = FACE_OUTER_BOUND ( 'NONE', #136, .T. ) ;
#337 =( NAMED_UNIT ( * ) PLANE_ANGLE_UNIT ( ) SI_UNIT ( $, .RADIAN. ) );
#338 = DIRECTION ( 'NONE',  ( 1.000000000000000000, 0.0000000000000000000, 0.0000000000000000000 ) ) ;
#339 = ORIENTED_EDGE ( 'NONE', *, *, #334, .F. ) ;
#340 = EDGE_CURVE ( 'NONE', #236, #227, #165, .T. ) ;
#341 = CARTESIAN_POINT ( 'NONE',  ( 0.0000000000000000000, 0.0000000000000000000, 0.7588667763060857900 ) ) ;
#342 = CARTESIAN_POINT ( 'NONE',  ( 12.69999999999999900, 0.0000000000000000000, -0.7588667763060719100 ) ) ;
#343 = ORIENTED_EDGE ( 'NONE', *, *, #340, .F. ) ;
#344 = AXIS2_PLACEMENT_3D ( 'NONE', #363, #283, #45 ) ;
#345 = ORIENTED_EDGE ( 'NONE', *, *, #69, .F. ) ;
#346 = DIRECTION ( 'NONE',  ( -0.6379873184069296800, 0.0000000000000000000, -0.7700468697111462200 ) ) ;
#347 = DIRECTION ( 'NONE',  ( -0.0000000000000000000, -0.0000000000000000000, 1.000000000000000000 ) ) ;
#348 = DIRECTION ( 'NONE',  ( -1.000000000000000000, 0.0000000000000000000, 0.0000000000000000000 ) ) ;
#349 = VERTEX_POINT ( 'NONE', #31 ) ;
#350 = ADVANCED_BREP_SHAPE_REPRESENTATION ( '4320-E0W', ( #303, #299 ), #58 ) ;
#351 = FACE_OUTER_BOUND ( 'NONE', #244, .T. ) ;
#352 = APPROVAL_DATE_TIME ( #146, #176 ) ;
#353 = ORIENTED_EDGE ( 'NONE', *, *, #95, .T. ) ;
#354 = APPLICATION_CONTEXT ( 'configuration controlled 3d designs of mechanical parts and assemblies' ) ;
#355 = DIRECTION ( 'NONE',  ( 0.0000000000000000000, 1.000000000000000000, 0.0000000000000000000 ) ) ;
#356 = DIRECTION ( 'NONE',  ( 1.000000000000000000, 0.0000000000000000000, 0.0000000000000000000 ) ) ;
#357 = VERTEX_POINT ( 'NONE', #81 ) ;
#358 = EDGE_CURVE ( 'NONE', #32, #121, #184, .T. ) ;
#359 = CARTESIAN_POINT ( 'NONE',  ( 0.0000000000000000000, 4.182168819088211000E-015, 2.199999999999979700 ) ) ;
#360 = DIRECTION ( 'NONE',  ( 1.000000000000000000, 0.0000000000000000000, 0.0000000000000000000 ) ) ;
#361 = AXIS2_PLACEMENT_3D ( 'NONE', #131, #8, #200 ) ;
#362 = APPROVAL_ROLE ( '' ) ;
#363 = CARTESIAN_POINT ( 'NONE',  ( 0.0000000000000000000, 0.0000000000000000000, -66.10000000000002300 ) ) ;
#364 = COORDINATED_UNIVERSAL_TIME_OFFSET ( 5, 0, .BEHIND. ) ;
#365 = EDGE_CURVE ( 'NONE', #47, #265, #155, .T. ) ;
#366 = ORGANIZATION ( 'UNSPECIFIED', 'UNSPECIFIED', '' ) ;
#367 = APPLICATION_CONTEXT ( 'configuration controlled 3d designs of mechanical parts and assemblies' ) ;
ENDSEC;
END-ISO-10303-21;
