ISO-10303-21;
HEADER;
FILE_DESCRIPTION (( 'STEP AP203' ),
    '1' );
FILE_NAME ('Web Model 39398_39411.step',
    '2018-10-05T20:50:23',
    ( '' ),
    ( '' ),
    'SwSTEP 2.0',
    'SolidWorks 2016',
    '' );
FILE_SCHEMA (( 'CONFIG_CONTROL_DESIGN' ));
ENDSEC;

DATA;
#1 = EDGE_CURVE ( 'NONE', #131, #158, #80, .T. ) ;
#2 = COORDINATED_UNIVERSAL_TIME_OFFSET ( 5, 0, .BEHIND. ) ;
#3 = ORGANIZATION ( 'UNSPECIFIED', 'UNSPECIFIED', '' ) ;
#4 = VECTOR ( 'NONE', #9, 1000.000000000000000 ) ;
#5 = APPROVAL_ROLE ( '' ) ;
#6 = PERSON ( 'UNSPECIFIED', 'UNSPECIFIED', 'UNSPECIFIED', ('UNSPECIFIED'), ('UNSPECIFIED'), ('UNSPECIFIED') ) ;
#7 = LOCAL_TIME ( 16, 50, 23.00000000000000000, #115 ) ;
#8 = ORIENTED_EDGE ( 'NONE', *, *, #127, .T. ) ;
#9 = DIRECTION ( 'NONE',  ( -0.0000000000000000000, -0.0000000000000000000, -1.000000000000000000 ) ) ;
#10 = CC_DESIGN_APPROVAL ( #149, ( #98 ) ) ;
#11 = MECHANICAL_CONTEXT ( 'NONE', #78, 'mechanical' ) ;
#12 = ADVANCED_BREP_SHAPE_REPRESENTATION ( 'Web Model 39398_39411', ( #26, #161 ), #28 ) ;
#13 = AXIS2_PLACEMENT_3D ( 'NONE', #153, #48, #105 ) ;
#14 = ORIENTED_EDGE ( 'NONE', *, *, #50, .T. ) ;
#15 = AXIS2_PLACEMENT_3D ( 'NONE', #100, #166, #99 ) ;
#16 = CLOSED_SHELL ( 'NONE', ( #64, #109, #171, #155 ) ) ;
#17 = ORIENTED_EDGE ( 'NONE', *, *, #97, .T. ) ;
#18 = APPROVAL_STATUS ( 'not_yet_approved' ) ;
#19 = DIRECTION ( 'NONE',  ( -1.000000000000000000, 0.0000000000000000000, 0.0000000000000000000 ) ) ;
#20 = ORIENTED_EDGE ( 'NONE', *, *, #172, .T. ) ;
#21 = APPROVAL_ROLE ( '' ) ;
#22 = CARTESIAN_POINT ( 'NONE',  ( 12.69999999999999900, 1.555301434917138400E-015, 2.500000000000000000 ) ) ;
#23 = CARTESIAN_POINT ( 'NONE',  ( 0.0000000000000000000, 0.0000000000000000000, 2.500000000000000000 ) ) ;
#24 = CARTESIAN_POINT ( 'NONE',  ( 0.0000000000000000000, 0.0000000000000000000, 0.0000000000000000000 ) ) ;
#25 = FACE_OUTER_BOUND ( 'NONE', #46, .T. ) ;
#26 = MANIFOLD_SOLID_BREP ( 'Boss-Extrude1', #16 ) ;
#27 = AXIS2_PLACEMENT_3D ( 'NONE', #23, #59, #132 ) ;
#28 =( GEOMETRIC_REPRESENTATION_CONTEXT ( 3 ) GLOBAL_UNCERTAINTY_ASSIGNED_CONTEXT ( ( #41 ) ) GLOBAL_UNIT_ASSIGNED_CONTEXT ( ( #167, #130, #156 ) ) REPRESENTATION_CONTEXT ( 'NONE', 'WORKASPACE' ) );
#29 = APPROVAL ( #18, 'UNSPECIFIED' ) ;
#30 = SECURITY_CLASSIFICATION_LEVEL ( 'unclassified' ) ;
#31 = DESIGN_CONTEXT ( 'detailed design', #139, 'design' ) ;
#32 = DIRECTION ( 'NONE',  ( 1.000000000000000000, 0.0000000000000000000, 0.0000000000000000000 ) ) ;
#33 = CARTESIAN_POINT ( 'NONE',  ( 0.0000000000000000000, 0.0000000000000000000, -2.500000000000000000 ) ) ;
#34 = CALENDAR_DATE ( 2018, 5, 10 ) ;
#35 = CARTESIAN_POINT ( 'NONE',  ( 0.0000000000000000000, 0.0000000000000000000, 2.500000000000000000 ) ) ;
#36 = PLANE ( 'NONE',  #13 ) ;
#37 = PERSON_AND_ORGANIZATION ( #6, #3 ) ;
#38 = AXIS2_PLACEMENT_3D ( 'NONE', #75, #162, #19 ) ;
#39 = CALENDAR_DATE ( 2018, 5, 10 ) ;
#40 = CIRCLE ( 'NONE', #15, 12.69999999999999900 ) ;
#41 = UNCERTAINTY_MEASURE_WITH_UNIT (LENGTH_MEASURE( 1.000000000000000100E-005 ), #167, 'distance_accuracy_value', 'NONE');
#42 = APPROVAL_DATE_TIME ( #126, #149 ) ;
#43 = APPROVAL_DATE_TIME ( #174, #29 ) ;
#44 = PERSON_AND_ORGANIZATION ( #6, #3 ) ;
#45 = APPLICATION_PROTOCOL_DEFINITION ( 'international standard', 'config_control_design', 1994, #139 ) ;
#46 = EDGE_LOOP ( 'NONE', ( #95, #159, #82, #86 ) ) ;
#47 = DIRECTION ( 'NONE',  ( -0.0000000000000000000, -0.0000000000000000000, -1.000000000000000000 ) ) ;
#48 = DIRECTION ( 'NONE',  ( 0.0000000000000000000, 0.0000000000000000000, 1.000000000000000000 ) ) ;
#49 = DIRECTION ( 'NONE',  ( 1.000000000000000000, 0.0000000000000000000, 0.0000000000000000000 ) ) ;
#50 = EDGE_CURVE ( 'NONE', #125, #65, #40, .T. ) ;
#51 = CYLINDRICAL_SURFACE ( 'NONE', #38, 12.69999999999999900 ) ;
#52 = APPROVAL_DATE_TIME ( #77, #67 ) ;
#53 = DATE_TIME_ROLE ( 'classification_date' ) ;
#54 = CC_DESIGN_PERSON_AND_ORGANIZATION_ASSIGNMENT ( #140, #55, ( #164 ) ) ;
#55 = PERSON_AND_ORGANIZATION_ROLE ( 'design_owner' ) ;
#56 = EDGE_LOOP ( 'NONE', ( #116, #60 ) ) ;
#57 = CC_DESIGN_APPROVAL ( #67, ( #62 ) ) ;
#58 = DIRECTION ( 'NONE',  ( -1.000000000000000000, 0.0000000000000000000, 0.0000000000000000000 ) ) ;
#59 = DIRECTION ( 'NONE',  ( 0.0000000000000000000, 0.0000000000000000000, 1.000000000000000000 ) ) ;
#60 = ORIENTED_EDGE ( 'NONE', *, *, #172, .F. ) ;
#61 = CARTESIAN_POINT ( 'NONE',  ( -12.69999999999999900, 0.0000000000000000000, -2.500000000000000000 ) ) ;
#62 = PRODUCT_DEFINITION ( 'UNKNOWN', '', #173, #31 ) ;
#63 = PLANE ( 'NONE',  #144 ) ;
#64 = ADVANCED_FACE ( 'NONE', ( #154 ), #120, .T. ) ;
#65 = VERTEX_POINT ( 'NONE', #163 ) ;
#66 = APPROVAL_PERSON_ORGANIZATION ( #107, #29, #129 ) ;
#67 = APPROVAL ( #102, 'UNSPECIFIED' ) ;
#68 = LOCAL_TIME ( 16, 50, 23.00000000000000000, #2 ) ;
#69 = COORDINATED_UNIVERSAL_TIME_OFFSET ( 5, 0, .BEHIND. ) ;
#70 = DATE_TIME_ROLE ( 'creation_date' ) ;
#71 = LOCAL_TIME ( 16, 50, 23.00000000000000000, #160 ) ;
#72 = CARTESIAN_POINT ( 'NONE',  ( 0.0000000000000000000, 0.0000000000000000000, 2.500000000000000000 ) ) ;
#73 = LOCAL_TIME ( 16, 50, 23.00000000000000000, #175 ) ;
#74 = LINE ( 'NONE', #152, #4 ) ;
#75 = CARTESIAN_POINT ( 'NONE',  ( 0.0000000000000000000, 0.0000000000000000000, 2.500000000000000000 ) ) ;
#76 = DIRECTION ( 'NONE',  ( 0.0000000000000000000, 0.0000000000000000000, 1.000000000000000000 ) ) ;
#77 = DATE_AND_TIME ( #93, #71 ) ;
#78 = APPLICATION_CONTEXT ( 'configuration controlled 3d designs of mechanical parts and assemblies' ) ;
#79 = CC_DESIGN_DATE_AND_TIME_ASSIGNMENT ( #137, #70, ( #62 ) ) ;
#80 = CIRCLE ( 'NONE', #136, 12.69999999999999900 ) ;
#81 = PERSON_AND_ORGANIZATION ( #6, #3 ) ;
#82 = ORIENTED_EDGE ( 'NONE', *, *, #119, .T. ) ;
#83 = CC_DESIGN_PERSON_AND_ORGANIZATION_ASSIGNMENT ( #169, #118, ( #98 ) ) ;
#84 = SHAPE_DEFINITION_REPRESENTATION ( #103, #12 ) ;
#85 = CALENDAR_DATE ( 2018, 5, 10 ) ;
#86 = ORIENTED_EDGE ( 'NONE', *, *, #1, .T. ) ;
#87 = CC_DESIGN_PERSON_AND_ORGANIZATION_ASSIGNMENT ( #81, #151, ( #173 ) ) ;
#88 = VECTOR ( 'NONE', #106, 1000.000000000000000 ) ;
#89 = CC_DESIGN_APPROVAL ( #29, ( #173 ) ) ;
#90 = DIRECTION ( 'NONE',  ( 0.0000000000000000000, 0.0000000000000000000, 1.000000000000000000 ) ) ;
#91 = DIRECTION ( 'NONE',  ( 1.000000000000000000, 0.0000000000000000000, -0.0000000000000000000 ) ) ;
#92 = CC_DESIGN_PERSON_AND_ORGANIZATION_ASSIGNMENT ( #150, #138, ( #173 ) ) ;
#93 = CALENDAR_DATE ( 2018, 5, 10 ) ;
#94 = FACE_OUTER_BOUND ( 'NONE', #123, .T. ) ;
#95 = ORIENTED_EDGE ( 'NONE', *, *, #127, .F. ) ;
#96 = APPROVAL_PERSON_ORGANIZATION ( #110, #67, #21 ) ;
#97 = EDGE_CURVE ( 'NONE', #65, #125, #148, .T. ) ;
#98 = SECURITY_CLASSIFICATION ( '', '', #30 ) ;
#99 = DIRECTION ( 'NONE',  ( 1.000000000000000000, 0.0000000000000000000, 0.0000000000000000000 ) ) ;
#100 = CARTESIAN_POINT ( 'NONE',  ( 0.0000000000000000000, 0.0000000000000000000, 2.500000000000000000 ) ) ;
#101 = DIRECTION ( 'NONE',  ( 0.0000000000000000000, 0.0000000000000000000, 1.000000000000000000 ) ) ;
#102 = APPROVAL_STATUS ( 'not_yet_approved' ) ;
#103 = PRODUCT_DEFINITION_SHAPE ( 'NONE', 'NONE',  #62 ) ;
#104 = LINE ( 'NONE', #22, #88 ) ;
#105 = DIRECTION ( 'NONE',  ( 1.000000000000000000, 0.0000000000000000000, -0.0000000000000000000 ) ) ;
#106 = DIRECTION ( 'NONE',  ( -0.0000000000000000000, -0.0000000000000000000, -1.000000000000000000 ) ) ;
#107 = PERSON_AND_ORGANIZATION ( #6, #3 ) ;
#108 = AXIS2_PLACEMENT_3D ( 'NONE', #72, #47, #58 ) ;
#109 = ADVANCED_FACE ( 'NONE', ( #25 ), #51, .T. ) ;
#110 = PERSON_AND_ORGANIZATION ( #6, #3 ) ;
#111 = CALENDAR_DATE ( 2018, 5, 10 ) ;
#112 = CC_DESIGN_SECURITY_CLASSIFICATION ( #98, ( #173 ) ) ;
#113 = CIRCLE ( 'NONE', #124, 12.69999999999999900 ) ;
#114 = PERSON_AND_ORGANIZATION_ROLE ( 'creator' ) ;
#115 = COORDINATED_UNIVERSAL_TIME_OFFSET ( 5, 0, .BEHIND. ) ;
#116 = ORIENTED_EDGE ( 'NONE', *, *, #1, .F. ) ;
#117 = CC_DESIGN_DATE_AND_TIME_ASSIGNMENT ( #135, #53, ( #98 ) ) ;
#118 = PERSON_AND_ORGANIZATION_ROLE ( 'classification_officer' ) ;
#119 = EDGE_CURVE ( 'NONE', #65, #131, #74, .T. ) ;
#120 = CYLINDRICAL_SURFACE ( 'NONE', #108, 12.69999999999999900 ) ;
#121 = PRODUCT_RELATED_PRODUCT_CATEGORY ( 'detail', '', ( #164 ) ) ;
#122 = DIRECTION ( 'NONE',  ( 1.000000000000000000, 0.0000000000000000000, 0.0000000000000000000 ) ) ;
#123 = EDGE_LOOP ( 'NONE', ( #17, #14 ) ) ;
#124 = AXIS2_PLACEMENT_3D ( 'NONE', #33, #133, #49 ) ;
#125 = VERTEX_POINT ( 'NONE', #143 ) ;
#126 = DATE_AND_TIME ( #39, #7 ) ;
#127 = EDGE_CURVE ( 'NONE', #125, #158, #104, .T. ) ;
#128 = EDGE_LOOP ( 'NONE', ( #157, #8, #20, #134 ) ) ;
#129 = APPROVAL_ROLE ( '' ) ;
#130 =( NAMED_UNIT ( * ) PLANE_ANGLE_UNIT ( ) SI_UNIT ( $, .RADIAN. ) );
#131 = VERTEX_POINT ( 'NONE', #61 ) ;
#132 = DIRECTION ( 'NONE',  ( 1.000000000000000000, 0.0000000000000000000, 0.0000000000000000000 ) ) ;
#133 = DIRECTION ( 'NONE',  ( 0.0000000000000000000, 0.0000000000000000000, 1.000000000000000000 ) ) ;
#134 = ORIENTED_EDGE ( 'NONE', *, *, #119, .F. ) ;
#135 = DATE_AND_TIME ( #85, #73 ) ;
#136 = AXIS2_PLACEMENT_3D ( 'NONE', #141, #101, #32 ) ;
#137 = DATE_AND_TIME ( #34, #68 ) ;
#138 = PERSON_AND_ORGANIZATION_ROLE ( 'creator' ) ;
#139 = APPLICATION_CONTEXT ( 'configuration controlled 3d designs of mechanical parts and assemblies' ) ;
#140 = PERSON_AND_ORGANIZATION ( #6, #3 ) ;
#141 = CARTESIAN_POINT ( 'NONE',  ( 0.0000000000000000000, 0.0000000000000000000, -2.500000000000000000 ) ) ;
#142 = FACE_OUTER_BOUND ( 'NONE', #56, .T. ) ;
#143 = CARTESIAN_POINT ( 'NONE',  ( 12.69999999999999900, 1.555301434917138400E-015, 2.500000000000000000 ) ) ;
#144 = AXIS2_PLACEMENT_3D ( 'NONE', #35, #76, #91 ) ;
#145 = CARTESIAN_POINT ( 'NONE',  ( 12.69999999999999900, 1.555301434917138400E-015, -2.500000000000000000 ) ) ;
#146 = LOCAL_TIME ( 16, 50, 23.00000000000000000, #69 ) ;
#147 = APPROVAL_PERSON_ORGANIZATION ( #44, #149, #5 ) ;
#148 = CIRCLE ( 'NONE', #27, 12.69999999999999900 ) ;
#149 = APPROVAL ( #165, 'UNSPECIFIED' ) ;
#150 = PERSON_AND_ORGANIZATION ( #6, #3 ) ;
#151 = PERSON_AND_ORGANIZATION_ROLE ( 'design_supplier' ) ;
#152 = CARTESIAN_POINT ( 'NONE',  ( -12.69999999999999900, 0.0000000000000000000, 2.500000000000000000 ) ) ;
#153 = CARTESIAN_POINT ( 'NONE',  ( 0.0000000000000000000, 0.0000000000000000000, -2.500000000000000000 ) ) ;
#154 = FACE_OUTER_BOUND ( 'NONE', #128, .T. ) ;
#155 = ADVANCED_FACE ( 'NONE', ( #142 ), #36, .F. ) ;
#156 =( NAMED_UNIT ( * ) SI_UNIT ( $, .STERADIAN. ) SOLID_ANGLE_UNIT ( ) );
#157 = ORIENTED_EDGE ( 'NONE', *, *, #50, .F. ) ;
#158 = VERTEX_POINT ( 'NONE', #145 ) ;
#159 = ORIENTED_EDGE ( 'NONE', *, *, #97, .F. ) ;
#160 = COORDINATED_UNIVERSAL_TIME_OFFSET ( 5, 0, .BEHIND. ) ;
#161 = AXIS2_PLACEMENT_3D ( 'NONE', #24, #90, #122 ) ;
#162 = DIRECTION ( 'NONE',  ( -0.0000000000000000000, -0.0000000000000000000, -1.000000000000000000 ) ) ;
#163 = CARTESIAN_POINT ( 'NONE',  ( -12.69999999999999900, 0.0000000000000000000, 2.500000000000000000 ) ) ;
#164 = PRODUCT ( 'Web Model 39398_39411', 'Web Model 39398_39411', '', ( #11 ) ) ;
#165 = APPROVAL_STATUS ( 'not_yet_approved' ) ;
#166 = DIRECTION ( 'NONE',  ( 0.0000000000000000000, 0.0000000000000000000, 1.000000000000000000 ) ) ;
#167 =( LENGTH_UNIT ( ) NAMED_UNIT ( * ) SI_UNIT ( .MILLI., .METRE. ) );
#168 = APPLICATION_PROTOCOL_DEFINITION ( 'international standard', 'config_control_design', 1994, #78 ) ;
#169 = PERSON_AND_ORGANIZATION ( #6, #3 ) ;
#170 = CC_DESIGN_PERSON_AND_ORGANIZATION_ASSIGNMENT ( #37, #114, ( #62 ) ) ;
#171 = ADVANCED_FACE ( 'NONE', ( #94 ), #63, .T. ) ;
#172 = EDGE_CURVE ( 'NONE', #158, #131, #113, .T. ) ;
#173 = PRODUCT_DEFINITION_FORMATION_WITH_SPECIFIED_SOURCE ( 'ANY', '', #164, .NOT_KNOWN. ) ;
#174 = DATE_AND_TIME ( #111, #146 ) ;
#175 = COORDINATED_UNIVERSAL_TIME_OFFSET ( 5, 0, .BEHIND. ) ;
ENDSEC;
END-ISO-10303-21;
