ISO-10303-21;
HEADER;
FILE_DESCRIPTION (( 'STEP AP214' ),
    '1' );
FILE_NAME ('3359-E0W.STEP',
    '2009-12-21T16:57:42',
    ( ' ' ),
    ( ' ' ),
    'SwSTEP 2.0',
    'SolidWorks 2009',
    '' );
FILE_SCHEMA (( 'AUTOMOTIVE_DESIGN' ));
ENDSEC;

DATA;
#1 = AXIS2_PLACEMENT_3D ( 'NONE', #2, #3, #4 ) ;
#2 = CARTESIAN_POINT ( 'NONE',  ( 0.0000000000000000000, -6.274098110942214900E-015, -0.9992819110480264400 ) ) ;
#3 = DIRECTION ( 'NONE',  ( -0.0000000000000000000, -0.0000000000000000000, 1.000000000000000000 ) ) ;
#4 = DIRECTION ( 'NONE',  ( 1.000000000000000000, 0.0000000000000000000, 0.0000000000000000000 ) ) ;
#5 =( LENGTH_UNIT ( ) NAMED_UNIT ( * ) SI_UNIT ( .MILLI., .METRE. ) );
#6 = MECHANICAL_DESIGN_GEOMETRIC_PRESENTATION_REPRESENTATION (  '', ( #8 ), #144 ) ;
#7 = PRESENTATION_LAYER_ASSIGNMENT (  '', '', ( #8 ) ) ;
#8 = STYLED_ITEM ( 'NONE', ( #9 ), #53 ) ;
#9 = PRESENTATION_STYLE_ASSIGNMENT (( #10 ) ) ;
#10 = SURFACE_STYLE_USAGE ( .BOTH. , #11 ) ;
#11 = SURFACE_SIDE_STYLE ('',( #12 ) ) ;
#12 = SURFACE_STYLE_FILL_AREA ( #13 ) ;
#13 = FILL_AREA_STYLE ('',( #20 ) ) ;
#14 = COLOUR_RGB ( '',0.9568627450980391500, 0.9490196078431372100, 0.9607843137254902200 ) ;
#15 = DIRECTION ( 'NONE',  ( 0.0000000000000000000, 1.000000000000000000, 0.0000000000000000000 ) ) ;
#16 = DIRECTION ( 'NONE',  ( -1.000000000000000000, 0.0000000000000000000, 0.0000000000000000000 ) ) ;
#17 = CARTESIAN_POINT ( 'NONE',  ( 0.0000000000000000000, 3.704556567420743000E-015, -31.46500000000000000 ) ) ;
#18 = AXIS2_PLACEMENT_3D ( 'NONE', #17, #16, #15 ) ;
#19 = FACE_OUTER_BOUND ( 'NONE', #129, .T. ) ;
#20 = FILL_AREA_STYLE_COLOUR ( '', #14 ) ;
#21 = SPHERICAL_SURFACE ( 'NONE', #18, 34.85999999999999900 ) ;
#22 = ORIENTED_EDGE ( 'NONE', *, *, #127, .T. ) ;
#23 = ORIENTED_EDGE ( 'NONE', *, *, #79, .T. ) ;
#24 = ORIENTED_EDGE ( 'NONE', *, *, #73, .F. ) ;
#25 = ORIENTED_EDGE ( 'NONE', *, *, #26, .F. ) ;
#26 = EDGE_CURVE ( 'NONE', #27, #71, #50, .T. ) ;
#27 = VERTEX_POINT ( 'NONE', #45 ) ;
#28 = ADVANCED_FACE ( 'NONE', ( #44 ), #158, .T. ) ;
#29 = EDGE_LOOP ( 'NONE', ( #126, #151, #149, #23, #148, #150 ) ) ;
#30 = ORIENTED_EDGE ( 'NONE', *, *, #131, .F. ) ;
#31 = EDGE_LOOP ( 'NONE', ( #106, #67, #66, #81 ) ) ;
#32 = ORIENTED_EDGE ( 'NONE', *, *, #68, .F. ) ;
#33 =( LENGTH_UNIT ( ) NAMED_UNIT ( * ) SI_UNIT ( .MILLI., .METRE. ) );
#34 = MECHANICAL_DESIGN_GEOMETRIC_PRESENTATION_REPRESENTATION (  '', ( #36 ), #159 ) ;
#35 = PRESENTATION_LAYER_ASSIGNMENT (  '', '', ( #36 ) ) ;
#36 = STYLED_ITEM ( 'NONE', ( #37 ), #28 ) ;
#37 = PRESENTATION_STYLE_ASSIGNMENT (( #38 ) ) ;
#38 = SURFACE_STYLE_USAGE ( .BOTH. , #39 ) ;
#39 = SURFACE_SIDE_STYLE ('',( #40 ) ) ;
#40 = SURFACE_STYLE_FILL_AREA ( #41 ) ;
#41 = FILL_AREA_STYLE ('',( #42 ) ) ;
#42 = FILL_AREA_STYLE_COLOUR ( '', #43 ) ;
#43 = COLOUR_RGB ( '',0.9568627450980391500, 0.9490196078431372100, 0.9607843137254902200 ) ;
#44 = FACE_OUTER_BOUND ( 'NONE', #29, .T. ) ;
#45 = CARTESIAN_POINT ( 'NONE',  ( 12.70000000000000600, -6.274098110942214900E-015, 0.9992819110480264400 ) ) ;
#46 = DIRECTION ( 'NONE',  ( 1.000000000000000000, 0.0000000000000000000, 0.0000000000000000000 ) ) ;
#47 = DIRECTION ( 'NONE',  ( -0.0000000000000000000, -0.0000000000000000000, 1.000000000000000000 ) ) ;
#48 = CARTESIAN_POINT ( 'NONE',  ( 0.0000000000000000000, -6.274098110942214900E-015, 0.9992819110480264400 ) ) ;
#49 = AXIS2_PLACEMENT_3D ( 'NONE', #48, #47, #46 ) ;
#50 = CIRCLE ( 'NONE', #49, 12.70000000000000600 ) ;
#51 = MANIFOLD_SOLID_BREP ( 'NONE', #128 ) ;
#52 = ADVANCED_FACE ( 'NONE', ( #120 ), #21, .T. ) ;
#53 = ADVANCED_FACE ( 'NONE', ( #19 ), #143, .T. ) ;
#54 = VERTEX_POINT ( 'NONE', #142 ) ;
#55 = ORIENTED_EDGE ( 'NONE', *, *, #56, .T. ) ;
#56 = EDGE_CURVE ( 'NONE', #54, #64, #137, .T. ) ;
#57 = EDGE_CURVE ( 'NONE', #58, #132, #133, .T. ) ;
#58 = VERTEX_POINT ( 'NONE', #172 ) ;
#59 = VERTEX_POINT ( 'NONE', #282 ) ;
#60 = ORIENTED_EDGE ( 'NONE', *, *, #61, .T. ) ;
#61 = EDGE_CURVE ( 'NONE', #59, #89, #283, .T. ) ;
#62 = ORIENTED_EDGE ( 'NONE', *, *, #63, .T. ) ;
#63 = EDGE_CURVE ( 'NONE', #64, #59, #281, .T. ) ;
#64 = VERTEX_POINT ( 'NONE', #224 ) ;
#65 = ORIENTED_EDGE ( 'NONE', *, *, #79, .F. ) ;
#66 = ORIENTED_EDGE ( 'NONE', *, *, #57, .F. ) ;
#67 = ORIENTED_EDGE ( 'NONE', *, *, #77, .T. ) ;
#68 = EDGE_CURVE ( 'NONE', #54, #75, #201, .T. ) ;
#69 = ORIENTED_EDGE ( 'NONE', *, *, #70, .F. ) ;
#70 = EDGE_CURVE ( 'NONE', #71, #89, #268, .T. ) ;
#71 = VERTEX_POINT ( 'NONE', #208 ) ;
#72 = ORIENTED_EDGE ( 'NONE', *, *, #73, .T. ) ;
#73 = EDGE_CURVE ( 'NONE', #71, #64, #275, .T. ) ;
#74 = EDGE_CURVE ( 'NONE', #76, #75, #206, .T. ) ;
#75 = VERTEX_POINT ( 'NONE', #202 ) ;
#76 = VERTEX_POINT ( 'NONE', #298 ) ;
#77 = EDGE_CURVE ( 'NONE', #76, #132, #297, .T. ) ;
#78 = ORIENTED_EDGE ( 'NONE', *, *, #74, .T. ) ;
#79 = EDGE_CURVE ( 'NONE', #58, #27, #278, .T. ) ;
#80 = ORIENTED_EDGE ( 'NONE', *, *, #57, .T. ) ;
#81 = ORIENTED_EDGE ( 'NONE', *, *, #82, .F. ) ;
#82 = EDGE_CURVE ( 'NONE', #75, #58, #178, .T. ) ;
#83 = ORIENTED_EDGE ( 'NONE', *, *, #61, .F. ) ;
#84 = ORIENTED_EDGE ( 'NONE', *, *, #26, .T. ) ;
#85 = ORIENTED_EDGE ( 'NONE', *, *, #70, .T. ) ;
#86 = ADVANCED_FACE ( 'NONE', ( #179 ), #300, .T. ) ;
#87 = EDGE_LOOP ( 'NONE', ( #107, #78, #32, #30 ) ) ;
#88 = EDGE_LOOP ( 'NONE', ( #62, #60, #69, #72 ) ) ;
#89 = VERTEX_POINT ( 'NONE', #235 ) ;
#90 =( LENGTH_UNIT ( ) NAMED_UNIT ( * ) SI_UNIT ( .MILLI., .METRE. ) );
#91 = MECHANICAL_DESIGN_GEOMETRIC_PRESENTATION_REPRESENTATION (  '', ( #93 ), #121 ) ;
#92 = PRESENTATION_LAYER_ASSIGNMENT (  '', '', ( #93 ) ) ;
#93 = STYLED_ITEM ( 'NONE', ( #94 ), #51 ) ;
#94 = PRESENTATION_STYLE_ASSIGNMENT (( #95 ) ) ;
#95 = SURFACE_STYLE_USAGE ( .BOTH. , #96 ) ;
#96 = SURFACE_SIDE_STYLE ('',( #97 ) ) ;
#97 = SURFACE_STYLE_FILL_AREA ( #102 ) ;
#98 = DIRECTION ( 'NONE',  ( 1.000000000000000000, 0.0000000000000000000, 0.0000000000000000000 ) ) ;
#99 = DIRECTION ( 'NONE',  ( -0.0000000000000000000, -0.0000000000000000000, 1.000000000000000000 ) ) ;
#100 = CARTESIAN_POINT ( 'NONE',  ( 0.0000000000000000000, -6.274098110942214900E-015, 6.491000388932064000 ) ) ;
#101 = AXIS2_PLACEMENT_3D ( 'NONE', #100, #99, #98 ) ;
#102 = FILL_AREA_STYLE ('',( #103 ) ) ;
#103 = FILL_AREA_STYLE_COLOUR ( '', #104 ) ;
#104 = COLOUR_RGB ( '',0.7960784313725489700, 0.8235294117647058400, 0.9372549019607843100 ) ;
#105 = ADVANCED_FACE ( 'NONE', ( #234 ), #320, .T. ) ;
#106 = ORIENTED_EDGE ( 'NONE', *, *, #74, .F. ) ;
#107 = ORIENTED_EDGE ( 'NONE', *, *, #77, .F. ) ;
#108 =( NAMED_UNIT ( * ) PLANE_ANGLE_UNIT ( ) SI_UNIT ( $, .RADIAN. ) );
#109 =( LENGTH_UNIT ( ) NAMED_UNIT ( * ) SI_UNIT ( .MILLI., .METRE. ) );
#110 = MECHANICAL_DESIGN_GEOMETRIC_PRESENTATION_REPRESENTATION (  '', ( #112 ), #155 ) ;
#111 = PRESENTATION_LAYER_ASSIGNMENT (  '', '', ( #112 ) ) ;
#112 = STYLED_ITEM ( 'NONE', ( #113 ), #52 ) ;
#113 = PRESENTATION_STYLE_ASSIGNMENT (( #114 ) ) ;
#114 = SURFACE_STYLE_USAGE ( .BOTH. , #115 ) ;
#115 = SURFACE_SIDE_STYLE ('',( #116 ) ) ;
#116 = SURFACE_STYLE_FILL_AREA ( #117 ) ;
#117 = FILL_AREA_STYLE ('',( #118 ) ) ;
#118 = FILL_AREA_STYLE_COLOUR ( '', #119 ) ;
#119 = COLOUR_RGB ( '',0.9568627450980391500, 0.9490196078431372100, 0.9607843137254902200 ) ;
#120 = FACE_OUTER_BOUND ( 'NONE', #88, .T. ) ;
#121 =( GEOMETRIC_REPRESENTATION_CONTEXT ( 3 ) GLOBAL_UNCERTAINTY_ASSIGNED_CONTEXT ( ( #122 ) ) GLOBAL_UNIT_ASSIGNED_CONTEXT ( ( #90, #124, #123 ) ) REPRESENTATION_CONTEXT ( 'NONE', 'WORKASPACE' ) );
#122 = UNCERTAINTY_MEASURE_WITH_UNIT (LENGTH_MEASURE( 1.000000000000000100E-005 ), #90, 'distance_accuracy_value', 'NONE');
#123 =( NAMED_UNIT ( * ) SI_UNIT ( $, .STERADIAN. ) SOLID_ANGLE_UNIT ( ) );
#124 =( NAMED_UNIT ( * ) PLANE_ANGLE_UNIT ( ) SI_UNIT ( $, .RADIAN. ) );
#125 = EDGE_LOOP ( 'NONE', ( #83, #22, #84, #85 ) ) ;
#126 = ORIENTED_EDGE ( 'NONE', *, *, #56, .F. ) ;
#127 = EDGE_CURVE ( 'NONE', #59, #27, #315, .T. ) ;
#128 = CLOSED_SHELL ( 'NONE', ( #52, #53, #86, #105, #28, #152 ) ) ;
#129 = EDGE_LOOP ( 'NONE', ( #130, #55, #24, #25, #65, #80 ) ) ;
#130 = ORIENTED_EDGE ( 'NONE', *, *, #131, .T. ) ;
#131 = EDGE_CURVE ( 'NONE', #132, #54, #250, .T. ) ;
#132 = VERTEX_POINT ( 'NONE', #245 ) ;
#133 = CIRCLE ( 'NONE', #1, 12.70000000000000800 ) ;
#134 = DIRECTION ( 'NONE',  ( -0.0000000000000000000, -0.0000000000000000000, 1.000000000000000000 ) ) ;
#135 = VECTOR ( 'NONE', #134, 1000.000000000000000 ) ;
#136 = CARTESIAN_POINT ( 'NONE',  ( -12.70000000000000600, -4.718848041587794900E-015, 6.491000388932064000 ) ) ;
#137 = LINE ( 'NONE', #136, #135 ) ;
#138 = DIRECTION ( 'NONE',  ( 1.000000000000000000, 0.0000000000000000000, 0.0000000000000000000 ) ) ;
#139 = DIRECTION ( 'NONE',  ( -0.0000000000000000000, -0.0000000000000000000, 1.000000000000000000 ) ) ;
#140 = CARTESIAN_POINT ( 'NONE',  ( 0.0000000000000000000, -6.274098110942214900E-015, 6.491000388932064000 ) ) ;
#141 = AXIS2_PLACEMENT_3D ( 'NONE', #140, #139, #138 ) ;
#142 = CARTESIAN_POINT ( 'NONE',  ( -12.70000000000001000, -4.718848041587794100E-015, -0.9992819110480264400 ) ) ;
#143 = CYLINDRICAL_SURFACE ( 'NONE', #141, 12.70000000000000600 ) ;
#144 =( GEOMETRIC_REPRESENTATION_CONTEXT ( 3 ) GLOBAL_UNCERTAINTY_ASSIGNED_CONTEXT ( ( #145 ) ) GLOBAL_UNIT_ASSIGNED_CONTEXT ( ( #5, #147, #146 ) ) REPRESENTATION_CONTEXT ( 'NONE', 'WORKASPACE' ) );
#145 = UNCERTAINTY_MEASURE_WITH_UNIT (LENGTH_MEASURE( 1.000000000000000100E-005 ), #5, 'distance_accuracy_value', 'NONE');
#146 =( NAMED_UNIT ( * ) SI_UNIT ( $, .STERADIAN. ) SOLID_ANGLE_UNIT ( ) );
#147 =( NAMED_UNIT ( * ) PLANE_ANGLE_UNIT ( ) SI_UNIT ( $, .RADIAN. ) );
#148 = ORIENTED_EDGE ( 'NONE', *, *, #127, .F. ) ;
#149 = ORIENTED_EDGE ( 'NONE', *, *, #82, .T. ) ;
#150 = ORIENTED_EDGE ( 'NONE', *, *, #63, .F. ) ;
#151 = ORIENTED_EDGE ( 'NONE', *, *, #68, .T. ) ;
#152 = ADVANCED_FACE ( 'NONE', ( #244 ), #286, .T. ) ;
#153 =( NAMED_UNIT ( * ) SI_UNIT ( $, .STERADIAN. ) SOLID_ANGLE_UNIT ( ) );
#154 =( NAMED_UNIT ( * ) PLANE_ANGLE_UNIT ( ) SI_UNIT ( $, .RADIAN. ) );
#155 =( GEOMETRIC_REPRESENTATION_CONTEXT ( 3 ) GLOBAL_UNCERTAINTY_ASSIGNED_CONTEXT ( ( #156 ) ) GLOBAL_UNIT_ASSIGNED_CONTEXT ( ( #109, #108, #157 ) ) REPRESENTATION_CONTEXT ( 'NONE', 'WORKASPACE' ) );
#156 = UNCERTAINTY_MEASURE_WITH_UNIT (LENGTH_MEASURE( 1.000000000000000100E-005 ), #109, 'distance_accuracy_value', 'NONE');
#157 =( NAMED_UNIT ( * ) SI_UNIT ( $, .STERADIAN. ) SOLID_ANGLE_UNIT ( ) );
#158 = CYLINDRICAL_SURFACE ( 'NONE', #101, 12.70000000000000600 ) ;
#159 =( GEOMETRIC_REPRESENTATION_CONTEXT ( 3 ) GLOBAL_UNCERTAINTY_ASSIGNED_CONTEXT ( ( #160 ) ) GLOBAL_UNIT_ASSIGNED_CONTEXT ( ( #33, #154, #153 ) ) REPRESENTATION_CONTEXT ( 'NONE', 'WORKASPACE' ) );
#160 = UNCERTAINTY_MEASURE_WITH_UNIT (LENGTH_MEASURE( 1.000000000000000100E-005 ), #33, 'distance_accuracy_value', 'NONE');
#161 = PRODUCT_DEFINITION_SHAPE ( 'NONE', 'NONE',  #164 ) ;
#162 = PRODUCT_RELATED_PRODUCT_CATEGORY ( 'part', '', ( #168 ) ) ;
#163 = PRODUCT_DEFINITION_FORMATION_WITH_SPECIFIED_SOURCE ( 'ANY', '', #168, .NOT_KNOWN. ) ;
#164 = PRODUCT_DEFINITION ( 'UNKNOWN', '', #163, #165 ) ;
#165 = PRODUCT_DEFINITION_CONTEXT ( 'detailed design', #167, 'design' ) ;
#166 = APPLICATION_PROTOCOL_DEFINITION ( 'draft international standard', 'automotive_design', 1998, #167 ) ;
#167 = APPLICATION_CONTEXT ( 'automotive_design' ) ;
#168 = PRODUCT ( '3359-E0W', '3359-E0W', '', ( #169 ) ) ;
#169 = PRODUCT_CONTEXT ( 'NONE', #171, 'mechanical' ) ;
#170 = APPLICATION_PROTOCOL_DEFINITION ( 'draft international standard', 'automotive_design', 1998, #171 ) ;
#171 = APPLICATION_CONTEXT ( 'automotive_design' ) ;
#172 = CARTESIAN_POINT ( 'NONE',  ( 12.70000000000001000, -6.274098110942214900E-015, -0.9992819110480264400 ) ) ;
#173 = FILL_AREA_STYLE_COLOUR ( '', #314 ) ;
#174 = DIRECTION ( 'NONE',  ( 1.000000000000000000, 0.0000000000000000000, 0.0000000000000000000 ) ) ;
#175 = DIRECTION ( 'NONE',  ( -0.0000000000000000000, -0.0000000000000000000, 1.000000000000000000 ) ) ;
#176 = CARTESIAN_POINT ( 'NONE',  ( 0.0000000000000000000, -6.274098110942214900E-015, -0.9992819110480264400 ) ) ;
#177 = AXIS2_PLACEMENT_3D ( 'NONE', #176, #175, #174 ) ;
#178 = CIRCLE ( 'NONE', #177, 12.70000000000000800 ) ;
#179 = FACE_OUTER_BOUND ( 'NONE', #87, .T. ) ;
#180 = DIRECTION ( 'NONE',  ( -0.0000000000000000000, -0.0000000000000000000, 1.000000000000000000 ) ) ;
#181 = DIRECTION ( 'NONE',  ( 1.000000000000000000, 0.0000000000000000000, 0.0000000000000000000 ) ) ;
#182 = DIRECTION ( 'NONE',  ( 0.0000000000000000000, 0.0000000000000000000, 1.000000000000000000 ) ) ;
#183 =( GEOMETRIC_REPRESENTATION_CONTEXT ( 3 ) GLOBAL_UNCERTAINTY_ASSIGNED_CONTEXT ( ( #184 ) ) GLOBAL_UNIT_ASSIGNED_CONTEXT ( ( #187, #186, #185 ) ) REPRESENTATION_CONTEXT ( 'NONE', 'WORKASPACE' ) );
#184 = UNCERTAINTY_MEASURE_WITH_UNIT (LENGTH_MEASURE( 1.000000000000000100E-005 ), #187, 'distance_accuracy_value', 'NONE');
#185 =( NAMED_UNIT ( * ) SI_UNIT ( $, .STERADIAN. ) SOLID_ANGLE_UNIT ( ) );
#186 =( NAMED_UNIT ( * ) PLANE_ANGLE_UNIT ( ) SI_UNIT ( $, .RADIAN. ) );
#187 =( LENGTH_UNIT ( ) NAMED_UNIT ( * ) SI_UNIT ( .MILLI., .METRE. ) );
#188 = MECHANICAL_DESIGN_GEOMETRIC_PRESENTATION_REPRESENTATION (  '', ( #190 ), #183 ) ;
#189 = PRESENTATION_LAYER_ASSIGNMENT (  '', '', ( #190 ) ) ;
#190 = STYLED_ITEM ( 'NONE', ( #191 ), #218 ) ;
#191 = PRESENTATION_STYLE_ASSIGNMENT (( #192 ) ) ;
#192 = SURFACE_STYLE_USAGE ( .BOTH. , #193 ) ;
#193 = SURFACE_SIDE_STYLE ('',( #194 ) ) ;
#194 = SURFACE_STYLE_FILL_AREA ( #195 ) ;
#195 = FILL_AREA_STYLE ('',( #196 ) ) ;
#196 = FILL_AREA_STYLE_COLOUR ( '', #197 ) ;
#197 = COLOUR_RGB ( '',0.7960784313725489700, 0.8235294117647058400, 0.9372549019607843100 ) ;
#198 = UNCERTAINTY_MEASURE_WITH_UNIT (LENGTH_MEASURE( 1.000000000000000100E-005 ), #305, 'distance_accuracy_value', 'NONE');
#199 =( NAMED_UNIT ( * ) SI_UNIT ( $, .STERADIAN. ) SOLID_ANGLE_UNIT ( ) );
#200 =( NAMED_UNIT ( * ) PLANE_ANGLE_UNIT ( ) SI_UNIT ( $, .RADIAN. ) );
#201 = CIRCLE ( 'NONE', #211, 12.70000000000000800 ) ;
#202 = CARTESIAN_POINT ( 'NONE',  ( -1.555250069354419900E-015, -12.70000000000001000, -0.9992819110480228900 ) ) ;
#203 = DIRECTION ( 'NONE',  ( -1.224606353822377000E-016, -1.000000000000000000, 0.0000000000000000000 ) ) ;
#204 = DIRECTION ( 'NONE',  ( -1.000000000000000000, 1.224606353822377300E-016, 0.0000000000000000000 ) ) ;
#205 = AXIS2_PLACEMENT_3D ( 'NONE', #207, #204, #203 ) ;
#206 = CIRCLE ( 'NONE', #205, 34.85999999999999900 ) ;
#207 = CARTESIAN_POINT ( 'NONE',  ( 0.0000000000000000000, -4.002145739613551000E-015, 31.46500000000000000 ) ) ;
#208 = CARTESIAN_POINT ( 'NONE',  ( 0.0000000000000000000, 12.70000000000000300, 0.9992819110480228900 ) ) ;
#209 = DIRECTION ( 'NONE',  ( 0.0000000000000000000, 0.0000000000000000000, -1.000000000000000000 ) ) ;
#210 = DIRECTION ( 'NONE',  ( 1.000000000000000000, 0.0000000000000000000, 0.0000000000000000000 ) ) ;
#211 = AXIS2_PLACEMENT_3D ( 'NONE', #304, #303, #302 ) ;
#212 =( NAMED_UNIT ( * ) SI_UNIT ( $, .STERADIAN. ) SOLID_ANGLE_UNIT ( ) );
#213 =( NAMED_UNIT ( * ) PLANE_ANGLE_UNIT ( ) SI_UNIT ( $, .RADIAN. ) );
#214 =( LENGTH_UNIT ( ) NAMED_UNIT ( * ) SI_UNIT ( .MILLI., .METRE. ) );
#215 = MECHANICAL_DESIGN_GEOMETRIC_PRESENTATION_REPRESENTATION (  '', ( #217 ), #321 ) ;
#216 = PRESENTATION_LAYER_ASSIGNMENT (  '', '', ( #217 ) ) ;
#217 = STYLED_ITEM ( 'NONE', ( #227 ), #105 ) ;
#218 = ADVANCED_BREP_SHAPE_REPRESENTATION ( '3359-E0W', ( #51, #269 ), #219 ) ;
#219 =( GEOMETRIC_REPRESENTATION_CONTEXT ( 3 ) GLOBAL_UNCERTAINTY_ASSIGNED_CONTEXT ( ( #220 ) ) GLOBAL_UNIT_ASSIGNED_CONTEXT ( ( #290, #289, #221 ) ) REPRESENTATION_CONTEXT ( 'NONE', 'WORKASPACE' ) );
#220 = UNCERTAINTY_MEASURE_WITH_UNIT (LENGTH_MEASURE( 1.000000000000000100E-005 ), #290, 'distance_accuracy_value', 'NONE');
#221 =( NAMED_UNIT ( * ) SI_UNIT ( $, .STERADIAN. ) SOLID_ANGLE_UNIT ( ) );
#222 = CARTESIAN_POINT ( 'NONE',  ( 0.0000000000000000000, -6.274098110942214900E-015, 0.9992819110480264400 ) ) ;
#223 = AXIS2_PLACEMENT_3D ( 'NONE', #222, #226, #225 ) ;
#224 = CARTESIAN_POINT ( 'NONE',  ( -12.70000000000000600, -4.718848041587794900E-015, 0.9992819110480264400 ) ) ;
#225 = DIRECTION ( 'NONE',  ( 1.000000000000000000, 0.0000000000000000000, 0.0000000000000000000 ) ) ;
#226 = DIRECTION ( 'NONE',  ( -0.0000000000000000000, -0.0000000000000000000, 1.000000000000000000 ) ) ;
#227 = PRESENTATION_STYLE_ASSIGNMENT (( #228 ) ) ;
#228 = SURFACE_STYLE_USAGE ( .BOTH. , #229 ) ;
#229 = SURFACE_SIDE_STYLE ('',( #230 ) ) ;
#230 = SURFACE_STYLE_FILL_AREA ( #231 ) ;
#231 = FILL_AREA_STYLE ('',( #232 ) ) ;
#232 = FILL_AREA_STYLE_COLOUR ( '', #233 ) ;
#233 = COLOUR_RGB ( '',0.9568627450980391500, 0.9490196078431372100, 0.9607843137254902200 ) ;
#234 = FACE_OUTER_BOUND ( 'NONE', #31, .T. ) ;
#235 = CARTESIAN_POINT ( 'NONE',  ( 0.0000000000000000000, 5.839045442133146300E-015, 3.395000000000002200 ) ) ;
#236 = DIRECTION ( 'NONE',  ( 0.0000000000000000000, 1.000000000000000000, 0.0000000000000000000 ) ) ;
#237 = DIRECTION ( 'NONE',  ( -1.000000000000000000, 0.0000000000000000000, 0.0000000000000000000 ) ) ;
#238 = AXIS2_PLACEMENT_3D ( 'NONE', #299, #237, #236 ) ;
#239 = DIRECTION ( 'NONE',  ( -1.224606353822377000E-016, -1.000000000000000000, 0.0000000000000000000 ) ) ;
#240 = DIRECTION ( 'NONE',  ( -1.000000000000000000, 1.224606353822377300E-016, 0.0000000000000000000 ) ) ;
#241 = CARTESIAN_POINT ( 'NONE',  ( 0.0000000000000000000, 3.704556567420743000E-015, -31.46500000000000000 ) ) ;
#242 = FILL_AREA_STYLE_COLOUR ( '', #243 ) ;
#243 = COLOUR_RGB ( '',0.9568627450980391500, 0.9490196078431372100, 0.9607843137254902200 ) ;
#244 = FACE_OUTER_BOUND ( 'NONE', #125, .T. ) ;
#245 = CARTESIAN_POINT ( 'NONE',  ( 0.0000000000000000000, 12.69999999999999900, -0.9992819110480228900 ) ) ;
#246 = DIRECTION ( 'NONE',  ( 1.000000000000000000, 0.0000000000000000000, 0.0000000000000000000 ) ) ;
#247 = DIRECTION ( 'NONE',  ( -0.0000000000000000000, -0.0000000000000000000, 1.000000000000000000 ) ) ;
#248 = CARTESIAN_POINT ( 'NONE',  ( 0.0000000000000000000, -6.274098110942214900E-015, -0.9992819110480264400 ) ) ;
#249 = AXIS2_PLACEMENT_3D ( 'NONE', #248, #247, #246 ) ;
#250 = CIRCLE ( 'NONE', #249, 12.70000000000000800 ) ;
#251 = DIRECTION ( 'NONE',  ( 1.000000000000000000, 0.0000000000000000000, 0.0000000000000000000 ) ) ;
#252 = DIRECTION ( 'NONE',  ( -0.0000000000000000000, -0.0000000000000000000, 1.000000000000000000 ) ) ;
#253 = CARTESIAN_POINT ( 'NONE',  ( 0.0000000000000000000, -6.274098110942214900E-015, 0.9992819110480264400 ) ) ;
#254 = AXIS2_PLACEMENT_3D ( 'NONE', #253, #252, #251 ) ;
#255 =( NAMED_UNIT ( * ) SI_UNIT ( $, .STERADIAN. ) SOLID_ANGLE_UNIT ( ) );
#256 =( NAMED_UNIT ( * ) PLANE_ANGLE_UNIT ( ) SI_UNIT ( $, .RADIAN. ) );
#257 =( LENGTH_UNIT ( ) NAMED_UNIT ( * ) SI_UNIT ( .MILLI., .METRE. ) );
#258 = MECHANICAL_DESIGN_GEOMETRIC_PRESENTATION_REPRESENTATION (  '', ( #260 ), #287 ) ;
#259 = PRESENTATION_LAYER_ASSIGNMENT (  '', '', ( #260 ) ) ;
#260 = STYLED_ITEM ( 'NONE', ( #261 ), #152 ) ;
#261 = PRESENTATION_STYLE_ASSIGNMENT (( #262 ) ) ;
#262 = SURFACE_STYLE_USAGE ( .BOTH. , #263 ) ;
#263 = SURFACE_SIDE_STYLE ('',( #264 ) ) ;
#264 = SURFACE_STYLE_FILL_AREA ( #265 ) ;
#265 = FILL_AREA_STYLE ('',( #242 ) ) ;
#266 = CARTESIAN_POINT ( 'NONE',  ( 0.0000000000000000000, 3.704556567420743000E-015, -31.46500000000000000 ) ) ;
#267 = AXIS2_PLACEMENT_3D ( 'NONE', #266, #210, #209 ) ;
#268 = CIRCLE ( 'NONE', #267, 34.85999999999999200 ) ;
#269 = AXIS2_PLACEMENT_3D ( 'NONE', #285, #182, #181 ) ;
#270 = SHAPE_DEFINITION_REPRESENTATION ( #161, #218 ) ;
#271 = DIRECTION ( 'NONE',  ( 1.000000000000000000, 0.0000000000000000000, 0.0000000000000000000 ) ) ;
#272 = DIRECTION ( 'NONE',  ( -0.0000000000000000000, -0.0000000000000000000, 1.000000000000000000 ) ) ;
#273 = CARTESIAN_POINT ( 'NONE',  ( 0.0000000000000000000, -6.274098110942214900E-015, 0.9992819110480264400 ) ) ;
#274 = AXIS2_PLACEMENT_3D ( 'NONE', #273, #272, #271 ) ;
#275 = CIRCLE ( 'NONE', #274, 12.70000000000000600 ) ;
#276 = VECTOR ( 'NONE', #180, 1000.000000000000000 ) ;
#277 = CARTESIAN_POINT ( 'NONE',  ( 12.70000000000000600, -6.274098110942214900E-015, 6.491000388932064000 ) ) ;
#278 = LINE ( 'NONE', #277, #276 ) ;
#279 = DIRECTION ( 'NONE',  ( 0.0000000000000000000, 0.0000000000000000000, -1.000000000000000000 ) ) ;
#280 = AXIS2_PLACEMENT_3D ( 'NONE', #241, #240, #239 ) ;
#281 = CIRCLE ( 'NONE', #223, 12.70000000000000600 ) ;
#282 = CARTESIAN_POINT ( 'NONE',  ( -1.555250069354420500E-015, -12.70000000000000600, 0.9992819110480228900 ) ) ;
#283 = CIRCLE ( 'NONE', #280, 34.85999999999999900 ) ;
#284 = AXIS2_PLACEMENT_3D ( 'NONE', #293, #292, #291 ) ;
#285 = CARTESIAN_POINT ( 'NONE',  ( 0.0000000000000000000, 0.0000000000000000000, 0.0000000000000000000 ) ) ;
#286 = SPHERICAL_SURFACE ( 'NONE', #284, 34.85999999999999900 ) ;
#287 =( GEOMETRIC_REPRESENTATION_CONTEXT ( 3 ) GLOBAL_UNCERTAINTY_ASSIGNED_CONTEXT ( ( #288 ) ) GLOBAL_UNIT_ASSIGNED_CONTEXT ( ( #257, #256, #255 ) ) REPRESENTATION_CONTEXT ( 'NONE', 'WORKASPACE' ) );
#288 = UNCERTAINTY_MEASURE_WITH_UNIT (LENGTH_MEASURE( 1.000000000000000100E-005 ), #257, 'distance_accuracy_value', 'NONE');
#289 =( NAMED_UNIT ( * ) PLANE_ANGLE_UNIT ( ) SI_UNIT ( $, .RADIAN. ) );
#290 =( LENGTH_UNIT ( ) NAMED_UNIT ( * ) SI_UNIT ( .MILLI., .METRE. ) );
#291 = DIRECTION ( 'NONE',  ( 0.0000000000000000000, 1.000000000000000000, 0.0000000000000000000 ) ) ;
#292 = DIRECTION ( 'NONE',  ( -1.000000000000000000, 0.0000000000000000000, 0.0000000000000000000 ) ) ;
#293 = CARTESIAN_POINT ( 'NONE',  ( 0.0000000000000000000, 3.704556567420743000E-015, -31.46500000000000000 ) ) ;
#294 = DIRECTION ( 'NONE',  ( 1.000000000000000000, 0.0000000000000000000, 0.0000000000000000000 ) ) ;
#295 = CARTESIAN_POINT ( 'NONE',  ( 0.0000000000000000000, -4.002145739613551000E-015, 31.46500000000000000 ) ) ;
#296 = AXIS2_PLACEMENT_3D ( 'NONE', #295, #294, #279 ) ;
#297 = CIRCLE ( 'NONE', #296, 34.85999999999999900 ) ;
#298 = CARTESIAN_POINT ( 'NONE',  ( 0.0000000000000000000, -1.867656864901147300E-015, -3.395000000000002200 ) ) ;
#299 = CARTESIAN_POINT ( 'NONE',  ( 0.0000000000000000000, -4.002145739613551000E-015, 31.46500000000000000 ) ) ;
#300 = SPHERICAL_SURFACE ( 'NONE', #238, 34.85999999999999900 ) ;
#301 =( GEOMETRIC_REPRESENTATION_CONTEXT ( 3 ) GLOBAL_UNCERTAINTY_ASSIGNED_CONTEXT ( ( #198 ) ) GLOBAL_UNIT_ASSIGNED_CONTEXT ( ( #305, #200, #199 ) ) REPRESENTATION_CONTEXT ( 'NONE', 'WORKASPACE' ) );
#302 = DIRECTION ( 'NONE',  ( 1.000000000000000000, 0.0000000000000000000, 0.0000000000000000000 ) ) ;
#303 = DIRECTION ( 'NONE',  ( -0.0000000000000000000, -0.0000000000000000000, 1.000000000000000000 ) ) ;
#304 = CARTESIAN_POINT ( 'NONE',  ( 0.0000000000000000000, -6.274098110942214900E-015, -0.9992819110480264400 ) ) ;
#305 =( LENGTH_UNIT ( ) NAMED_UNIT ( * ) SI_UNIT ( .MILLI., .METRE. ) );
#306 = MECHANICAL_DESIGN_GEOMETRIC_PRESENTATION_REPRESENTATION (  '', ( #308 ), #301 ) ;
#307 = PRESENTATION_LAYER_ASSIGNMENT (  '', '', ( #308 ) ) ;
#308 = STYLED_ITEM ( 'NONE', ( #309 ), #86 ) ;
#309 = PRESENTATION_STYLE_ASSIGNMENT (( #310 ) ) ;
#310 = SURFACE_STYLE_USAGE ( .BOTH. , #311 ) ;
#311 = SURFACE_SIDE_STYLE ('',( #312 ) ) ;
#312 = SURFACE_STYLE_FILL_AREA ( #313 ) ;
#313 = FILL_AREA_STYLE ('',( #173 ) ) ;
#314 = COLOUR_RGB ( '',0.9568627450980391500, 0.9490196078431372100, 0.9607843137254902200 ) ;
#315 = CIRCLE ( 'NONE', #254, 12.70000000000000600 ) ;
#316 = DIRECTION ( 'NONE',  ( 0.0000000000000000000, 1.000000000000000000, 0.0000000000000000000 ) ) ;
#317 = DIRECTION ( 'NONE',  ( -1.000000000000000000, 0.0000000000000000000, 0.0000000000000000000 ) ) ;
#318 = CARTESIAN_POINT ( 'NONE',  ( 0.0000000000000000000, -4.002145739613551000E-015, 31.46500000000000000 ) ) ;
#319 = AXIS2_PLACEMENT_3D ( 'NONE', #318, #317, #316 ) ;
#320 = SPHERICAL_SURFACE ( 'NONE', #319, 34.85999999999999900 ) ;
#321 =( GEOMETRIC_REPRESENTATION_CONTEXT ( 3 ) GLOBAL_UNCERTAINTY_ASSIGNED_CONTEXT ( ( #322 ) ) GLOBAL_UNIT_ASSIGNED_CONTEXT ( ( #214, #213, #212 ) ) REPRESENTATION_CONTEXT ( 'NONE', 'WORKASPACE' ) );
#322 = UNCERTAINTY_MEASURE_WITH_UNIT (LENGTH_MEASURE( 1.000000000000000100E-005 ), #214, 'distance_accuracy_value', 'NONE');
ENDSEC;
END-ISO-10303-21;
